  0
SECTION
  2
HEADER
  9
$ACADVER
  1
AC1009
  9
$DWGCODEPAGE
  3
ansi_1250
  9
$INSBASE
 10
0.0
 20
0.0
 30
0.0
  9
$EXTMIN
 10
-0.745866
 20
-1.511024
 30
0.0
  9
$EXTMAX
 10
0.745866
 20
4.027559
 30
0.0
  9
$LIMMIN
 10
0.0
 20
0.0
  9
$LIMMAX
 10
0.0
 20
0.0
  9
$ORTHOMODE
 70
     0
  9
$REGENMODE
 70
     1
  9
$FILLMODE
 70
     1
  9
$QTEXTMODE
 70
     0
  9
$MIRRTEXT
 70
     1
  9
$DRAGMODE
 70
     2
  9
$LTSCALE
 40
1.0
  9
$OSMODE
 70
     0
  9
$ATTMODE
 70
     1
  9
$TEXTSIZE
 40
0.2
  9
$TRACEWID
 40
0.05
  9
$TEXTSTYLE
  7
STANDARD
  9
$CLAYER
  8
0
  9
$CELTYPE
  6
CONTINUOUS
  9
$CECOLOR
 62
   256
  9
$DIMSCALE
 40
1.0
  9
$DIMASZ
 40
0.18
  9
$DIMEXO
 40
0.0625
  9
$DIMDLI
 40
0.38
  9
$DIMRND
 40
0.0
  9
$DIMDLE
 40
0.0
  9
$DIMEXE
 40
0.18
  9
$DIMTP
 40
0.0
  9
$DIMTM
 40
0.0
  9
$DIMTXT
 40
0.18
  9
$DIMCEN
 40
0.09
  9
$DIMTSZ
 40
0.0
  9
$DIMTOL
 70
     0
  9
$DIMLIM
 70
     0
  9
$DIMTIH
 70
     1
  9
$DIMTOH
 70
     1
  9
$DIMSE1
 70
     0
  9
$DIMSE2
 70
     0
  9
$DIMTAD
 70
     0
  9
$DIMZIN
 70
     0
  9
$DIMBLK
  1

  9
$DIMASO
 70
     1
  9
$DIMSHO
 70
     1
  9
$DIMPOST
  1

  9
$DIMAPOST
  1

  9
$DIMALT
 70
     0
  9
$DIMALTD
 70
     2
  9
$DIMALTF
 40
25.4
  9
$DIMLFAC
 40
1.0
  9
$DIMTOFL
 70
     0
  9
$DIMTVP
 40
0.0
  9
$DIMTIX
 70
     0
  9
$DIMSOXD
 70
     0
  9
$DIMSAH
 70
     0
  9
$DIMBLK1
  1

  9
$DIMBLK2
  1

  9
$DIMSTYLE
  2
STANDARD
  9
$DIMCLRD
 70
     0
  9
$DIMCLRE
 70
     0
  9
$DIMCLRT
 70
     0
  9
$DIMTFAC
 40
1.0
  9
$DIMGAP
 40
0.09
  9
$LUNITS
 70
     2
  9
$LUPREC
 70
     4
  9
$AXISMODE
 70
     0
  9
$AXISUNIT
 10
0.0
 20
0.0
  9
$SKETCHINC
 40
0.1
  9
$FILLETRAD
 40
0.0
  9
$AUNITS
 70
     0
  9
$AUPREC
 70
     0
  9
$MENU
  1
acad
  9
$ELEVATION
 40
0.0
  9
$PELEVATION
 40
0.0
  9
$THICKNESS
 40
0.0
  9
$LIMCHECK
 70
     0
  9
$BLIPMODE
 70
     1
  9
$CHAMFERA
 40
0.0
  9
$CHAMFERB
 40
0.0
  9
$SKPOLY
 70
     0
  9
$TDCREATE
 40
0.000000000
  9
$TDUPDATE
 40
0.000000000
  9
$TDINDWG
 40
0.0000000000
  9
$TDUSRTIMER
 40
0.0000000000
  9
$USRTIMER
 70
     1
  9
$ANGBASE
 50
0.0
  9
$ANGDIR
 70
     0
  9
$PDMODE
 70
     0
  9
$PDSIZE
 40
0.0
  9
$PLINEWID
 40
0.0
  9
$COORDS
 70
     0
  9
$SPLFRAME
 70
     0
  9
$SPLINETYPE
 70
     6
  9
$SPLINESEGS
 70
     8
  9
$ATTDIA
 70
     0
  9
$ATTREQ
 70
     1
  9
$HANDLING
 70
     1
  9
$HANDSEED
  5
3E0
  9
$SURFTAB1
 70
     6
  9
$SURFTAB2
 70
     6
  9
$SURFTYPE
 70
     6
  9
$SURFU
 70
     6
  9
$SURFV
 70
     6
  9
$UCSNAME
  2

  9
$UCSORG
 10
0.0
 20
0.0
 30
0.0
  9
$UCSXDIR
 10
1.0
 20
0.0
 30
0.0
  9
$UCSYDIR
 10
0.0
 20
1.0
 30
0.0
  9
$PUCSNAME
  2

  9
$PUCSORG
 10
0.0
 20
0.0
 30
0.0
  9
$PUCSXDIR
 10
1.0
 20
0.0
 30
0.0
  9
$PUCSYDIR
 10
0.0
 20
1.0
 30
0.0
  9
$USERI1
 70
     0
  9
$USERI2
 70
     0
  9
$USERI3
 70
     0
  9
$USERI4
 70
     0
  9
$USERI5
 70
     0
  9
$USERR1
 40
0.0
  9
$USERR2
 40
0.0
  9
$USERR3
 40
0.0
  9
$USERR4
 40
0.0
  9
$USERR5
 40
0.0
  9
$WORLDVIEW
 70
     1
  9
$SHADEDGE
 70
     3
  9
$SHADEDIF
 70
    70
  9
$TILEMODE
 70
     1
  9
$MAXACTVP
 70
    16
  9
$PINSBASE
 10
0.0
 20
0.0
 30
0.0
  9
$PLIMCHECK
 70
     0
  9
$PEXTMIN
 10
1.000000E+20
 20
1.000000E+20
 30
1.000000E+20
  9
$PEXTMAX
 10
-1.000000E+20
 20
-1.000000E+20
 30
-1.000000E+20
  9
$PLIMMIN
 10
0.0
 20
0.0
  9
$PLIMMAX
 10
12.0
 20
9.0
  9
$UNITMODE
 70
     0
  9
$VISRETAIN
 70
     0
  9
$PLINEGEN
 70
     1
  9
$PSLTSCALE
 70
     0
  9
$TREEDEPTH
 70
  3020
  0
ENDSEC
  0
SECTION
  2
TABLES
  0
TABLE
  2
VPORT
 70
     1
  0
VPORT
  2
*ACTIVE
 70
     0
 10
0.0
 20
0.0
 11
1.0
 21
1.0
 12
6.591288
 22
4.579184
 13
0.0
 23
0.0
 14
1.0
 24
1.0
 15
0.0
 25
0.0
 16
0.0
 26
0.0
 36
1.0
 17
0.0
 27
0.0
 37
0.0
 40
9.158369
 41
0.688564
 42
50.0
 43
0.0
 44
0.0
 50
0.0
 51
0.0
 71
     0
 72
   100
 73
     1
 74
     1
 75
     0
 76
     0
 77
     0
 78
     0
  0
ENDTAB
  0
TABLE
  2
LTYPE
 70
     5
  0
LTYPE
  2
CONTINUOUS
 70
    64
  3
Solid line
 72
    65
 73
     0
 40
0.0
  0
LTYPE
  2
CENTER
 70
    64
  3
Center ____ _ ____ _ ____ _ ____ _ ____ _ ____
 72
    65
 73
     4
 40
50.8
 49
31.75
 49
-6.35
 49
6.35
 49
-6.35
  0
LTYPE
  2
HIDDEN
 70
    64
  3
Hidden __ __ __ __ __ __ __ __ __ __ __ __ __ __
 72
    65
 73
     2
 40
9.525
 49
6.35
 49
-3.175
  0
LTYPE
  2
CENTER2
 70
    64
  3
Center (.5x) ___ _ ___ _ ___ _ ___ _ ___ _ ___
 72
    65
 73
     4
 40
28.575
 49
19.05
 49
-3.175
 49
3.175
 49
-3.175
  0
LTYPE
  2
HIDDEN2
 70
    64
  3
Hidden (.5x) _ _ _ _ _ _ _ _ _ _ _ _ _ _ _ _ _
 72
    65
 73
     2
 40
4.7625
 49
3.175
 49
-1.5875
  0
ENDTAB
  0
TABLE
  2
LAYER
 70
     1
  0
LAYER
  2
0
 70
     0
 62
     7
  6
CONTINUOUS
  0
ENDTAB
  0
TABLE
  2
STYLE
 70
     1
  0
STYLE
  2
STANDARD
 70
     0
 40
0.0
 41
1.0
 50
0.0
 71
     0
 42
0.0
  3
txt
  4

  0
ENDTAB
  0
TABLE
  2
VIEW
 70
     0
  0
ENDTAB
  0
TABLE
  2
UCS
 70
     0
  0
ENDTAB
  0
TABLE
  2
APPID
 70
     1
  0
APPID
  2
ACAD
 70
     0
  0
ENDTAB
  0
TABLE
  2
DIMSTYLE
 70
     1
  0
DIMSTYLE
  2
STANDARD
 70
     0
  3

  4

  5

  6

  7

 40
1.0
 41
0.18
 42
0.0625
 43
0.38
 44
0.18
 45
0.0
 46
0.0
 47
0.0
 48
0.0
 71
     0
 72
     0
 73
     1
 74
     1
 75
     0
 76
     0
 77
     0
 78
     0
140
0.18
141
0.09
142
0.0
143
25.4
144
1.0
145
0.0
146
1.0
147
0.09
170
     0
171
     2
172
     0
173
     0
174
     0
175
     0
176
     0
177
     0
178
     0
  0
ENDTAB
  0
ENDSEC
  0
SECTION
  2
BLOCKS
  0
ENDSEC
  0
SECTION
  2
ENTITIES
  0
LINE
  8
0
  6
CONTINUOUS
 62
     7
  5
221
 10
0.200787
 20
2.357711
 30
0.0
 11
0.200787
 21
2.311024
 31
0.0
  0
LINE
  8
0
  6
CONTINUOUS
 62
     7
  5
222
 10
0.257874
 20
0.401575
 30
0.0
 11
0.257874
 21
0.244094
 31
0.0
  0
LINE
  8
0
  6
CONTINUOUS
 62
     7
  5
223
 10
0.257874
 20
0.244094
 30
0.0
 11
0.403543
 21
0.244094
 31
0.0
  0
LINE
  8
0
  6
CONTINUOUS
 62
     7
  5
224
 10
0.403543
 20
0.244094
 30
0.0
 11
0.403543
 21
0.176378
 31
0.0
  0
LINE
  8
0
  6
CONTINUOUS
 62
     7
  5
225
 10
0.403543
 20
0.176378
 30
0.0
 11
0.257874
 21
0.176378
 31
0.0
  0
LINE
  8
0
  6
CONTINUOUS
 62
     7
  5
226
 10
0.257874
 20
0.176378
 30
0.0
 11
0.257874
 21
0.0
 31
0.0
  0
LINE
  8
0
  6
CONTINUOUS
 62
     7
  5
227
 10
0.531496
 20
0.0
 30
0.0
 11
0.522283
 21
0.0
 31
0.0
  0
LINE
  8
0
  6
CONTINUOUS
 62
     7
  5
228
 10
0.531496
 20
0.018583
 30
0.0
 11
0.531496
 21
0.0
 31
0.0
  0
LINE
  8
0
  6
CONTINUOUS
 62
     7
  5
229
 10
0.465551
 20
0.106299
 30
0.0
 11
0.456693
 21
0.106299
 31
0.0
  0
LINE
  8
0
  6
CONTINUOUS
 62
     7
  5
22A
 10
0.456693
 20
0.106299
 30
0.0
 11
0.456693
 21
0.267717
 31
0.0
  0
LINE
  8
0
  6
CONTINUOUS
 62
     7
  5
22B
 10
0.456693
 20
0.267717
 30
0.0
 11
0.531496
 21
0.267717
 31
0.0
  0
LINE
  8
0
  6
CONTINUOUS
 62
     7
  5
22C
 10
0.531496
 20
0.496063
 30
0.0
 11
0.531496
 21
0.267717
 31
0.0
  0
LINE
  8
0
  6
CONTINUOUS
 62
     7
  5
22D
 10
0.531496
 20
0.496063
 30
0.0
 11
0.478346
 21
0.496063
 31
0.0
  0
LINE
  8
0
  6
CONTINUOUS
 62
     7
  5
22E
 10
0.478346
 20
0.496063
 30
0.0
 11
0.478346
 21
2.590551
 31
0.0
  0
LINE
  8
0
  6
CONTINUOUS
 62
     7
  5
22F
 10
0.478346
 20
2.590551
 30
0.0
 11
0.531496
 21
2.590551
 31
0.0
  0
LINE
  8
0
  6
CONTINUOUS
 62
     7
  5
230
 10
0.531496
 20
2.767717
 30
0.0
 11
0.531496
 21
2.590551
 31
0.0
  0
LINE
  8
0
  6
CONTINUOUS
 62
     7
  5
231
 10
0.212598
 20
2.767717
 30
0.0
 11
0.531496
 21
2.767717
 31
0.0
  0
LINE
  8
0
  6
CONTINUOUS
 62
     7
  5
232
 10
-0.531496
 20
2.767717
 30
0.0
 11
-0.212598
 21
2.767717
 31
0.0
  0
LINE
  8
0
  6
CONTINUOUS
 62
     7
  5
233
 10
0.247638
 20
0.401575
 30
0.0
 11
0.247638
 21
0.23622
 31
0.0
  0
CIRCLE
  8
0
  6
CONTINUOUS
 62
     7
  5
234
 10
0.0
 20
1.649213
 30
0.0
 40
0.220079
  0
LINE
  8
0
  6
CONTINUOUS
 62
     7
  5
235
 10
0.287402
 20
1.293701
 30
0.0
 11
-0.287402
 21
1.293701
 31
0.0
  0
ARC
  8
0
  6
CONTINUOUS
 62
     7
  5
236
 10
-0.287402
 20
1.36063
 30
0.0
 40
0.066929
 50
180.0
 51
270.0
  0
LINE
  8
0
  6
CONTINUOUS
 62
     7
  5
237
 10
-0.354331
 20
1.36063
 30
0.0
 11
-0.354331
 21
1.955118
 31
0.0
  0
ARC
  8
0
  6
CONTINUOUS
 62
     7
  5
238
 10
-0.287402
 20
1.955118
 30
0.0
 40
0.066929
 50
90.0
 51
180.0
  0
LINE
  8
0
  6
CONTINUOUS
 62
     7
  5
239
 10
-0.287402
 20
2.022047
 30
0.0
 11
0.287402
 21
2.022047
 31
0.0
  0
ARC
  8
0
  6
CONTINUOUS
 62
     7
  5
23A
 10
0.287402
 20
1.955118
 30
0.0
 40
0.066929
 50
0.0
 51
90.0
  0
LINE
  8
0
  6
CONTINUOUS
 62
     7
  5
23B
 10
0.354331
 20
1.955118
 30
0.0
 11
0.354331
 21
1.36063
 31
0.0
  0
ARC
  8
0
  6
CONTINUOUS
 62
     7
  5
23C
 10
0.287402
 20
1.36063
 30
0.0
 40
0.066929
 50
270.0
 51
360.0
  0
LINE
  8
0
  6
CONTINUOUS
 62
     7
  5
23D
 10
0.204724
 20
1.350394
 30
0.0
 11
-0.204724
 21
1.350394
 31
0.0
  0
ARC
  8
0
  6
CONTINUOUS
 62
     7
  5
23E
 10
-0.204724
 20
1.417323
 30
0.0
 40
0.066929
 50
180.0
 51
270.0
  0
LINE
  8
0
  6
CONTINUOUS
 62
     7
  5
23F
 10
-0.271654
 20
1.417323
 30
0.0
 11
-0.271654
 21
1.862205
 31
0.0
  0
ARC
  8
0
  6
CONTINUOUS
 62
     7
  5
240
 10
-0.204724
 20
1.862205
 30
0.0
 40
0.066929
 50
90.0
 51
180.0
  0
LINE
  8
0
  6
CONTINUOUS
 62
     7
  5
241
 10
-0.204724
 20
1.929134
 30
0.0
 11
0.204724
 21
1.929134
 31
0.0
  0
ARC
  8
0
  6
CONTINUOUS
 62
     7
  5
242
 10
0.204724
 20
1.862205
 30
0.0
 40
0.066929
 50
0.0
 51
90.0
  0
LINE
  8
0
  6
CONTINUOUS
 62
     7
  5
243
 10
0.271654
 20
1.862205
 30
0.0
 11
0.271654
 21
1.417323
 31
0.0
  0
ARC
  8
0
  6
CONTINUOUS
 62
     7
  5
244
 10
0.204724
 20
1.417323
 30
0.0
 40
0.066929
 50
270.0
 51
360.0
  0
LINE
  8
0
  6
CONTINUOUS
 62
     7
  5
245
 10
0.287402
 20
1.234646
 30
0.0
 11
-0.287402
 21
1.234646
 31
0.0
  0
ARC
  8
0
  6
CONTINUOUS
 62
     7
  5
246
 10
-0.287402
 20
1.36063
 30
0.0
 40
0.125984
 50
180.0
 51
270.0
  0
LINE
  8
0
  6
CONTINUOUS
 62
     7
  5
247
 10
-0.413386
 20
1.36063
 30
0.0
 11
-0.413386
 21
1.955118
 31
0.0
  0
ARC
  8
0
  6
CONTINUOUS
 62
     7
  5
248
 10
-0.287402
 20
1.955118
 30
0.0
 40
0.125984
 50
90.0
 51
180.0
  0
LINE
  8
0
  6
CONTINUOUS
 62
     7
  5
249
 10
-0.287402
 20
2.081102
 30
0.0
 11
0.287402
 21
2.081102
 31
0.0
  0
ARC
  8
0
  6
CONTINUOUS
 62
     7
  5
24A
 10
0.287402
 20
1.955118
 30
0.0
 40
0.125984
 50
0.0
 51
90.0
  0
LINE
  8
0
  6
CONTINUOUS
 62
     7
  5
24B
 10
0.413386
 20
1.955118
 30
0.0
 11
0.413386
 21
1.36063
 31
0.0
  0
ARC
  8
0
  6
CONTINUOUS
 62
     7
  5
24C
 10
0.287402
 20
1.36063
 30
0.0
 40
0.125984
 50
270.0
 51
360.0
  0
LINE
  8
0
  6
CONTINUOUS
 62
     7
  5
24D
 10
-0.383858
 20
0.23622
 30
0.0
 11
-0.247638
 21
0.23622
 31
0.0
  0
LINE
  8
0
  6
CONTINUOUS
 62
     7
  5
24E
 10
0.247638
 20
0.23622
 30
0.0
 11
0.383858
 21
0.23622
 31
0.0
  0
LINE
  8
0
  6
CONTINUOUS
 62
     7
  5
24F
 10
-0.383858
 20
0.23622
 30
0.0
 11
-0.383858
 21
0.19685
 31
0.0
  0
LINE
  8
0
  6
CONTINUOUS
 62
     7
  5
250
 10
0.383858
 20
0.23622
 30
0.0
 11
0.383858
 21
0.19685
 31
0.0
  0
LINE
  8
0
  6
CONTINUOUS
 62
     7
  5
251
 10
-0.247638
 20
0.401575
 30
0.0
 11
-0.247638
 21
0.23622
 31
0.0
  0
LINE
  8
0
  6
CONTINUOUS
 62
     7
  5
252
 10
0.383858
 20
0.19685
 30
0.0
 11
-0.383858
 21
0.19685
 31
0.0
  0
LINE
  8
0
  6
CONTINUOUS
 62
     7
  5
253
 10
0.334646
 20
0.401575
 30
0.0
 11
-0.334646
 21
0.401575
 31
0.0
  0
ARC
  8
0
  6
CONTINUOUS
 62
     7
  5
254
 10
-0.334646
 20
0.519685
 30
0.0
 40
0.11811
 50
180.0
 51
270.0
  0
LINE
  8
0
  6
CONTINUOUS
 62
     7
  5
255
 10
-0.452756
 20
0.519685
 30
0.0
 11
-0.452756
 21
2.299213
 31
0.0
  0
ARC
  8
0
  6
CONTINUOUS
 62
     7
  5
256
 10
-0.440945
 20
2.299213
 30
0.0
 40
0.011811
 50
90.0
 51
180.0
  0
LINE
  8
0
  6
CONTINUOUS
 62
     7
  5
257
 10
-0.440945
 20
2.311024
 30
0.0
 11
0.440945
 21
2.311024
 31
0.0
  0
ARC
  8
0
  6
CONTINUOUS
 62
     7
  5
258
 10
0.440945
 20
2.299213
 30
0.0
 40
0.011811
 50
0.0
 51
90.0
  0
LINE
  8
0
  6
CONTINUOUS
 62
     7
  5
259
 10
0.452756
 20
2.299213
 30
0.0
 11
0.452756
 21
0.519685
 31
0.0
  0
ARC
  8
0
  6
CONTINUOUS
 62
     7
  5
25A
 10
0.334646
 20
0.519685
 30
0.0
 40
0.11811
 50
270.0
 51
360.0
  0
LINE
  8
0
  6
CONTINUOUS
 62
     7
  5
25B
 10
-0.531496
 20
2.767717
 30
0.0
 11
-0.531496
 21
2.590551
 31
0.0
  0
LINE
  8
0
  6
CONTINUOUS
 62
     7
  5
25C
 10
-0.531496
 20
2.590551
 30
0.0
 11
-0.478346
 21
2.590551
 31
0.0
  0
LINE
  8
0
  6
CONTINUOUS
 62
     7
  5
25D
 10
-0.478346
 20
2.590551
 30
0.0
 11
-0.478346
 21
0.496063
 31
0.0
  0
LINE
  8
0
  6
CONTINUOUS
 62
     7
  5
25E
 10
-0.478346
 20
0.496063
 30
0.0
 11
-0.531496
 21
0.496063
 31
0.0
  0
LINE
  8
0
  6
CONTINUOUS
 62
     7
  5
25F
 10
-0.531496
 20
0.496063
 30
0.0
 11
-0.531496
 21
0.267717
 31
0.0
  0
LINE
  8
0
  6
CONTINUOUS
 62
     7
  5
260
 10
-0.531496
 20
0.267717
 30
0.0
 11
-0.456693
 21
0.267717
 31
0.0
  0
LINE
  8
0
  6
CONTINUOUS
 62
     7
  5
261
 10
-0.456693
 20
0.267717
 30
0.0
 11
-0.456693
 21
0.106299
 31
0.0
  0
LINE
  8
0
  6
CONTINUOUS
 62
     7
  5
262
 10
-0.456693
 20
0.106299
 30
0.0
 11
-0.465551
 21
0.106299
 31
0.0
  0
LINE
  8
0
  6
CONTINUOUS
 62
     7
  5
263
 10
-0.531496
 20
0.018583
 30
0.0
 11
-0.531496
 21
0.0
 31
0.0
  0
LINE
  8
0
  6
CONTINUOUS
 62
     7
  5
264
 10
-0.257874
 20
0.0
 30
0.0
 11
-0.257874
 21
0.176378
 31
0.0
  0
LINE
  8
0
  6
CONTINUOUS
 62
     7
  5
265
 10
-0.257874
 20
0.176378
 30
0.0
 11
-0.403543
 21
0.176378
 31
0.0
  0
LINE
  8
0
  6
CONTINUOUS
 62
     7
  5
266
 10
-0.403543
 20
0.176378
 30
0.0
 11
-0.403543
 21
0.244094
 31
0.0
  0
LINE
  8
0
  6
CONTINUOUS
 62
     7
  5
267
 10
-0.403543
 20
0.244094
 30
0.0
 11
-0.257874
 21
0.244094
 31
0.0
  0
LINE
  8
0
  6
CONTINUOUS
 62
     7
  5
268
 10
-0.257874
 20
0.244094
 30
0.0
 11
-0.257874
 21
0.401575
 31
0.0
  0
LINE
  8
0
  6
CONTINUOUS
 62
     7
  5
269
 10
-0.200787
 20
2.311024
 30
0.0
 11
-0.200787
 21
2.357711
 31
0.0
  0
LINE
  8
0
  6
CONTINUOUS
 62
     7
  5
26A
 10
0.531496
 20
0.267717
 30
0.0
 11
0.531496
 21
0.259825
 31
0.0
  0
LINE
  8
0
  6
CONTINUOUS
 62
     7
  5
26B
 10
0.531496
 20
2.590551
 30
0.0
 11
0.531496
 21
0.496063
 31
0.0
  0
LINE
  8
0
  6
CONTINUOUS
 62
     7
  5
26C
 10
-0.531496
 20
0.259825
 30
0.0
 11
-0.531496
 21
0.267717
 31
0.0
  0
LINE
  8
0
  6
CONTINUOUS
 62
     7
  5
26D
 10
-0.531496
 20
0.496063
 30
0.0
 11
-0.531496
 21
2.590551
 31
0.0
  0
LINE
  8
0
  6
CONTINUOUS
 62
     7
  5
26E
 10
-0.257874
 20
0.176378
 30
0.0
 11
-0.133757
 21
0.176378
 31
0.0
  0
LINE
  8
0
  6
CONTINUOUS
 62
     7
  5
26F
 10
0.133757
 20
0.176378
 30
0.0
 11
0.257874
 21
0.176378
 31
0.0
  0
LINE
  8
0
  6
CONTINUOUS
 62
     7
  5
270
 10
0.133757
 20
0.176378
 30
0.0
 11
-0.133757
 21
0.176378
 31
0.0
  0
LINE
  8
0
  6
CONTINUOUS
 62
     7
  5
271
 10
-0.720472
 20
0.0
 30
0.0
 11
-0.23622
 21
0.0
 31
0.0
  0
LINE
  8
0
  6
CONTINUOUS
 62
     7
  5
272
 10
-0.23622
 20
0.0
 30
0.0
 11
0.14225
 21
0.0
 31
0.0
  0
LINE
  8
0
  6
CONTINUOUS
 62
     7
  5
273
 10
0.14225
 20
0.0
 30
0.0
 11
0.159843
 21
0.0
 31
0.0
  0
LINE
  8
0
  6
CONTINUOUS
 62
     7
  5
274
 10
0.251181
 20
0.0
 30
0.0
 11
0.159843
 21
0.0
 31
0.0
  0
LINE
  8
0
  6
CONTINUOUS
 62
     7
  5
275
 10
0.386811
 20
0.0
 30
0.0
 11
0.251181
 21
0.0
 31
0.0
  0
LINE
  8
0
  6
CONTINUOUS
 62
     7
  5
276
 10
-0.043042
 20
-0.837205
 30
0.0
 11
0.177061
 21
-0.837205
 31
0.0
  0
LINE
  8
0
  6
CONTINUOUS
 62
     7
  5
277
 10
0.177061
 20
-0.837205
 30
0.0
 11
0.726574
 21
-0.837205
 31
0.0
  0
LINE
  8
0
  6
CONTINUOUS
 62
     7
  5
278
 10
0.177061
 20
-0.759252
 30
0.0
 11
-0.043042
 21
-0.759252
 31
0.0
  0
LINE
  8
0
  6
CONTINUOUS
 62
     7
  5
279
 10
0.726574
 20
-0.759252
 30
0.0
 11
0.177061
 21
-0.759252
 31
0.0
  0
LINE
  8
0
  6
CONTINUOUS
 62
     7
  5
27A
 10
0.726574
 20
-0.837205
 30
0.0
 11
0.726574
 21
-0.759252
 31
0.0
  0
LINE
  8
0
  6
CONTINUOUS
 62
     7
  5
27B
 10
-0.043042
 20
-0.837205
 30
0.0
 11
-0.048808
 21
-0.837047
 31
0.0
  0
LINE
  8
0
  6
CONTINUOUS
 62
     7
  5
27C
 10
-0.048808
 20
-0.837047
 30
0.0
 11
-0.054563
 21
-0.836573
 31
0.0
  0
LINE
  8
0
  6
CONTINUOUS
 62
     7
  5
27D
 10
-0.054563
 20
-0.836573
 30
0.0
 11
-0.060294
 21
-0.835785
 31
0.0
  0
LINE
  8
0
  6
CONTINUOUS
 62
     7
  5
27E
 10
-0.060294
 20
-0.835785
 30
0.0
 11
-0.06599
 21
-0.834683
 31
0.0
  0
LINE
  8
0
  6
CONTINUOUS
 62
     7
  5
27F
 10
-0.06599
 20
-0.834683
 30
0.0
 11
-0.07164
 21
-0.833271
 31
0.0
  0
LINE
  8
0
  6
CONTINUOUS
 62
     7
  5
280
 10
-0.07164
 20
-0.833271
 30
0.0
 11
-0.077233
 21
-0.831551
 31
0.0
  0
LINE
  8
0
  6
CONTINUOUS
 62
     7
  5
281
 10
-0.077233
 20
-0.831551
 30
0.0
 11
-0.082756
 21
-0.829526
 31
0.0
  0
LINE
  8
0
  6
CONTINUOUS
 62
     7
  5
282
 10
-0.082756
 20
-0.829526
 30
0.0
 11
-0.0882
 21
-0.827201
 31
0.0
  0
LINE
  8
0
  6
CONTINUOUS
 62
     7
  5
283
 10
-0.0882
 20
-0.827201
 30
0.0
 11
-0.093553
 21
-0.824579
 31
0.0
  0
LINE
  8
0
  6
CONTINUOUS
 62
     7
  5
284
 10
-0.093553
 20
-0.824579
 30
0.0
 11
-0.098804
 21
-0.821668
 31
0.0
  0
LINE
  8
0
  6
CONTINUOUS
 62
     7
  5
285
 10
-0.098804
 20
-0.821668
 30
0.0
 11
-0.103942
 21
-0.818471
 31
0.0
  0
LINE
  8
0
  6
CONTINUOUS
 62
     7
  5
286
 10
-0.103942
 20
-0.818471
 30
0.0
 11
-0.108959
 21
-0.814997
 31
0.0
  0
LINE
  8
0
  6
CONTINUOUS
 62
     7
  5
287
 10
-0.108959
 20
-0.814997
 30
0.0
 11
-0.113842
 21
-0.811251
 31
0.0
  0
LINE
  8
0
  6
CONTINUOUS
 62
     7
  5
288
 10
-0.113842
 20
-0.811251
 30
0.0
 11
-0.118583
 21
-0.807241
 31
0.0
  0
LINE
  8
0
  6
CONTINUOUS
 62
     7
  5
289
 10
-0.118583
 20
-0.807241
 30
0.0
 11
-0.123171
 21
-0.802976
 31
0.0
  0
LINE
  8
0
  6
CONTINUOUS
 62
     7
  5
28A
 10
-0.123171
 20
-0.802976
 30
0.0
 11
-0.127599
 21
-0.798464
 31
0.0
  0
LINE
  8
0
  6
CONTINUOUS
 62
     7
  5
28B
 10
-0.127599
 20
-0.798464
 30
0.0
 11
-0.131855
 21
-0.793714
 31
0.0
  0
LINE
  8
0
  6
CONTINUOUS
 62
     7
  5
28C
 10
-0.131855
 20
-0.793714
 30
0.0
 11
-0.135934
 21
-0.788736
 31
0.0
  0
LINE
  8
0
  6
CONTINUOUS
 62
     7
  5
28D
 10
-0.135934
 20
-0.788736
 30
0.0
 11
-0.139825
 21
-0.783539
 31
0.0
  0
LINE
  8
0
  6
CONTINUOUS
 62
     7
  5
28E
 10
-0.139825
 20
-0.783539
 30
0.0
 11
-0.143521
 21
-0.778134
 31
0.0
  0
LINE
  8
0
  6
CONTINUOUS
 62
     7
  5
28F
 10
-0.143521
 20
-0.778134
 30
0.0
 11
-0.147015
 21
-0.772532
 31
0.0
  0
LINE
  8
0
  6
CONTINUOUS
 62
     7
  5
290
 10
-0.147015
 20
-0.772532
 30
0.0
 11
-0.150299
 21
-0.766745
 31
0.0
  0
LINE
  8
0
  6
CONTINUOUS
 62
     7
  5
291
 10
-0.150299
 20
-0.766745
 30
0.0
 11
-0.153367
 21
-0.760784
 31
0.0
  0
LINE
  8
0
  6
CONTINUOUS
 62
     7
  5
292
 10
-0.153367
 20
-0.760784
 30
0.0
 11
-0.156214
 21
-0.75466
 31
0.0
  0
LINE
  8
0
  6
CONTINUOUS
 62
     7
  5
293
 10
-0.156214
 20
-0.75466
 30
0.0
 11
-0.158832
 21
-0.748387
 31
0.0
  0
LINE
  8
0
  6
CONTINUOUS
 62
     7
  5
294
 10
-0.158832
 20
-0.748387
 30
0.0
 11
-0.161217
 21
-0.741977
 31
0.0
  0
LINE
  8
0
  6
CONTINUOUS
 62
     7
  5
295
 10
-0.161217
 20
-0.741977
 30
0.0
 11
-0.163364
 21
-0.735442
 31
0.0
  0
LINE
  8
0
  6
CONTINUOUS
 62
     7
  5
296
 10
-0.163364
 20
-0.735442
 30
0.0
 11
-0.165269
 21
-0.728797
 31
0.0
  0
LINE
  8
0
  6
CONTINUOUS
 62
     7
  5
297
 10
-0.165269
 20
-0.728797
 30
0.0
 11
-0.166928
 21
-0.722053
 31
0.0
  0
LINE
  8
0
  6
CONTINUOUS
 62
     7
  5
298
 10
-0.166928
 20
-0.722053
 30
0.0
 11
-0.168337
 21
-0.715226
 31
0.0
  0
LINE
  8
0
  6
CONTINUOUS
 62
     7
  5
299
 10
-0.168337
 20
-0.715226
 30
0.0
 11
-0.169494
 21
-0.708329
 31
0.0
  0
LINE
  8
0
  6
CONTINUOUS
 62
     7
  5
29A
 10
-0.169494
 20
-0.708329
 30
0.0
 11
-0.170396
 21
-0.701375
 31
0.0
  0
LINE
  8
0
  6
CONTINUOUS
 62
     7
  5
29B
 10
-0.170396
 20
-0.701375
 30
0.0
 11
-0.171042
 21
-0.694378
 31
0.0
  0
LINE
  8
0
  6
CONTINUOUS
 62
     7
  5
29C
 10
-0.171042
 20
-0.694378
 30
0.0
 11
-0.17143
 21
-0.687354
 31
0.0
  0
LINE
  8
0
  6
CONTINUOUS
 62
     7
  5
29D
 10
-0.17143
 20
-0.687354
 30
0.0
 11
-0.171559
 21
-0.680315
 31
0.0
  0
LINE
  8
0
  6
CONTINUOUS
 62
     7
  5
29E
 10
-0.107704
 20
-0.680315
 30
0.0
 11
-0.107639
 21
-0.683856
 31
0.0
  0
LINE
  8
0
  6
CONTINUOUS
 62
     7
  5
29F
 10
-0.107639
 20
-0.683856
 30
0.0
 11
-0.107444
 21
-0.687391
 31
0.0
  0
LINE
  8
0
  6
CONTINUOUS
 62
     7
  5
2A0
 10
-0.107444
 20
-0.687391
 30
0.0
 11
-0.107119
 21
-0.690911
 31
0.0
  0
LINE
  8
0
  6
CONTINUOUS
 62
     7
  5
2A1
 10
-0.107119
 20
-0.690911
 30
0.0
 11
-0.106665
 21
-0.69441
 31
0.0
  0
LINE
  8
0
  6
CONTINUOUS
 62
     7
  5
2A2
 10
-0.106665
 20
-0.69441
 30
0.0
 11
-0.106083
 21
-0.69788
 31
0.0
  0
LINE
  8
0
  6
CONTINUOUS
 62
     7
  5
2A3
 10
-0.106083
 20
-0.69788
 30
0.0
 11
-0.105374
 21
-0.701315
 31
0.0
  0
LINE
  8
0
  6
CONTINUOUS
 62
     7
  5
2A4
 10
-0.105374
 20
-0.701315
 30
0.0
 11
-0.104539
 21
-0.704708
 31
0.0
  0
LINE
  8
0
  6
CONTINUOUS
 62
     7
  5
2A5
 10
-0.104539
 20
-0.704708
 30
0.0
 11
-0.103581
 21
-0.708051
 31
0.0
  0
LINE
  8
0
  6
CONTINUOUS
 62
     7
  5
2A6
 10
-0.103581
 20
-0.708051
 30
0.0
 11
-0.1025
 21
-0.711339
 31
0.0
  0
LINE
  8
0
  6
CONTINUOUS
 62
     7
  5
2A7
 10
-0.1025
 20
-0.711339
 30
0.0
 11
-0.1013
 21
-0.714564
 31
0.0
  0
LINE
  8
0
  6
CONTINUOUS
 62
     7
  5
2A8
 10
-0.1013
 20
-0.714564
 30
0.0
 11
-0.099983
 21
-0.717721
 31
0.0
  0
LINE
  8
0
  6
CONTINUOUS
 62
     7
  5
2A9
 10
-0.099983
 20
-0.717721
 30
0.0
 11
-0.098551
 21
-0.720802
 31
0.0
  0
LINE
  8
0
  6
CONTINUOUS
 62
     7
  5
2AA
 10
-0.098551
 20
-0.720802
 30
0.0
 11
-0.097007
 21
-0.723801
 31
0.0
  0
LINE
  8
0
  6
CONTINUOUS
 62
     7
  5
2AB
 10
-0.097007
 20
-0.723801
 30
0.0
 11
-0.095355
 21
-0.726713
 31
0.0
  0
LINE
  8
0
  6
CONTINUOUS
 62
     7
  5
2AC
 10
-0.095355
 20
-0.726713
 30
0.0
 11
-0.093597
 21
-0.729531
 31
0.0
  0
LINE
  8
0
  6
CONTINUOUS
 62
     7
  5
2AD
 10
-0.093597
 20
-0.729531
 30
0.0
 11
-0.091737
 21
-0.732251
 31
0.0
  0
LINE
  8
0
  6
CONTINUOUS
 62
     7
  5
2AE
 10
-0.091737
 20
-0.732251
 30
0.0
 11
-0.089779
 21
-0.734865
 31
0.0
  0
LINE
  8
0
  6
CONTINUOUS
 62
     7
  5
2AF
 10
-0.089779
 20
-0.734865
 30
0.0
 11
-0.087728
 21
-0.73737
 31
0.0
  0
LINE
  8
0
  6
CONTINUOUS
 62
     7
  5
2B0
 10
-0.087728
 20
-0.73737
 30
0.0
 11
-0.085586
 21
-0.73976
 31
0.0
  0
LINE
  8
0
  6
CONTINUOUS
 62
     7
  5
2B1
 10
-0.085586
 20
-0.73976
 30
0.0
 11
-0.083358
 21
-0.74203
 31
0.0
  0
LINE
  8
0
  6
CONTINUOUS
 62
     7
  5
2B2
 10
-0.083358
 20
-0.74203
 30
0.0
 11
-0.08105
 21
-0.744176
 31
0.0
  0
LINE
  8
0
  6
CONTINUOUS
 62
     7
  5
2B3
 10
-0.08105
 20
-0.744176
 30
0.0
 11
-0.078664
 21
-0.746194
 31
0.0
  0
LINE
  8
0
  6
CONTINUOUS
 62
     7
  5
2B4
 10
-0.078664
 20
-0.746194
 30
0.0
 11
-0.076207
 21
-0.748078
 31
0.0
  0
LINE
  8
0
  6
CONTINUOUS
 62
     7
  5
2B5
 10
-0.076207
 20
-0.748078
 30
0.0
 11
-0.073684
 21
-0.749827
 31
0.0
  0
LINE
  8
0
  6
CONTINUOUS
 62
     7
  5
2B6
 10
-0.073684
 20
-0.749827
 30
0.0
 11
-0.071098
 21
-0.751435
 31
0.0
  0
LINE
  8
0
  6
CONTINUOUS
 62
     7
  5
2B7
 10
-0.071098
 20
-0.751435
 30
0.0
 11
-0.068456
 21
-0.7529
 31
0.0
  0
LINE
  8
0
  6
CONTINUOUS
 62
     7
  5
2B8
 10
-0.068456
 20
-0.7529
 30
0.0
 11
-0.065763
 21
-0.754219
 31
0.0
  0
LINE
  8
0
  6
CONTINUOUS
 62
     7
  5
2B9
 10
-0.065763
 20
-0.754219
 30
0.0
 11
-0.063024
 21
-0.755389
 31
0.0
  0
LINE
  8
0
  6
CONTINUOUS
 62
     7
  5
2BA
 10
-0.063024
 20
-0.755389
 30
0.0
 11
-0.060245
 21
-0.756407
 31
0.0
  0
LINE
  8
0
  6
CONTINUOUS
 62
     7
  5
2BB
 10
-0.060245
 20
-0.756407
 30
0.0
 11
-0.057431
 21
-0.757273
 31
0.0
  0
LINE
  8
0
  6
CONTINUOUS
 62
     7
  5
2BC
 10
-0.057431
 20
-0.757273
 30
0.0
 11
-0.054588
 21
-0.757983
 31
0.0
  0
LINE
  8
0
  6
CONTINUOUS
 62
     7
  5
2BD
 10
-0.054588
 20
-0.757983
 30
0.0
 11
-0.051722
 21
-0.758538
 31
0.0
  0
LINE
  8
0
  6
CONTINUOUS
 62
     7
  5
2BE
 10
-0.051722
 20
-0.758538
 30
0.0
 11
-0.048839
 21
-0.758934
 31
0.0
  0
LINE
  8
0
  6
CONTINUOUS
 62
     7
  5
2BF
 10
-0.048839
 20
-0.758934
 30
0.0
 11
-0.045944
 21
-0.759172
 31
0.0
  0
LINE
  8
0
  6
CONTINUOUS
 62
     7
  5
2C0
 10
-0.045944
 20
-0.759172
 30
0.0
 11
-0.043042
 21
-0.759252
 31
0.0
  0
LINE
  8
0
  6
CONTINUOUS
 62
     7
  5
2C1
 10
-0.171559
 20
-0.15689
 30
0.0
 11
-0.171559
 21
-0.680315
 31
0.0
  0
LINE
  8
0
  6
CONTINUOUS
 62
     7
  5
2C2
 10
0.270766
 20
-0.307882
 30
0.0
 11
0.270766
 21
-0.15689
 31
0.0
  0
LINE
  8
0
  6
CONTINUOUS
 62
     7
  5
2C3
 10
-0.107704
 20
-0.680315
 30
0.0
 11
-0.107704
 21
-0.15689
 31
0.0
  0
LINE
  8
0
  6
CONTINUOUS
 62
     7
  5
2C4
 10
0.270766
 20
-0.15689
 30
0.0
 11
0.270637
 21
-0.149851
 31
0.0
  0
LINE
  8
0
  6
CONTINUOUS
 62
     7
  5
2C5
 10
0.270637
 20
-0.149851
 30
0.0
 11
0.270249
 21
-0.142826
 31
0.0
  0
LINE
  8
0
  6
CONTINUOUS
 62
     7
  5
2C6
 10
0.270249
 20
-0.142826
 30
0.0
 11
0.269603
 21
-0.13583
 31
0.0
  0
LINE
  8
0
  6
CONTINUOUS
 62
     7
  5
2C7
 10
0.269603
 20
-0.13583
 30
0.0
 11
0.268701
 21
-0.128876
 31
0.0
  0
LINE
  8
0
  6
CONTINUOUS
 62
     7
  5
2C8
 10
0.268701
 20
-0.128876
 30
0.0
 11
0.267544
 21
-0.121979
 31
0.0
  0
LINE
  8
0
  6
CONTINUOUS
 62
     7
  5
2C9
 10
0.267544
 20
-0.121979
 30
0.0
 11
0.266135
 21
-0.115151
 31
0.0
  0
LINE
  8
0
  6
CONTINUOUS
 62
     7
  5
2CA
 10
0.266135
 20
-0.115151
 30
0.0
 11
0.264476
 21
-0.108408
 31
0.0
  0
LINE
  8
0
  6
CONTINUOUS
 62
     7
  5
2CB
 10
0.264476
 20
-0.108408
 30
0.0
 11
0.262571
 21
-0.101763
 31
0.0
  0
LINE
  8
0
  6
CONTINUOUS
 62
     7
  5
2CC
 10
0.262571
 20
-0.101763
 30
0.0
 11
0.260424
 21
-0.095228
 31
0.0
  0
LINE
  8
0
  6
CONTINUOUS
 62
     7
  5
2CD
 10
0.260424
 20
-0.095228
 30
0.0
 11
0.258039
 21
-0.088818
 31
0.0
  0
LINE
  8
0
  6
CONTINUOUS
 62
     7
  5
2CE
 10
0.258039
 20
-0.088818
 30
0.0
 11
0.255421
 21
-0.082545
 31
0.0
  0
LINE
  8
0
  6
CONTINUOUS
 62
     7
  5
2CF
 10
0.255421
 20
-0.082545
 30
0.0
 11
0.252575
 21
-0.076421
 31
0.0
  0
LINE
  8
0
  6
CONTINUOUS
 62
     7
  5
2D0
 10
0.252575
 20
-0.076421
 30
0.0
 11
0.249506
 21
-0.07046
 31
0.0
  0
LINE
  8
0
  6
CONTINUOUS
 62
     7
  5
2D1
 10
0.249506
 20
-0.07046
 30
0.0
 11
0.246222
 21
-0.064672
 31
0.0
  0
LINE
  8
0
  6
CONTINUOUS
 62
     7
  5
2D2
 10
0.246222
 20
-0.064672
 30
0.0
 11
0.242728
 21
-0.059071
 31
0.0
  0
LINE
  8
0
  6
CONTINUOUS
 62
     7
  5
2D3
 10
0.242728
 20
-0.059071
 30
0.0
 11
0.239032
 21
-0.053666
 31
0.0
  0
LINE
  8
0
  6
CONTINUOUS
 62
     7
  5
2D4
 10
0.239032
 20
-0.053666
 30
0.0
 11
0.235141
 21
-0.048469
 31
0.0
  0
LINE
  8
0
  6
CONTINUOUS
 62
     7
  5
2D5
 10
0.235141
 20
-0.048469
 30
0.0
 11
0.231063
 21
-0.043491
 31
0.0
  0
LINE
  8
0
  6
CONTINUOUS
 62
     7
  5
2D6
 10
0.231063
 20
-0.043491
 30
0.0
 11
0.226806
 21
-0.038741
 31
0.0
  0
LINE
  8
0
  6
CONTINUOUS
 62
     7
  5
2D7
 10
0.226806
 20
-0.038741
 30
0.0
 11
0.222378
 21
-0.034228
 31
0.0
  0
LINE
  8
0
  6
CONTINUOUS
 62
     7
  5
2D8
 10
0.222378
 20
-0.034228
 30
0.0
 11
0.21779
 21
-0.029963
 31
0.0
  0
LINE
  8
0
  6
CONTINUOUS
 62
     7
  5
2D9
 10
0.21779
 20
-0.029963
 30
0.0
 11
0.213049
 21
-0.025954
 31
0.0
  0
LINE
  8
0
  6
CONTINUOUS
 62
     7
  5
2DA
 10
0.213049
 20
-0.025954
 30
0.0
 11
0.208166
 21
-0.022208
 31
0.0
  0
LINE
  8
0
  6
CONTINUOUS
 62
     7
  5
2DB
 10
0.208166
 20
-0.022208
 30
0.0
 11
0.20315
 21
-0.018733
 31
0.0
  0
LINE
  8
0
  6
CONTINUOUS
 62
     7
  5
2DC
 10
0.20315
 20
-0.018733
 30
0.0
 11
0.198011
 21
-0.015537
 31
0.0
  0
LINE
  8
0
  6
CONTINUOUS
 62
     7
  5
2DD
 10
0.198011
 20
-0.015537
 30
0.0
 11
0.19276
 21
-0.012625
 31
0.0
  0
LINE
  8
0
  6
CONTINUOUS
 62
     7
  5
2DE
 10
0.19276
 20
-0.012625
 30
0.0
 11
0.187407
 21
-0.010004
 31
0.0
  0
LINE
  8
0
  6
CONTINUOUS
 62
     7
  5
2DF
 10
0.187407
 20
-0.010004
 30
0.0
 11
0.181963
 21
-0.007679
 31
0.0
  0
LINE
  8
0
  6
CONTINUOUS
 62
     7
  5
2E0
 10
0.181963
 20
-0.007679
 30
0.0
 11
0.17644
 21
-0.005654
 31
0.0
  0
LINE
  8
0
  6
CONTINUOUS
 62
     7
  5
2E1
 10
0.17644
 20
-0.005654
 30
0.0
 11
0.170847
 21
-0.003934
 31
0.0
  0
LINE
  8
0
  6
CONTINUOUS
 62
     7
  5
2E2
 10
0.170847
 20
-0.003934
 30
0.0
 11
0.165197
 21
-0.002521
 31
0.0
  0
LINE
  8
0
  6
CONTINUOUS
 62
     7
  5
2E3
 10
0.165197
 20
-0.002521
 30
0.0
 11
0.159501
 21
-0.00142
 31
0.0
  0
LINE
  8
0
  6
CONTINUOUS
 62
     7
  5
2E4
 10
0.159501
 20
-0.00142
 30
0.0
 11
0.15377
 21
-0.000632
 31
0.0
  0
LINE
  8
0
  6
CONTINUOUS
 62
     7
  5
2E5
 10
0.15377
 20
-0.000632
 30
0.0
 11
0.148016
 21
-0.000158
 31
0.0
  0
LINE
  8
0
  6
CONTINUOUS
 62
     7
  5
2E6
 10
0.148016
 20
-0.000158
 30
0.0
 11
0.14225
 21
0.0
 31
0.0
  0
LINE
  8
0
  6
CONTINUOUS
 62
     7
  5
2E7
 10
-0.107704
 20
-0.15689
 30
0.0
 11
-0.107833
 21
-0.149851
 31
0.0
  0
LINE
  8
0
  6
CONTINUOUS
 62
     7
  5
2E8
 10
-0.107833
 20
-0.149851
 30
0.0
 11
-0.108221
 21
-0.142826
 31
0.0
  0
LINE
  8
0
  6
CONTINUOUS
 62
     7
  5
2E9
 10
-0.108221
 20
-0.142826
 30
0.0
 11
-0.108867
 21
-0.13583
 31
0.0
  0
LINE
  8
0
  6
CONTINUOUS
 62
     7
  5
2EA
 10
-0.108867
 20
-0.13583
 30
0.0
 11
-0.109769
 21
-0.128876
 31
0.0
  0
LINE
  8
0
  6
CONTINUOUS
 62
     7
  5
2EB
 10
-0.109769
 20
-0.128876
 30
0.0
 11
-0.110926
 21
-0.121979
 31
0.0
  0
LINE
  8
0
  6
CONTINUOUS
 62
     7
  5
2EC
 10
-0.110926
 20
-0.121979
 30
0.0
 11
-0.112335
 21
-0.115151
 31
0.0
  0
LINE
  8
0
  6
CONTINUOUS
 62
     7
  5
2ED
 10
-0.112335
 20
-0.115151
 30
0.0
 11
-0.113994
 21
-0.108408
 31
0.0
  0
LINE
  8
0
  6
CONTINUOUS
 62
     7
  5
2EE
 10
-0.113994
 20
-0.108408
 30
0.0
 11
-0.115899
 21
-0.101763
 31
0.0
  0
LINE
  8
0
  6
CONTINUOUS
 62
     7
  5
2EF
 10
-0.115899
 20
-0.101763
 30
0.0
 11
-0.118046
 21
-0.095228
 31
0.0
  0
LINE
  8
0
  6
CONTINUOUS
 62
     7
  5
2F0
 10
-0.118046
 20
-0.095228
 30
0.0
 11
-0.120431
 21
-0.088818
 31
0.0
  0
LINE
  8
0
  6
CONTINUOUS
 62
     7
  5
2F1
 10
-0.120431
 20
-0.088818
 30
0.0
 11
-0.123049
 21
-0.082545
 31
0.0
  0
LINE
  8
0
  6
CONTINUOUS
 62
     7
  5
2F2
 10
-0.123049
 20
-0.082545
 30
0.0
 11
-0.125896
 21
-0.076421
 31
0.0
  0
LINE
  8
0
  6
CONTINUOUS
 62
     7
  5
2F3
 10
-0.125896
 20
-0.076421
 30
0.0
 11
-0.128964
 21
-0.07046
 31
0.0
  0
LINE
  8
0
  6
CONTINUOUS
 62
     7
  5
2F4
 10
-0.128964
 20
-0.07046
 30
0.0
 11
-0.132248
 21
-0.064672
 31
0.0
  0
LINE
  8
0
  6
CONTINUOUS
 62
     7
  5
2F5
 10
-0.132248
 20
-0.064672
 30
0.0
 11
-0.135742
 21
-0.059071
 31
0.0
  0
LINE
  8
0
  6
CONTINUOUS
 62
     7
  5
2F6
 10
-0.135742
 20
-0.059071
 30
0.0
 11
-0.139438
 21
-0.053666
 31
0.0
  0
LINE
  8
0
  6
CONTINUOUS
 62
     7
  5
2F7
 10
-0.139438
 20
-0.053666
 30
0.0
 11
-0.143329
 21
-0.048469
 31
0.0
  0
LINE
  8
0
  6
CONTINUOUS
 62
     7
  5
2F8
 10
-0.143329
 20
-0.048469
 30
0.0
 11
-0.147407
 21
-0.043491
 31
0.0
  0
LINE
  8
0
  6
CONTINUOUS
 62
     7
  5
2F9
 10
-0.147407
 20
-0.043491
 30
0.0
 11
-0.151664
 21
-0.038741
 31
0.0
  0
LINE
  8
0
  6
CONTINUOUS
 62
     7
  5
2FA
 10
-0.151664
 20
-0.038741
 30
0.0
 11
-0.156092
 21
-0.034228
 31
0.0
  0
LINE
  8
0
  6
CONTINUOUS
 62
     7
  5
2FB
 10
-0.156092
 20
-0.034228
 30
0.0
 11
-0.16068
 21
-0.029963
 31
0.0
  0
LINE
  8
0
  6
CONTINUOUS
 62
     7
  5
2FC
 10
-0.16068
 20
-0.029963
 30
0.0
 11
-0.165421
 21
-0.025954
 31
0.0
  0
LINE
  8
0
  6
CONTINUOUS
 62
     7
  5
2FD
 10
-0.165421
 20
-0.025954
 30
0.0
 11
-0.170304
 21
-0.022208
 31
0.0
  0
LINE
  8
0
  6
CONTINUOUS
 62
     7
  5
2FE
 10
-0.170304
 20
-0.022208
 30
0.0
 11
-0.17532
 21
-0.018733
 31
0.0
  0
LINE
  8
0
  6
CONTINUOUS
 62
     7
  5
2FF
 10
-0.17532
 20
-0.018733
 30
0.0
 11
-0.180459
 21
-0.015537
 31
0.0
  0
LINE
  8
0
  6
CONTINUOUS
 62
     7
  5
300
 10
-0.180459
 20
-0.015537
 30
0.0
 11
-0.18571
 21
-0.012625
 31
0.0
  0
LINE
  8
0
  6
CONTINUOUS
 62
     7
  5
301
 10
-0.18571
 20
-0.012625
 30
0.0
 11
-0.191063
 21
-0.010004
 31
0.0
  0
LINE
  8
0
  6
CONTINUOUS
 62
     7
  5
302
 10
-0.191063
 20
-0.010004
 30
0.0
 11
-0.196507
 21
-0.007679
 31
0.0
  0
LINE
  8
0
  6
CONTINUOUS
 62
     7
  5
303
 10
-0.196507
 20
-0.007679
 30
0.0
 11
-0.20203
 21
-0.005654
 31
0.0
  0
LINE
  8
0
  6
CONTINUOUS
 62
     7
  5
304
 10
-0.20203
 20
-0.005654
 30
0.0
 11
-0.207623
 21
-0.003934
 31
0.0
  0
LINE
  8
0
  6
CONTINUOUS
 62
     7
  5
305
 10
-0.207623
 20
-0.003934
 30
0.0
 11
-0.213273
 21
-0.002521
 31
0.0
  0
LINE
  8
0
  6
CONTINUOUS
 62
     7
  5
306
 10
-0.213273
 20
-0.002521
 30
0.0
 11
-0.218969
 21
-0.00142
 31
0.0
  0
LINE
  8
0
  6
CONTINUOUS
 62
     7
  5
307
 10
-0.218969
 20
-0.00142
 30
0.0
 11
-0.2247
 21
-0.000632
 31
0.0
  0
LINE
  8
0
  6
CONTINUOUS
 62
     7
  5
308
 10
-0.2247
 20
-0.000632
 30
0.0
 11
-0.230455
 21
-0.000158
 31
0.0
  0
LINE
  8
0
  6
CONTINUOUS
 62
     7
  5
309
 10
-0.230455
 20
-0.000158
 30
0.0
 11
-0.23622
 21
0.0
 31
0.0
  0
LINE
  8
0
  6
CONTINUOUS
 62
     7
  5
30A
 10
-0.23622
 20
-0.077953
 30
0.0
 11
-0.233319
 21
-0.078032
 31
0.0
  0
LINE
  8
0
  6
CONTINUOUS
 62
     7
  5
30B
 10
-0.233319
 20
-0.078032
 30
0.0
 11
-0.230424
 21
-0.078271
 31
0.0
  0
LINE
  8
0
  6
CONTINUOUS
 62
     7
  5
30C
 10
-0.230424
 20
-0.078271
 30
0.0
 11
-0.227541
 21
-0.078667
 31
0.0
  0
LINE
  8
0
  6
CONTINUOUS
 62
     7
  5
30D
 10
-0.227541
 20
-0.078667
 30
0.0
 11
-0.224675
 21
-0.079221
 31
0.0
  0
LINE
  8
0
  6
CONTINUOUS
 62
     7
  5
30E
 10
-0.224675
 20
-0.079221
 30
0.0
 11
-0.221832
 21
-0.079932
 31
0.0
  0
LINE
  8
0
  6
CONTINUOUS
 62
     7
  5
30F
 10
-0.221832
 20
-0.079932
 30
0.0
 11
-0.219018
 21
-0.080797
 31
0.0
  0
LINE
  8
0
  6
CONTINUOUS
 62
     7
  5
310
 10
-0.219018
 20
-0.080797
 30
0.0
 11
-0.216239
 21
-0.081816
 31
0.0
  0
LINE
  8
0
  6
CONTINUOUS
 62
     7
  5
311
 10
-0.216239
 20
-0.081816
 30
0.0
 11
-0.2135
 21
-0.082986
 31
0.0
  0
LINE
  8
0
  6
CONTINUOUS
 62
     7
  5
312
 10
-0.2135
 20
-0.082986
 30
0.0
 11
-0.210807
 21
-0.084305
 31
0.0
  0
LINE
  8
0
  6
CONTINUOUS
 62
     7
  5
313
 10
-0.210807
 20
-0.084305
 30
0.0
 11
-0.208165
 21
-0.08577
 31
0.0
  0
LINE
  8
0
  6
CONTINUOUS
 62
     7
  5
314
 10
-0.208165
 20
-0.08577
 30
0.0
 11
-0.205579
 21
-0.087378
 31
0.0
  0
LINE
  8
0
  6
CONTINUOUS
 62
     7
  5
315
 10
-0.205579
 20
-0.087378
 30
0.0
 11
-0.203056
 21
-0.089126
 31
0.0
  0
LINE
  8
0
  6
CONTINUOUS
 62
     7
  5
316
 10
-0.203056
 20
-0.089126
 30
0.0
 11
-0.200599
 21
-0.091011
 31
0.0
  0
LINE
  8
0
  6
CONTINUOUS
 62
     7
  5
317
 10
-0.200599
 20
-0.091011
 30
0.0
 11
-0.198213
 21
-0.093028
 31
0.0
  0
LINE
  8
0
  6
CONTINUOUS
 62
     7
  5
318
 10
-0.198213
 20
-0.093028
 30
0.0
 11
-0.195905
 21
-0.095174
 31
0.0
  0
LINE
  8
0
  6
CONTINUOUS
 62
     7
  5
319
 10
-0.195905
 20
-0.095174
 30
0.0
 11
-0.193677
 21
-0.097445
 31
0.0
  0
LINE
  8
0
  6
CONTINUOUS
 62
     7
  5
31A
 10
-0.193677
 20
-0.097445
 30
0.0
 11
-0.191535
 21
-0.099834
 31
0.0
  0
LINE
  8
0
  6
CONTINUOUS
 62
     7
  5
31B
 10
-0.191535
 20
-0.099834
 30
0.0
 11
-0.189484
 21
-0.102339
 31
0.0
  0
LINE
  8
0
  6
CONTINUOUS
 62
     7
  5
31C
 10
-0.189484
 20
-0.102339
 30
0.0
 11
-0.187526
 21
-0.104954
 31
0.0
  0
LINE
  8
0
  6
CONTINUOUS
 62
     7
  5
31D
 10
-0.187526
 20
-0.104954
 30
0.0
 11
-0.185666
 21
-0.107673
 31
0.0
  0
LINE
  8
0
  6
CONTINUOUS
 62
     7
  5
31E
 10
-0.185666
 20
-0.107673
 30
0.0
 11
-0.183908
 21
-0.110492
 31
0.0
  0
LINE
  8
0
  6
CONTINUOUS
 62
     7
  5
31F
 10
-0.183908
 20
-0.110492
 30
0.0
 11
-0.182256
 21
-0.113404
 31
0.0
  0
LINE
  8
0
  6
CONTINUOUS
 62
     7
  5
320
 10
-0.182256
 20
-0.113404
 30
0.0
 11
-0.180712
 21
-0.116403
 31
0.0
  0
LINE
  8
0
  6
CONTINUOUS
 62
     7
  5
321
 10
-0.180712
 20
-0.116403
 30
0.0
 11
-0.17928
 21
-0.119484
 31
0.0
  0
LINE
  8
0
  6
CONTINUOUS
 62
     7
  5
322
 10
-0.17928
 20
-0.119484
 30
0.0
 11
-0.177963
 21
-0.12264
 31
0.0
  0
LINE
  8
0
  6
CONTINUOUS
 62
     7
  5
323
 10
-0.177963
 20
-0.12264
 30
0.0
 11
-0.176763
 21
-0.125866
 31
0.0
  0
LINE
  8
0
  6
CONTINUOUS
 62
     7
  5
324
 10
-0.176763
 20
-0.125866
 30
0.0
 11
-0.175682
 21
-0.129153
 31
0.0
  0
LINE
  8
0
  6
CONTINUOUS
 62
     7
  5
325
 10
-0.175682
 20
-0.129153
 30
0.0
 11
-0.174724
 21
-0.132497
 31
0.0
  0
LINE
  8
0
  6
CONTINUOUS
 62
     7
  5
326
 10
-0.174724
 20
-0.132497
 30
0.0
 11
-0.173889
 21
-0.13589
 31
0.0
  0
LINE
  8
0
  6
CONTINUOUS
 62
     7
  5
327
 10
-0.173889
 20
-0.13589
 30
0.0
 11
-0.17318
 21
-0.139325
 31
0.0
  0
LINE
  8
0
  6
CONTINUOUS
 62
     7
  5
328
 10
-0.17318
 20
-0.139325
 30
0.0
 11
-0.172598
 21
-0.142795
 31
0.0
  0
LINE
  8
0
  6
CONTINUOUS
 62
     7
  5
329
 10
-0.172598
 20
-0.142795
 30
0.0
 11
-0.172144
 21
-0.146294
 31
0.0
  0
LINE
  8
0
  6
CONTINUOUS
 62
     7
  5
32A
 10
-0.172144
 20
-0.146294
 30
0.0
 11
-0.171819
 21
-0.149814
 31
0.0
  0
LINE
  8
0
  6
CONTINUOUS
 62
     7
  5
32B
 10
-0.171819
 20
-0.149814
 30
0.0
 11
-0.171624
 21
-0.153348
 31
0.0
  0
LINE
  8
0
  6
CONTINUOUS
 62
     7
  5
32C
 10
-0.171624
 20
-0.153348
 30
0.0
 11
-0.171559
 21
-0.15689
 31
0.0
  0
LINE
  8
0
  6
CONTINUOUS
 62
     7
  5
32D
 10
0.608717
 20
-0.444882
 30
0.0
 11
0.367717
 21
-0.444882
 31
0.0
  0
LINE
  8
0
  6
CONTINUOUS
 62
     7
  5
32E
 10
0.367717
 20
-0.444882
 30
0.0
 11
0.126717
 21
-0.444882
 31
0.0
  0
LINE
  8
0
  6
CONTINUOUS
 62
     7
  5
32F
 10
0.608717
 20
-0.307882
 30
0.0
 11
0.367717
 21
-0.307882
 31
0.0
  0
LINE
  8
0
  6
CONTINUOUS
 62
     7
  5
330
 10
0.367717
 20
-0.307882
 30
0.0
 11
0.126717
 21
-0.307882
 31
0.0
  0
LINE
  8
0
  6
CONTINUOUS
 62
     7
  5
331
 10
0.27621
 20
-1.194882
 30
0.0
 11
0.367717
 21
-1.194882
 31
0.0
  0
LINE
  8
0
  6
CONTINUOUS
 62
     7
  5
332
 10
0.367717
 20
-1.194882
 30
0.0
 11
0.459223
 21
-1.194882
 31
0.0
  0
LINE
  8
0
  6
CONTINUOUS
 62
     7
  5
333
 10
0.242717
 20
-1.069882
 30
0.0
 11
0.367717
 21
-1.069882
 31
0.0
  0
LINE
  8
0
  6
CONTINUOUS
 62
     7
  5
334
 10
0.367717
 20
-1.069882
 30
0.0
 11
0.492717
 21
-1.069882
 31
0.0
  0
LINE
  8
0
  6
CONTINUOUS
 62
     7
  5
335
 10
-0.465551
 20
0.141732
 30
0.0
 11
-0.465551
 21
0.259843
 31
0.0
  0
LINE
  8
0
  6
CONTINUOUS
 62
     7
  5
336
 10
-0.543504
 20
0.259843
 30
0.0
 11
-0.465551
 21
0.259843
 31
0.0
  0
LINE
  8
0
  6
CONTINUOUS
 62
     7
  5
337
 10
-0.543504
 20
0.141732
 30
0.0
 11
-0.543504
 21
0.259843
 31
0.0
  0
LINE
  8
0
  6
CONTINUOUS
 62
     7
  5
338
 10
0.543504
 20
0.259843
 30
0.0
 11
0.465551
 21
0.259843
 31
0.0
  0
LINE
  8
0
  6
CONTINUOUS
 62
     7
  5
339
 10
0.465551
 20
0.259843
 30
0.0
 11
0.465551
 21
0.141732
 31
0.0
  0
LINE
  8
0
  6
CONTINUOUS
 62
     7
  5
33A
 10
0.543504
 20
0.141732
 30
0.0
 11
0.543504
 21
0.259843
 31
0.0
  0
LINE
  8
0
  6
CONTINUOUS
 62
     7
  5
33B
 10
0.386811
 20
-0.077953
 30
0.0
 11
0.470472
 21
-0.077953
 31
0.0
  0
LINE
  8
0
  6
CONTINUOUS
 62
     7
  5
33C
 10
0.470472
 20
-0.077953
 30
0.0
 11
0.529528
 21
-0.077953
 31
0.0
  0
LINE
  8
0
  6
CONTINUOUS
 62
     7
  5
33D
 10
0.529528
 20
0.0
 30
0.0
 11
0.529528
 21
-0.077953
 31
0.0
  0
LINE
  8
0
  6
CONTINUOUS
 62
     7
  5
33E
 10
0.531496
 20
0.0
 30
0.0
 11
0.572835
 21
0.0
 31
0.0
  0
LINE
  8
0
  6
CONTINUOUS
 62
     7
  5
33F
 10
0.529528
 20
-0.077953
 30
0.0
 11
0.572835
 21
-0.077953
 31
0.0
  0
ARC
  8
0
  6
CONTINUOUS
 62
     7
  5
340
 10
0.386811
 20
0.07874
 30
0.0
 40
0.156693
 50
270.0
 51
0.0
  0
LINE
  8
0
  6
CONTINUOUS
 62
     7
  5
341
 10
0.543504
 20
0.07874
 30
0.0
 11
0.543504
 21
0.141732
 31
0.0
  0
LINE
  8
0
  6
CONTINUOUS
 62
     7
  5
342
 10
0.465551
 20
0.141732
 30
0.0
 11
0.465551
 21
0.07874
 31
0.0
  0
ARC
  8
0
  6
CONTINUOUS
 62
     7
  5
343
 10
0.386811
 20
0.07874
 30
0.0
 40
0.07874
 50
270.0
 51
0.0
  0
ARC
  8
0
  6
CONTINUOUS
 62
     7
  5
344
 10
-0.386811
 20
0.07874
 30
0.0
 40
0.07874
 50
180.0
 51
270.0
  0
LINE
  8
0
  6
CONTINUOUS
 62
     7
  5
345
 10
-0.465551
 20
0.07874
 30
0.0
 11
-0.465551
 21
0.141732
 31
0.0
  0
LINE
  8
0
  6
CONTINUOUS
 62
     7
  5
346
 10
-0.543504
 20
0.141732
 30
0.0
 11
-0.543504
 21
0.07874
 31
0.0
  0
ARC
  8
0
  6
CONTINUOUS
 62
     7
  5
347
 10
-0.386811
 20
0.07874
 30
0.0
 40
0.156693
 50
180.0
 51
210.16637
  0
LINE
  8
0
  6
CONTINUOUS
 62
     7
  5
348
 10
-0.23622
 20
-0.077953
 30
0.0
 11
-0.720472
 21
-0.077953
 31
0.0
  0
LINE
  8
0
  6
CONTINUOUS
 62
     7
  5
349
 10
0.08165
 20
-1.080709
 30
0.0
 11
0.08165
 21
-0.837205
 31
0.0
  0
LINE
  8
0
  6
CONTINUOUS
 62
     7
  5
34A
 10
0.123409
 20
-1.139764
 30
0.0
 11
0.121535
 21
-1.139704
 31
0.0
  0
LINE
  8
0
  6
CONTINUOUS
 62
     7
  5
34B
 10
0.121535
 20
-1.139704
 30
0.0
 11
0.119666
 21
-1.139526
 31
0.0
  0
LINE
  8
0
  6
CONTINUOUS
 62
     7
  5
34C
 10
0.119666
 20
-1.139526
 30
0.0
 11
0.117803
 21
-1.139229
 31
0.0
  0
LINE
  8
0
  6
CONTINUOUS
 62
     7
  5
34D
 10
0.117803
 20
-1.139229
 30
0.0
 11
0.115953
 21
-1.138815
 31
0.0
  0
LINE
  8
0
  6
CONTINUOUS
 62
     7
  5
34E
 10
0.115953
 20
-1.138815
 30
0.0
 11
0.114117
 21
-1.138283
 31
0.0
  0
LINE
  8
0
  6
CONTINUOUS
 62
     7
  5
34F
 10
0.114117
 20
-1.138283
 30
0.0
 11
0.112299
 21
-1.137636
 31
0.0
  0
LINE
  8
0
  6
CONTINUOUS
 62
     7
  5
350
 10
0.112299
 20
-1.137636
 30
0.0
 11
0.110505
 21
-1.136873
 31
0.0
  0
LINE
  8
0
  6
CONTINUOUS
 62
     7
  5
351
 10
0.110505
 20
-1.136873
 30
0.0
 11
0.108736
 21
-1.135998
 31
0.0
  0
LINE
  8
0
  6
CONTINUOUS
 62
     7
  5
352
 10
0.108736
 20
-1.135998
 30
0.0
 11
0.106997
 21
-1.135011
 31
0.0
  0
LINE
  8
0
  6
CONTINUOUS
 62
     7
  5
353
 10
0.106997
 20
-1.135011
 30
0.0
 11
0.10529
 21
-1.133915
 31
0.0
  0
LINE
  8
0
  6
CONTINUOUS
 62
     7
  5
354
 10
0.10529
 20
-1.133915
 30
0.0
 11
0.103621
 21
-1.132712
 31
0.0
  0
LINE
  8
0
  6
CONTINUOUS
 62
     7
  5
355
 10
0.103621
 20
-1.132712
 30
0.0
 11
0.101991
 21
-1.131404
 31
0.0
  0
LINE
  8
0
  6
CONTINUOUS
 62
     7
  5
356
 10
0.101991
 20
-1.131404
 30
0.0
 11
0.100404
 21
-1.129994
 31
0.0
  0
LINE
  8
0
  6
CONTINUOUS
 62
     7
  5
357
 10
0.100404
 20
-1.129994
 30
0.0
 11
0.098864
 21
-1.128485
 31
0.0
  0
LINE
  8
0
  6
CONTINUOUS
 62
     7
  5
358
 10
0.098864
 20
-1.128485
 30
0.0
 11
0.097373
 21
-1.12688
 31
0.0
  0
LINE
  8
0
  6
CONTINUOUS
 62
     7
  5
359
 10
0.097373
 20
-1.12688
 30
0.0
 11
0.095934
 21
-1.125181
 31
0.0
  0
LINE
  8
0
  6
CONTINUOUS
 62
     7
  5
35A
 10
0.095934
 20
-1.125181
 30
0.0
 11
0.094551
 21
-1.123393
 31
0.0
  0
LINE
  8
0
  6
CONTINUOUS
 62
     7
  5
35B
 10
0.094551
 20
-1.123393
 30
0.0
 11
0.093226
 21
-1.121519
 31
0.0
  0
LINE
  8
0
  6
CONTINUOUS
 62
     7
  5
35C
 10
0.093226
 20
-1.121519
 30
0.0
 11
0.091962
 21
-1.119563
 31
0.0
  0
LINE
  8
0
  6
CONTINUOUS
 62
     7
  5
35D
 10
0.091962
 20
-1.119563
 30
0.0
 11
0.090761
 21
-1.117529
 31
0.0
  0
LINE
  8
0
  6
CONTINUOUS
 62
     7
  5
35E
 10
0.090761
 20
-1.117529
 30
0.0
 11
0.089626
 21
-1.11542
 31
0.0
  0
LINE
  8
0
  6
CONTINUOUS
 62
     7
  5
35F
 10
0.089626
 20
-1.11542
 30
0.0
 11
0.088558
 21
-1.113242
 31
0.0
  0
LINE
  8
0
  6
CONTINUOUS
 62
     7
  5
360
 10
0.088558
 20
-1.113242
 30
0.0
 11
0.087561
 21
-1.110998
 31
0.0
  0
LINE
  8
0
  6
CONTINUOUS
 62
     7
  5
361
 10
0.087561
 20
-1.110998
 30
0.0
 11
0.086637
 21
-1.108693
 31
0.0
  0
LINE
  8
0
  6
CONTINUOUS
 62
     7
  5
362
 10
0.086637
 20
-1.108693
 30
0.0
 11
0.085786
 21
-1.106332
 31
0.0
  0
LINE
  8
0
  6
CONTINUOUS
 62
     7
  5
363
 10
0.085786
 20
-1.106332
 30
0.0
 11
0.085011
 21
-1.103919
 31
0.0
  0
LINE
  8
0
  6
CONTINUOUS
 62
     7
  5
364
 10
0.085011
 20
-1.103919
 30
0.0
 11
0.084313
 21
-1.101459
 31
0.0
  0
LINE
  8
0
  6
CONTINUOUS
 62
     7
  5
365
 10
0.084313
 20
-1.101459
 30
0.0
 11
0.083694
 21
-1.098958
 31
0.0
  0
LINE
  8
0
  6
CONTINUOUS
 62
     7
  5
366
 10
0.083694
 20
-1.098958
 30
0.0
 11
0.083155
 21
-1.096419
 31
0.0
  0
LINE
  8
0
  6
CONTINUOUS
 62
     7
  5
367
 10
0.083155
 20
-1.096419
 30
0.0
 11
0.082697
 21
-1.09385
 31
0.0
  0
LINE
  8
0
  6
CONTINUOUS
 62
     7
  5
368
 10
0.082697
 20
-1.09385
 30
0.0
 11
0.082322
 21
-1.091253
 31
0.0
  0
LINE
  8
0
  6
CONTINUOUS
 62
     7
  5
369
 10
0.082322
 20
-1.091253
 30
0.0
 11
0.082028
 21
-1.088636
 31
0.0
  0
LINE
  8
0
  6
CONTINUOUS
 62
     7
  5
36A
 10
0.082028
 20
-1.088636
 30
0.0
 11
0.081819
 21
-1.086002
 31
0.0
  0
LINE
  8
0
  6
CONTINUOUS
 62
     7
  5
36B
 10
0.081819
 20
-1.086002
 30
0.0
 11
0.081693
 21
-1.083358
 31
0.0
  0
LINE
  8
0
  6
CONTINUOUS
 62
     7
  5
36C
 10
0.081693
 20
-1.083358
 30
0.0
 11
0.08165
 21
-1.080709
 31
0.0
  0
LINE
  8
0
  6
CONTINUOUS
 62
     7
  5
36D
 10
0.261441
 20
-1.139764
 30
0.0
 11
0.123409
 21
-1.139764
 31
0.0
  0
LINE
  8
0
  6
CONTINUOUS
 62
     7
  5
36E
 10
0.407087
 20
-0.307882
 30
0.0
 11
0.407087
 21
-0.155906
 31
0.0
  0
LINE
  8
0
  6
CONTINUOUS
 62
     7
  5
36F
 10
0.407087
 20
-1.511024
 30
0.0
 11
0.407087
 21
-1.194882
 31
0.0
  0
ARC
  8
0
  6
CONTINUOUS
 62
     7
  5
370
 10
0.251181
 20
-0.155906
 30
0.0
 40
0.155906
 50
0.0
 51
90.0
  0
LINE
  8
0
  6
CONTINUOUS
 62
     7
  5
371
 10
-0.720472
 20
0.0
 30
0.0
 11
-0.720472
 21
-0.077953
 31
0.0
  0
LINE
  8
0
  6
CONTINUOUS
 62
     7
  5
372
 10
0.159843
 20
0.0
 30
0.0
 11
0.159843
 21
-0.001476
 31
0.0
  0
ARC
  8
0
  6
CONTINUOUS
 62
     7
  5
373
 10
0.251181
 20
-0.155906
 30
0.0
 40
0.077953
 50
0.0
 51
88.423815
  0
LINE
  8
0
  6
CONTINUOUS
 62
     7
  5
374
 10
0.329134
 20
-1.194882
 30
0.0
 11
0.329134
 21
-1.511024
 31
0.0
  0
LINE
  8
0
  6
CONTINUOUS
 62
     7
  5
375
 10
0.329134
 20
-0.155906
 30
0.0
 11
0.329134
 21
-0.307882
 31
0.0
  0
LINE
  8
0
  6
CONTINUOUS
 62
     7
  5
376
 10
0.329134
 20
-1.511024
 30
0.0
 11
0.407087
 21
-1.511024
 31
0.0
  0
LINE
  8
0
  6
CONTINUOUS
 62
     7
  5
377
 10
0.531496
 20
0.267717
 30
0.0
 11
0.531496
 21
0.26106
 31
0.0
  0
LINE
  8
0
  6
CONTINUOUS
 62
     7
  5
378
 10
0.531496
 20
0.26106
 30
0.0
 11
0.531496
 21
0.259843
 31
0.0
  0
LINE
  8
0
  6
CONTINUOUS
 62
     7
  5
379
 10
-0.531496
 20
1.712598
 30
0.0
 11
-0.531496
 21
0.267717
 31
0.0
  0
LINE
  8
0
  6
CONTINUOUS
 62
     7
  5
37A
 10
-0.531496
 20
2.590551
 30
0.0
 11
-0.531496
 21
1.712598
 31
0.0
  0
LINE
  8
0
  6
CONTINUOUS
 62
     7
  5
37B
 10
-0.531102
 20
2.767819
 30
0.0
 11
-0.531102
 21
2.767717
 31
0.0
  0
LINE
  8
0
  6
CONTINUOUS
 62
     7
  5
37C
 10
-0.531102
 20
2.768721
 30
0.0
 11
-0.531102
 21
2.767819
 31
0.0
  0
LINE
  8
0
  6
CONTINUOUS
 62
     7
  5
37D
 10
-0.531102
 20
-0.815354
 30
0.0
 11
-0.531102
 21
-0.077953
 31
0.0
  0
LINE
  8
0
  6
CONTINUOUS
 62
     7
  5
37E
 10
0.531102
 20
2.767819
 30
0.0
 11
0.531102
 21
2.767717
 31
0.0
  0
LINE
  8
0
  6
CONTINUOUS
 62
     7
  5
37F
 10
-0.740157
 20
2.768717
 30
0.0
 11
-0.740157
 21
3.141732
 31
0.0
  0
LINE
  8
0
  6
CONTINUOUS
 62
     7
  5
380
 10
-0.740157
 20
3.141732
 30
0.0
 11
-0.740157
 21
3.323622
 31
0.0
  0
LINE
  8
0
  6
CONTINUOUS
 62
     7
  5
381
 10
-0.25
 20
3.640776
 30
0.0
 11
-0.25
 21
3.484252
 31
0.0
  0
LINE
  8
0
  6
CONTINUOUS
 62
     7
  5
382
 10
-0.25
 20
3.66378
 30
0.0
 11
-0.25
 21
3.640776
 31
0.0
  0
LINE
  8
0
  6
CONTINUOUS
 62
     7
  5
383
 10
-0.25
 20
3.909193
 30
0.0
 11
-0.25
 21
3.66378
 31
0.0
  0
LINE
  8
0
  6
CONTINUOUS
 62
     7
  5
384
 10
-0.25
 20
3.939548
 30
0.0
 11
-0.25
 21
3.909193
 31
0.0
  0
LINE
  8
0
  6
CONTINUOUS
 62
     7
  5
385
 10
-0.25
 20
3.952578
 30
0.0
 11
-0.25
 21
3.939548
 31
0.0
  0
LINE
  8
0
  6
CONTINUOUS
 62
     7
  5
386
 10
-0.25
 20
3.953686
 30
0.0
 11
-0.25
 21
3.952578
 31
0.0
  0
LINE
  8
0
  6
CONTINUOUS
 62
     7
  5
387
 10
0.25
 20
3.640776
 30
0.0
 11
0.25
 21
3.484252
 31
0.0
  0
LINE
  8
0
  6
CONTINUOUS
 62
     7
  5
388
 10
0.25
 20
3.953686
 30
0.0
 11
0.25
 21
3.952578
 31
0.0
  0
LINE
  8
0
  6
CONTINUOUS
 62
     7
  5
389
 10
0.25
 20
3.952578
 30
0.0
 11
0.25
 21
3.939548
 31
0.0
  0
LINE
  8
0
  6
CONTINUOUS
 62
     7
  5
38A
 10
0.25
 20
3.939548
 30
0.0
 11
0.25
 21
3.909193
 31
0.0
  0
LINE
  8
0
  6
CONTINUOUS
 62
     7
  5
38B
 10
0.25
 20
3.909193
 30
0.0
 11
0.25
 21
3.66378
 31
0.0
  0
LINE
  8
0
  6
CONTINUOUS
 62
     7
  5
38C
 10
0.25
 20
3.66378
 30
0.0
 11
0.25
 21
3.640776
 31
0.0
  0
ARC
  8
0
  6
CONTINUOUS
 62
     7
  5
38D
 10
0.173228
 20
2.385827
 30
0.0
 40
0.03937
 50
270.0
 51
360.0
  0
LINE
  8
0
  6
CONTINUOUS
 62
     7
  5
38E
 10
0.173228
 20
2.346457
 30
0.0
 11
-0.173228
 21
2.346457
 31
0.0
  0
ARC
  8
0
  6
CONTINUOUS
 62
     7
  5
38F
 10
-0.173228
 20
2.385827
 30
0.0
 40
0.03937
 50
180.0
 51
270.0
  0
LINE
  8
0
  6
CONTINUOUS
 62
     7
  5
390
 10
-0.212598
 20
3.141732
 30
0.0
 11
0.212598
 21
3.141732
 31
0.0
  0
LINE
  8
0
  6
CONTINUOUS
 62
     7
  5
391
 10
-0.212598
 20
2.385827
 30
0.0
 11
-0.212598
 21
3.141732
 31
0.0
  0
LINE
  8
0
  6
CONTINUOUS
 62
     7
  5
392
 10
0.212598
 20
3.141732
 30
0.0
 11
0.212598
 21
2.385827
 31
0.0
  0
LINE
  8
0
  6
CONTINUOUS
 62
     7
  5
393
 10
-0.212598
 20
3.098425
 30
0.0
 11
-0.229528
 21
3.098425
 31
0.0
  0
LINE
  8
0
  6
CONTINUOUS
 62
     7
  5
394
 10
-0.229528
 20
3.098425
 30
0.0
 11
-0.229528
 21
3.141732
 31
0.0
  0
LINE
  8
0
  6
CONTINUOUS
 62
     7
  5
395
 10
-0.229528
 20
3.141732
 30
0.0
 11
-0.728346
 21
3.141732
 31
0.0
  0
LINE
  8
0
  6
CONTINUOUS
 62
     7
  5
396
 10
-0.728346
 20
2.768717
 30
0.0
 11
-0.212598
 21
2.768717
 31
0.0
  0
LINE
  8
0
  6
CONTINUOUS
 62
     7
  5
397
 10
0.212598
 20
2.768717
 30
0.0
 11
0.728346
 21
2.768717
 31
0.0
  0
LINE
  8
0
  6
CONTINUOUS
 62
     7
  5
398
 10
0.728346
 20
3.141732
 30
0.0
 11
0.229528
 21
3.141732
 31
0.0
  0
LINE
  8
0
  6
CONTINUOUS
 62
     7
  5
399
 10
0.229528
 20
3.141732
 30
0.0
 11
0.229528
 21
3.098425
 31
0.0
  0
LINE
  8
0
  6
CONTINUOUS
 62
     7
  5
39A
 10
0.229528
 20
3.098425
 30
0.0
 11
0.212598
 21
3.098425
 31
0.0
  0
LINE
  8
0
  6
CONTINUOUS
 62
     7
  5
39B
 10
0.530315
 20
3.323622
 30
0.0
 11
0.530315
 21
3.484252
 31
0.0
  0
LINE
  8
0
  6
CONTINUOUS
 62
     7
  5
39C
 10
0.530315
 20
3.484252
 30
0.0
 11
0.366929
 21
3.484252
 31
0.0
  0
LINE
  8
0
  6
CONTINUOUS
 62
     7
  5
39D
 10
0.366929
 20
3.484252
 30
0.0
 11
-0.366929
 21
3.484252
 31
0.0
  0
LINE
  8
0
  6
CONTINUOUS
 62
     7
  5
39E
 10
-0.366929
 20
3.484252
 30
0.0
 11
-0.530315
 21
3.484252
 31
0.0
  0
LINE
  8
0
  6
CONTINUOUS
 62
     7
  5
39F
 10
-0.530315
 20
3.323622
 30
0.0
 11
-0.530315
 21
3.484252
 31
0.0
  0
LINE
  8
0
  6
CONTINUOUS
 62
     7
  5
3A0
 10
0.212598
 20
3.141732
 30
0.0
 11
0.229528
 21
3.141732
 31
0.0
  0
LINE
  8
0
  6
CONTINUOUS
 62
     7
  5
3A1
 10
-0.229528
 20
3.141732
 30
0.0
 11
-0.212598
 21
3.141732
 31
0.0
  0
LINE
  8
0
  6
CONTINUOUS
 62
     7
  5
3A2
 10
0.728346
 20
3.323622
 30
0.0
 11
-0.728346
 21
3.323622
 31
0.0
  0
LINE
  8
0
  6
CONTINUOUS
 62
     7
  5
3A3
 10
-0.728346
 20
3.323622
 30
0.0
 11
-0.740157
 21
3.323622
 31
0.0
  0
LINE
  8
0
  6
CONTINUOUS
 62
     7
  5
3A4
 10
0.740157
 20
3.323622
 30
0.0
 11
0.728346
 21
3.323622
 31
0.0
  0
LINE
  8
0
  6
CONTINUOUS
 62
     7
  5
3A5
 10
0.740157
 20
3.141732
 30
0.0
 11
0.740157
 21
3.323622
 31
0.0
  0
LINE
  8
0
  6
CONTINUOUS
 62
     7
  5
3A6
 10
-0.728346
 20
3.141732
 30
0.0
 11
-0.740157
 21
3.141732
 31
0.0
  0
LINE
  8
0
  6
CONTINUOUS
 62
     7
  5
3A7
 10
-0.740157
 20
2.768717
 30
0.0
 11
-0.728346
 21
2.768717
 31
0.0
  0
LINE
  8
0
  6
CONTINUOUS
 62
     7
  5
3A8
 10
0.740157
 20
2.768717
 30
0.0
 11
0.740157
 21
3.141732
 31
0.0
  0
LINE
  8
0
  6
CONTINUOUS
 62
     7
  5
3A9
 10
0.740157
 20
3.141732
 30
0.0
 11
0.728346
 21
3.141732
 31
0.0
  0
LINE
  8
0
  6
CONTINUOUS
 62
     7
  5
3AA
 10
0.728346
 20
2.768717
 30
0.0
 11
0.740157
 21
2.768717
 31
0.0
  0
LINE
  8
0
  6
CONTINUOUS
 62
     7
  5
3AB
 10
0.745866
 20
3.149213
 30
0.0
 11
0.740157
 21
3.149213
 31
0.0
  0
LINE
  8
0
  6
CONTINUOUS
 62
     7
  5
3AC
 10
-0.740157
 20
3.149213
 30
0.0
 11
-0.745866
 21
3.149213
 31
0.0
  0
LINE
  8
0
  6
CONTINUOUS
 62
     7
  5
3AD
 10
0.08165
 20
-0.894094
 30
0.0
 11
-0.452362
 21
-0.894094
 31
0.0
  0
ARC
  8
0
  6
CONTINUOUS
 62
     7
  5
3AE
 10
0.452362
 20
-0.815354
 30
0.0
 40
0.07874
 50
300.830498
 51
343.888947
  0
LINE
  8
0
  6
CONTINUOUS
 62
     7
  5
3AF
 10
0.531102
 20
-0.444882
 30
0.0
 11
0.531102
 21
-0.759252
 31
0.0
  0
LINE
  8
0
  6
CONTINUOUS
 62
     7
  5
3B0
 10
0.531102
 20
-0.077953
 30
0.0
 11
0.531102
 21
-0.307882
 31
0.0
  0
ARC
  8
0
  6
CONTINUOUS
 62
     7
  5
3B1
 10
-0.452362
 20
-0.815354
 30
0.0
 40
0.07874
 50
180.0
 51
270.0
  0
LINE
  8
0
  6
CONTINUOUS
 62
     7
  5
3B2
 10
0.745866
 20
-0.596457
 30
0.0
 11
0.541159
 21
-0.6774
 31
0.0
  0
LINE
  8
0
  6
CONTINUOUS
 62
     7
  5
3B3
 10
0.541159
 20
-0.6774
 30
0.0
 11
0.531102
 21
-0.6774
 31
0.0
  0
LINE
  8
0
  6
CONTINUOUS
 62
     7
  5
3B4
 10
-0.531102
 20
-0.6774
 30
0.0
 11
-0.541159
 21
-0.6774
 31
0.0
  0
LINE
  8
0
  6
CONTINUOUS
 62
     7
  5
3B5
 10
-0.541159
 20
-0.6774
 30
0.0
 11
-0.745866
 21
-0.596457
 31
0.0
  0
LINE
  8
0
  6
CONTINUOUS
 62
     7
  5
3B6
 10
0.531102
 20
2.768721
 30
0.0
 11
0.531102
 21
2.767819
 31
0.0
  0
LINE
  8
0
  6
CONTINUOUS
 62
     7
  5
3B7
 10
-0.531102
 20
-0.586838
 30
0.0
 11
-0.541159
 21
-0.586838
 31
0.0
  0
LINE
  8
0
  6
CONTINUOUS
 62
     7
  5
3B8
 10
-0.541159
 20
-0.586838
 30
0.0
 11
-0.541159
 21
-0.6774
 31
0.0
  0
LINE
  8
0
  6
CONTINUOUS
 62
     7
  5
3B9
 10
-0.531102
 20
-0.505895
 30
0.0
 11
-0.745866
 21
-0.505895
 31
0.0
  0
LINE
  8
0
  6
CONTINUOUS
 62
     7
  5
3BA
 10
-0.745866
 20
-0.505895
 30
0.0
 11
-0.541159
 21
-0.586838
 31
0.0
  0
LINE
  8
0
  6
CONTINUOUS
 62
     7
  5
3BB
 10
-0.745866
 20
2.976239
 30
0.0
 11
-0.745866
 21
-0.505895
 31
0.0
  0
LINE
  8
0
  6
CONTINUOUS
 62
     7
  5
3BC
 10
-0.745866
 20
2.988034
 30
0.0
 11
-0.745866
 21
2.976239
 31
0.0
  0
LINE
  8
0
  6
CONTINUOUS
 62
     7
  5
3BD
 10
-0.740157
 20
3.071361
 30
0.0
 11
-0.745866
 21
3.071361
 31
0.0
  0
LINE
  8
0
  6
CONTINUOUS
 62
     7
  5
3BE
 10
-0.745866
 20
3.071361
 30
0.0
 11
-0.745866
 21
2.988034
 31
0.0
  0
LINE
  8
0
  6
CONTINUOUS
 62
     7
  5
3BF
 10
-0.740157
 20
3.073855
 30
0.0
 11
-0.745866
 21
3.073855
 31
0.0
  0
LINE
  8
0
  6
CONTINUOUS
 62
     7
  5
3C0
 10
-0.745866
 20
3.073855
 30
0.0
 11
-0.745866
 21
3.071361
 31
0.0
  0
LINE
  8
0
  6
CONTINUOUS
 62
     7
  5
3C1
 10
-0.745866
 20
-0.596457
 30
0.0
 11
-0.745866
 21
-0.505895
 31
0.0
  0
LINE
  8
0
  6
CONTINUOUS
 62
     7
  5
3C2
 10
-0.745866
 20
3.149213
 30
0.0
 11
-0.745866
 21
3.073855
 31
0.0
  0
LINE
  8
0
  6
CONTINUOUS
 62
     7
  5
3C3
 10
-0.745866
 20
3.666535
 30
0.0
 11
-0.745866
 21
3.149213
 31
0.0
  0
LINE
  8
0
  6
CONTINUOUS
 62
     7
  5
3C4
 10
0.541159
 20
-0.586838
 30
0.0
 11
0.531102
 21
-0.586838
 31
0.0
  0
LINE
  8
0
  6
CONTINUOUS
 62
     7
  5
3C5
 10
0.541159
 20
-0.586838
 30
0.0
 11
0.745866
 21
-0.505895
 31
0.0
  0
LINE
  8
0
  6
CONTINUOUS
 62
     7
  5
3C6
 10
0.745866
 20
-0.505895
 30
0.0
 11
0.531102
 21
-0.505895
 31
0.0
  0
LINE
  8
0
  6
CONTINUOUS
 62
     7
  5
3C7
 10
0.745866
 20
-0.505895
 30
0.0
 11
0.745866
 21
-0.596457
 31
0.0
  0
LINE
  8
0
  6
CONTINUOUS
 62
     7
  5
3C8
 10
0.541159
 20
-0.6774
 30
0.0
 11
0.541159
 21
-0.586838
 31
0.0
  0
LINE
  8
0
  6
CONTINUOUS
 62
     7
  5
3C9
 10
-0.25
 20
3.666535
 30
0.0
 11
-0.745866
 21
3.666535
 31
0.0
  0
LINE
  8
0
  6
CONTINUOUS
 62
     7
  5
3CA
 10
0.745866
 20
3.666535
 30
0.0
 11
0.25
 21
3.666535
 31
0.0
  0
LINE
  8
0
  6
CONTINUOUS
 62
     7
  5
3CB
 10
0.745866
 20
3.666535
 30
0.0
 11
0.745866
 21
3.149213
 31
0.0
  0
LINE
  8
0
  6
CONTINUOUS
 62
     7
  5
3CC
 10
0.745866
 20
3.073855
 30
0.0
 11
0.740157
 21
3.073855
 31
0.0
  0
LINE
  8
0
  6
CONTINUOUS
 62
     7
  5
3CD
 10
0.745866
 20
3.149213
 30
0.0
 11
0.745866
 21
3.073855
 31
0.0
  0
LINE
  8
0
  6
CONTINUOUS
 62
     7
  5
3CE
 10
0.745866
 20
3.071361
 30
0.0
 11
0.740157
 21
3.071361
 31
0.0
  0
LINE
  8
0
  6
CONTINUOUS
 62
     7
  5
3CF
 10
0.745866
 20
3.073855
 30
0.0
 11
0.745866
 21
3.071361
 31
0.0
  0
LINE
  8
0
  6
CONTINUOUS
 62
     7
  5
3D0
 10
0.745866
 20
3.071361
 30
0.0
 11
0.745866
 21
2.988034
 31
0.0
  0
LINE
  8
0
  6
CONTINUOUS
 62
     7
  5
3D1
 10
0.745866
 20
2.988034
 30
0.0
 11
0.745866
 21
2.976239
 31
0.0
  0
LINE
  8
0
  6
CONTINUOUS
 62
     7
  5
3D2
 10
0.745866
 20
2.976239
 30
0.0
 11
0.745866
 21
-0.505895
 31
0.0
  0
LINE
  8
0
  6
CONTINUOUS
 62
     7
  5
3D3
 10
0.242717
 20
-0.444882
 30
0.0
 11
0.242717
 21
-0.759252
 31
0.0
  0
LINE
  8
0
  6
CONTINUOUS
 62
     7
  5
3D4
 10
0.492717
 20
-0.759252
 30
0.0
 11
0.492717
 21
-0.444882
 31
0.0
  0
LINE
  8
0
  6
CONTINUOUS
 62
     7
  5
3D5
 10
0.608717
 20
-0.444882
 30
0.0
 11
0.608717
 21
-0.307882
 31
0.0
  0
LINE
  8
0
  6
CONTINUOUS
 62
     7
  5
3D6
 10
0.126717
 20
-0.307882
 30
0.0
 11
0.126717
 21
-0.444882
 31
0.0
  0
LINE
  8
0
  6
CONTINUOUS
 62
     7
  5
3D7
 10
0.242717
 20
-1.069882
 30
0.0
 11
0.27621
 21
-1.194882
 31
0.0
  0
LINE
  8
0
  6
CONTINUOUS
 62
     7
  5
3D8
 10
0.459223
 20
-1.194882
 30
0.0
 11
0.492717
 21
-1.069882
 31
0.0
  0
LINE
  8
0
  6
CONTINUOUS
 62
     7
  5
3D9
 10
0.242717
 20
-0.837205
 30
0.0
 11
0.242717
 21
-1.069882
 31
0.0
  0
LINE
  8
0
  6
CONTINUOUS
 62
     7
  5
3DA
 10
0.492717
 20
-1.069882
 30
0.0
 11
0.492717
 21
-0.837205
 31
0.0
  0
LINE
  8
0
  6
CONTINUOUS
 62
     7
  5
3DB
 10
0.572835
 20
-0.077953
 30
0.0
 11
0.572835
 21
0.0
 31
0.0
  0
LINE
  8
0
  6
CONTINUOUS
 62
     7
  5
3DC
 10
0.25
 20
3.953686
 30
0.0
 11
-0.25
 21
3.953686
 31
0.0
  0
LINE
  8
0
  6
CONTINUOUS
 62
     3
  5
3DD
 10
0.0
 20
4.027559
 30
0.0
 11
0.0
 21
1.901575
 31
0.0
  0
ENDSEC
  0
EOF
