999
DXF file: C:\Users\sesa63760\Dev\_Creo\CAD\MCADID0000059_3D-CAD\drw0001_5.dxf
999
Pro/ENGINEER 2019471 by Parametric Technology Corporation
  0
SECTION
  2
HEADER
  9
$ACADVER
  1
AC1024
  9
$DWGCODEPAGE
  3
ANSI_1252
  9
$EXTMAX
 10
202.2501331717
 20
286.0394740572
 30
0.0
  9
$EXTMIN
 10
0.0
 20
0.0
 30
0.0
  9
$LIMMIN
 10
0.0
 20
0.0
  9
$LIMMAX
 10
202.2501331717
 20
286.0394740572
  9
$VIEWCTR
 10
101.1250665859
 20
143.0197370286
  9
$VIEWSIZE
 40
286.0394740572
  9
$CLAYER
  8
0
  9
$LTSCALE
 40
18.6455360867
  9
$CELTYPE
  6
BYLAYER
  9
$DIMSCALE
 40
1.0
  9
$DIMASZ
 40
2.4077396806
  9
$DIMEXO
 40
1.0
  9
$DIMDLI
 40
12.8823703872
  9
$DIMEXE
 40
1.0
  9
$DIMCEN
 40
3.0510877233
  9
$DIMLFAC
 40
1.0
  9
$DIMBLK
  1
_FILLED
  9
$DIMALT
 70
0
  9
$DIMALTF
 40
0.0393700787
  9
$DIMTXT
 40
3.3708355529
  9
$DIMTOL
 70
1
  9
$DIMLIM
 70
0
  9
$DIMTFAC
 40
1.0
  9
$DIMTP
 40
0.01
  9
$DIMTM
 40
0.01
  9
$DIMGAP
 40
0.625
  9
$DIMDSEP
 70
46
  9
$AUNITS
 70
0
  9
$PDMODE
 70
3
  9
$PDSIZE
 40
0.3125
  9
$HANDSEED
  5
348
  9
$TILEMODE
 70
1
  9
$MEASUREMENT
 70
1
  9
$INSUNITS
 70
4
  0
ENDSEC
  0
SECTION
  2
CLASSES
  0
CLASS
  1
ACDBDICTIONARYWDFLT
  2
AcDbDictionaryWithDefault
  3
AutoCAD 2000
 90
0
 91
1
280
0
281
0
  0
CLASS
  1
ACDBPLACEHOLDER
  2
AcDbPlaceHolder
  3
AutoCAD 2000
 90
0
 91
1
280
0
281
0
  0
CLASS
  1
LAYOUT
  2
AcDbLayout
  3
AutoCAD 2000
 90
0
 91
0
280
0
281
0
  0
ENDSEC
  0
SECTION
  2
TABLES
  0
TABLE
  2
VPORT
  5
8
100
AcDbSymbolTable
 70
2
  0
VPORT
  5
1F4
100
AcDbSymbolTableRecord
100
AcDbViewportTableRecord
  2
*ACTIVE
 70
0
 10
0.0
 20
0.0
 11
1.0
 21
1.0
 12
101.1250665859
 22
143.0197370286
 13
0.0
 23
0.0
 14
1.0
 24
1.0
 15
0.0
 25
0.0
 16
0.0
 26
0.0
 36
1.0
 17
0.0
 27
0.0
 37
0.0
 40
286.0394740572
 41
0.7070707071
 42
50.0
 43
0.0
 44
0.0
 50
0.0
 51
0.0
 71
0
 72
100
 73
1
 74
1
 75
0
 76
0
 77
0
 78
0
  0
ENDTAB
  0
TABLE
  2
LTYPE
  5
5
100
AcDbSymbolTable
 70
6
  0
LTYPE
  5
14
100
AcDbSymbolTableRecord
100
AcDbLinetypeTableRecord
  2
BYBLOCK
 70
0
  3

 72
65
 73
0
 40
0.0
  0
LTYPE
  5
15
100
AcDbSymbolTableRecord
100
AcDbLinetypeTableRecord
  2
BYLAYER
 70
0
  3

 72
65
 73
0
 40
0.0
  0
LTYPE
  5
16
100
AcDbSymbolTableRecord
100
AcDbLinetypeTableRecord
  2
CONTINUOUS
 70
64
  3
Solid line
 72
65
 73
0
 40
0.0
  0
LTYPE
  5
1F5
100
AcDbSymbolTableRecord
100
AcDbLinetypeTableRecord
  2
CENTER
 70
64
  3
____ _ ____ _ ____ _ ____ _ ____ _ ____ _ ____
 72
65
 73
4
 40
0.6
 49
0.375
 74
0
 49
-0.075
 74
0
 49
0.075
 74
0
 49
-0.075
 74
0
  0
LTYPE
  5
1F6
100
AcDbSymbolTableRecord
100
AcDbLinetypeTableRecord
  2
HIDDEN
 70
64
  3
- - - - - - - - - - - - - - - - - - - -
 72
65
 73
2
 40
0.2
 49
0.1
 74
0
 49
-0.1
 74
0
  0
LTYPE
  5
1F7
100
AcDbSymbolTableRecord
100
AcDbLinetypeTableRecord
  2
PHANTOM
 70
64
  3
_____ _ _ _____ _ _ _____ _ _ _____
 72
65
 73
6
 40
0.8
 49
0.45
 74
0
 49
-0.05
 74
0
 49
0.1
 74
0
 49
-0.05
 74
0
 49
0.1
 74
0
 49
-0.05
 74
0
  0
LTYPE
  5
1F8
100
AcDbSymbolTableRecord
100
AcDbLinetypeTableRecord
  2
DOT
 70
64
  3
. . . . . . . . . . . . . . . . . . . .
 72
65
 73
2
 40
0.2
 49
0.1
 74
0
 49
-0.1
 74
0
  0
LTYPE
  5
1F9
100
AcDbSymbolTableRecord
100
AcDbLinetypeTableRecord
  2
DASHED
 70
64
  3
- - - - - - - - - - - - - - - - - - - -
 72
65
 73
2
 40
0.2
 49
0.1
 74
0
 49
-0.1
 74
0
  0
ENDTAB
  0
TABLE
  2
LAYER
  5
2
100
AcDbSymbolTable
 70
36
  0
LAYER
  5
10
100
AcDbSymbolTableRecord
100
AcDbLayerTableRecord
  2
0
 70
0
 62
7
  6
CONTINUOUS
370
-3
390
F
  0
LAYER
  5
1FA
100
AcDbSymbolTableRecord
100
AcDbLayerTableRecord
  2
DEFAULT_1
 70
0
 62
7
  6
CENTER
370
-3
390
F
  0
LAYER
  5
1FB
100
AcDbSymbolTableRecord
100
AcDbLayerTableRecord
  2
DEFAULT_2
 70
0
 62
8
  6
HIDDEN
370
-3
390
F
  0
LAYER
  5
1FC
100
AcDbSymbolTableRecord
100
AcDbLayerTableRecord
  2
DEFAULT_3
 70
0
 62
7
  6
PHANTOM
370
-3
390
F
  0
LAYER
  5
1FD
100
AcDbSymbolTableRecord
100
AcDbLayerTableRecord
  2
00_COMPONENTS
 70
0
 62
7
  6
CONTINUOUS
370
-3
390
F
  0
LAYER
  5
1FE
100
AcDbSymbolTableRecord
100
AcDbLayerTableRecord
  2
01_1_DEFAULT_DATUMS
 70
0
 62
7
  6
CONTINUOUS
370
-3
390
F
  0
LAYER
  5
1FF
100
AcDbSymbolTableRecord
100
AcDbLayerTableRecord
  2
01_PLANES
 70
0
 62
7
  6
CONTINUOUS
370
-3
390
F
  0
LAYER
  5
200
100
AcDbSymbolTableRecord
100
AcDbLayerTableRecord
  2
02_COORD_SYS
 70
0
 62
7
  6
CONTINUOUS
370
-3
390
F
  0
LAYER
  5
201
100
AcDbSymbolTableRecord
100
AcDbLayerTableRecord
  2
03_AXES
 70
0
 62
7
  6
CONTINUOUS
370
-3
390
F
  0
LAYER
  5
202
100
AcDbSymbolTableRecord
100
AcDbLayerTableRecord
  2
04_POINTS
 70
0
 62
7
  6
CONTINUOUS
370
-3
390
F
  0
LAYER
  5
203
100
AcDbSymbolTableRecord
100
AcDbLayerTableRecord
  2
05_CURVES
 70
0
 62
7
  6
CONTINUOUS
370
-3
390
F
  0
LAYER
  5
204
100
AcDbSymbolTableRecord
100
AcDbLayerTableRecord
  2
06_SURFS
 70
0
 62
7
  6
CONTINUOUS
370
-3
390
F
  0
LAYER
  5
205
100
AcDbSymbolTableRecord
100
AcDbLayerTableRecord
  2
07_COSMETICS
 70
0
 62
7
  6
CONTINUOUS
370
-3
390
F
  0
LAYER
  5
206
100
AcDbSymbolTableRecord
100
AcDbLayerTableRecord
  2
10_NOTES
 70
0
 62
7
  6
CONTINUOUS
370
-3
390
F
  0
LAYER
  5
207
100
AcDbSymbolTableRecord
100
AcDbLayerTableRecord
  2
11_NOTES_PUB
 70
0
 62
7
  6
CONTINUOUS
370
-3
390
F
  0
LAYER
  5
208
100
AcDbSymbolTableRecord
100
AcDbLayerTableRecord
  2
13_REF_GTOL
 70
0
 62
7
  6
CONTINUOUS
370
-3
390
F
  0
LAYER
  5
209
100
AcDbSymbolTableRecord
100
AcDbLayerTableRecord
  2
16_MISC
 70
0
 62
7
  6
CONTINUOUS
370
-3
390
F
  0
LAYER
  5
20A
100
AcDbSymbolTableRecord
100
AcDbLayerTableRecord
  2
17_NO_PRINT
 70
0
 62
7
  6
CONTINUOUS
370
-3
390
F
  0
LAYER
  5
20B
100
AcDbSymbolTableRecord
100
AcDbLayerTableRecord
  2
18_DATUM_CAMS_JOINTS
 70
0
 62
7
  6
CONTINUOUS
370
-3
390
F
  0
LAYER
  5
20C
100
AcDbSymbolTableRecord
100
AcDbLayerTableRecord
  2
19_DATUM_FUNCTIONAL
 70
0
 62
7
  6
CONTINUOUS
370
-3
390
F
  0
LAYER
  5
20D
100
AcDbSymbolTableRecord
100
AcDbLayerTableRecord
  2
20_DATUM_KINEMATIC_SCHEME
 70
0
 62
7
  6
CONTINUOUS
370
-3
390
F
  0
ENDTAB
  0
TABLE
  2
STYLE
  5
3
100
AcDbSymbolTable
 70
1
  0
STYLE
  5
11
100
AcDbSymbolTableRecord
100
AcDbTextStyleTableRecord
  2
STANDARD
 70
0
 40
0.0
 41
0.8
 50
0.0
 71
0
 42
0.2
  3
txt
  4

  0
STYLE
  5
20E
100
AcDbSymbolTableRecord
100
AcDbTextStyleTableRecord
  2
TEXTSTYLE_1
 70
0
 40
0.0
 41
0.8
 50
0.0
 71
0
 42
0.2
  3
gdt
  4

  0
ENDTAB
  0
TABLE
  2
VIEW
  5
6
100
AcDbSymbolTable
 70
0
  0
ENDTAB
  0
TABLE
  2
UCS
  5
7
100
AcDbSymbolTable
 70
0
  0
ENDTAB
  0
TABLE
  2
APPID
  5
9
100
AcDbSymbolTable
 70
1
  0
APPID
  5
20F
100
AcDbSymbolTableRecord
100
AcDbRegAppTableRecord
  2
ACAD
 70
0
  0
ENDTAB
  0
TABLE
  2
BLOCK_RECORD
  5
1
100
AcDbSymbolTable
 70
0
  0
BLOCK_RECORD
  5
210
100
AcDbSymbolTableRecord
100
AcDbBlockTableRecord
  2
*Model_Space
  0
BLOCK_RECORD
  5
211
100
AcDbSymbolTableRecord
100
AcDbBlockTableRecord
  2
*Paper_Space
  0
BLOCK_RECORD
  5
212
100
AcDbSymbolTableRecord
100
AcDbBlockTableRecord
  2
_FILLED
  0
ENDTAB
  0
TABLE
  2
DIMSTYLE
  5
A
100
AcDbSymbolTable
 70
1
100
AcDbDimStyleTable
 71
0
  0
DIMSTYLE
105
213
100
AcDbSymbolTableRecord
100
AcDbDimStyleTableRecord
  2
STANDARD
 70
0
  3

  4

 40
1.0
 41
2.4077396806
 42
1.0
 43
0.38
 44
1.0
 45
0.0
 46
0.0
 47
0.01
 48
0.01
140
3.3708355529
141
0.09
142
0.0
143
25.4
144
1.0
145
0.0
146
1.0
147
0.625
 71
1
 72
0
 73
0
 74
0
 75
0
 76
0
 77
1
 78
8
 79
2
170
0
171
1
172
0
173
0
174
0
175
0
176
0
177
0
178
0
270
2
179
2
271
2
272
2
273
2
274
2
275
0
280
0
281
0
282
0
283
1
284
8
285
0
286
0
287
3
288
0
340
11
278
46
341
212
342
212
343
212
344
212
  0
ENDTAB
  0
ENDSEC
  0
SECTION
  2
BLOCKS
  0
BLOCK
  5
20
100
AcDbEntity
  8
0
100
AcDbBlockBegin
  2
*Model_Space
 70
0
 10
0.0
 20
0.0
 30
0.0
  3
*Model_Space
  1

  0
ENDBLK
  5
21
100
AcDbEntity
  8
0
100
AcDbBlockEnd
  0
BLOCK
  5
1C
100
AcDbEntity
  8
0
100
AcDbBlockBegin
  2
*Paper_Space
 70
0
 10
0.0
 20
0.0
 30
0.0
  3
*Paper_Space
  1

  0
ENDBLK
  5
1D
100
AcDbEntity
  8
0
100
AcDbBlockEnd
  0
BLOCK
  5
214
100
AcDbEntity
  8
0
100
AcDbBlockBegin
  2
_FILLED
 70
64
 10
0.0
 20
0.0
  3
_FILLED
  1

  0
SOLID
  5
215
100
AcDbEntity
  8
0
  6
BYBLOCK
 62
0
100
AcDbTrace
 10
0.0
 20
0.0
 11
-1.0
 21
0.25
 12
-1.0
 22
-0.25
 13
-1.0
 23
-0.25
  0
ENDBLK
  5
216
100
AcDbEntity
  8
0
  6
BYBLOCK
 62
0
100
AcDbBlockEnd
  0
ENDSEC
  0
SECTION
  2
ENTITIES
  0
LINE
  5
217
100
AcDbEntity
  8
0
100
AcDbLine
 62
7
  6
CONTINUOUS
 10
23.5759584316
 20
177.9198464474
 11
23.5760083683
 21
101.919846544
  0
LINE
  5
218
100
AcDbEntity
  8
0
100
AcDbLine
 62
7
  6
CONTINUOUS
 10
24.8258462352
 20
175.419846544
 11
24.8258462352
 21
177.119846544
  0
LINE
  5
219
100
AcDbEntity
  8
0
100
AcDbLine
 62
7
  6
CONTINUOUS
 10
25.0760764862
 20
177.419846544
 11
25.0760764862
 21
177.919846544
  0
LINE
  5
21A
100
AcDbEntity
  8
0
100
AcDbLine
 62
7
  6
CONTINUOUS
 10
23.5760764862
 20
177.919846544
 11
24.040882628
 21
213.4263920424
  0
LINE
  5
21B
100
AcDbEntity
  8
0
100
AcDbLine
 62
7
  6
CONTINUOUS
 10
28.5759086498
 20
99.419846544
 11
29.0759086498
 21
98.919846544
  0
LINE
  5
21C
100
AcDbEntity
  8
0
100
AcDbLine
 62
7
  6
CONTINUOUS
 10
57.0760764862
 20
71.919846544
 11
56.5760764862
 21
72.419846544
  0
LINE
  5
21D
100
AcDbEntity
  8
0
100
AcDbLine
 62
7
  6
CONTINUOUS
 10
26.5759827264
 20
109.919846544
 11
26.5760764862
 21
175.419846544
  0
LINE
  5
21E
100
AcDbEntity
  8
0
100
AcDbLine
 62
7
  6
CONTINUOUS
 10
27.0406256015
 20
213.4263916245
 11
27.0406256015
 21
213.919846544
  0
LINE
  5
21F
100
AcDbEntity
  8
0
100
AcDbLine
 62
7
  6
CONTINUOUS
 10
27.576307003
 20
177.919846544
 11
27.576307003
 21
177.419846544
  0
LINE
  5
220
100
AcDbEntity
  8
0
100
AcDbLine
 62
7
  6
CONTINUOUS
 10
28.5759086498
 20
99.419846544
 11
28.5760226137
 21
109.919846544
  0
LINE
  5
221
100
AcDbEntity
  8
0
100
AcDbLine
 62
7
  6
CONTINUOUS
 10
30.3258462352
 20
175.419846544
 11
30.3258462352
 21
177.119846544
  0
LINE
  5
222
100
AcDbEntity
  8
0
100
AcDbLine
 62
7
  6
CONTINUOUS
 10
30.5760764862
 20
175.419846544
 11
30.5759905397
 21
109.919846544
  0
LINE
  5
223
100
AcDbEntity
  8
0
100
AcDbLine
 62
7
  6
CONTINUOUS
 10
30.5760764862
 20
213.919846544
 11
30.5760764862
 21
177.919846544
  0
LINE
  5
224
100
AcDbEntity
  8
0
100
AcDbLine
 62
7
  6
CONTINUOUS
 10
30.6032366839
 20
177.919846544
 11
30.6032366839
 21
175.419846544
  0
LINE
  5
225
100
AcDbEntity
  8
0
100
AcDbLine
 62
7
  6
CONTINUOUS
 10
31.8337378254
 20
175.419846544
 11
31.8337378254
 21
177.919846544
  0
LINE
  5
226
100
AcDbEntity
  8
0
100
AcDbLine
 62
7
  6
CONTINUOUS
 10
27.0406256022
 20
213.4263918599
 11
26.5758194681
 21
177.919846544
  0
LINE
  5
227
100
AcDbEntity
  8
0
100
AcDbLine
 62
7
  6
CONTINUOUS
 10
57.0765728535
 20
71.919846544
 11
72.3260764862
 21
71.919846544
  0
LINE
  5
228
100
AcDbEntity
  8
0
100
AcDbLine
 62
7
  6
CONTINUOUS
 10
72.5760764862
 20
72.169846544
 11
69.8460489246
 21
72.1698476006
  0
LINE
  5
229
100
AcDbEntity
  8
0
100
AcDbLine
 62
7
  6
CONTINUOUS
 10
70.1144249037
 20
72.419846544
 11
56.5760764862
 21
72.419846544
  0
LINE
  5
22A
100
AcDbEntity
  8
0
100
AcDbLine
 62
7
  6
CONTINUOUS
 10
37.5760764862
 20
177.9198466638
 11
37.5760140664
 21
109.919846544
  0
LINE
  5
22B
100
AcDbEntity
  8
0
100
AcDbLine
 62
7
  6
CONTINUOUS
 10
38.8260764862
 20
210.419846544
 11
38.8260764862
 21
213.119846544
  0
LINE
  5
22C
100
AcDbEntity
  8
0
100
AcDbLine
 62
7
  6
CONTINUOUS
 10
39.2539804477
 20
213.419846544
 11
39.2539804477
 21
213.919846544
  0
LINE
  5
22D
100
AcDbEntity
  8
0
100
AcDbLine
 62
7
  6
CONTINUOUS
 10
37.5760764878
 20
177.9198466638
 11
38.0015247908
 21
210.4198464955
  0
LINE
  5
22E
100
AcDbEntity
  8
0
100
AcDbLine
 62
7
  6
CONTINUOUS
 10
41.0012891917
 20
210.4198464955
 11
40.5759446106
 21
177.9198467088
  0
LINE
  5
22F
100
AcDbEntity
  8
0
100
AcDbLine
 62
7
  6
CONTINUOUS
 10
37.8023752629
 20
213.4263842835
 11
37.7617100636
 21
210.4198465319
  0
LINE
  5
230
100
AcDbEntity
  8
0
100
AcDbLine
 62
7
  6
CONTINUOUS
 10
53.5810764862
 20
96.919846544
 11
54.0810764862
 21
96.419846544
  0
LINE
  5
231
100
AcDbEntity
  8
0
100
AcDbLine
 62
7
  6
CONTINUOUS
 10
55.0759086497
 20
96.419846544
 11
56.5760276082
 21
94.9197275855
  0
LINE
  5
232
100
AcDbEntity
  8
0
100
AcDbLine
 62
7
  6
CONTINUOUS
 10
40.5760271032
 20
109.919846544
 11
40.5759446106
 21
177.9198467088
  0
LINE
  5
233
100
AcDbEntity
  8
0
100
AcDbLine
 62
7
  6
CONTINUOUS
 10
41.5760764862
 20
213.919846544
 11
41.5760764862
 21
213.419846544
  0
LINE
  5
234
100
AcDbEntity
  8
0
100
AcDbLine
 62
7
  6
CONTINUOUS
 10
44.3260764862
 20
210.419846544
 11
44.3260764862
 21
213.119846544
  0
LINE
  5
235
100
AcDbEntity
  8
0
100
AcDbLine
 62
7
  6
CONTINUOUS
 10
44.8260764862
 20
213.419846536
 11
44.8260764862
 21
210.419846544
  0
LINE
  5
236
100
AcDbEntity
  8
0
100
AcDbLine
 62
7
  6
CONTINUOUS
 10
46.3260764862
 20
210.419846544
 11
46.3260764862
 21
213.919846544
  0
LINE
  5
237
100
AcDbEntity
  8
0
100
AcDbLine
 62
7
  6
CONTINUOUS
 10
72.3260764862
 20
91.919846544
 11
72.5760764862
 21
91.669846544
  0
LINE
  5
238
100
AcDbEntity
  8
0
100
AcDbLine
 62
7
  6
CONTINUOUS
 10
53.5810764862
 20
97.919846544
 11
53.5810764862
 21
96.919846544
  0
LINE
  5
239
100
AcDbEntity
  8
0
100
AcDbLine
 62
7
  6
CONTINUOUS
 10
70.1144249015
 20
89.419846544
 11
72.5760764862
 21
89.419846544
  0
LINE
  5
23A
100
AcDbEntity
  8
0
100
AcDbLine
 62
7
  6
CONTINUOUS
 10
72.3260764862
 20
91.919846544
 11
70.576077218
 21
91.919846544
  0
LINE
  5
23B
100
AcDbEntity
  8
0
100
AcDbLine
 62
7
  6
CONTINUOUS
 10
56.5760764862
 20
94.9197764628
 11
56.5760764862
 21
72.419846544
  0
LINE
  5
23C
100
AcDbEntity
  8
0
100
AcDbLine
 62
7
  6
CONTINUOUS
 10
154.5760764862
 20
211.919846544
 11
145.5760764862
 21
207.919846544
  0
LINE
  5
23D
100
AcDbEntity
  8
0
100
AcDbLine
 62
7
  6
CONTINUOUS
 10
70.5760764861
 20
94.9197764628
 11
56.5760764862
 21
94.9197764628
  0
LINE
  5
23E
100
AcDbEntity
  8
0
100
AcDbLine
 62
7
  6
CONTINUOUS
 10
73.0710764862
 20
96.419846544
 11
54.0810764862
 21
96.419846544
  0
LINE
  5
23F
100
AcDbEntity
  8
0
100
AcDbLine
 62
7
  6
CONTINUOUS
 10
73.5710764862
 20
96.919846544
 11
53.5810764862
 21
96.919846544
  0
LINE
  5
240
100
AcDbEntity
  8
0
100
AcDbLine
 62
7
  6
CONTINUOUS
 10
89.0759086809
 20
97.919846544
 11
38.0759086498
 21
97.919846544
  0
LINE
  5
241
100
AcDbEntity
  8
0
100
AcDbLine
 62
7
  6
CONTINUOUS
 10
98.0759086496
 20
98.919846544
 11
29.0759086416
 21
98.919846544
  0
LINE
  5
242
100
AcDbEntity
  8
0
100
AcDbLine
 62
7
  6
CONTINUOUS
 10
98.5759086496
 20
99.419846544
 11
28.5759086498
 21
99.419846544
  0
LINE
  5
243
100
AcDbEntity
  8
0
100
AcDbLine
 62
7
  6
CONTINUOUS
 10
23.5760083683
 20
101.919846544
 11
103.5760083679
 21
101.919846544
  0
LINE
  5
244
100
AcDbEntity
  8
0
100
AcDbLine
 62
7
  6
CONTINUOUS
 10
70.1144249059
 20
72.4198471576
 11
70.1144249015
 21
89.419846544
  0
LINE
  5
245
100
AcDbEntity
  8
0
100
AcDbLine
 62
7
  6
CONTINUOUS
 10
70.5760764861
 20
94.9199166278
 11
70.5760764861
 21
91.9198487977
  0
LINE
  5
246
100
AcDbEntity
  8
0
100
AcDbLine
 62
7
  6
CONTINUOUS
 10
72.3260764862
 20
91.919846544
 11
72.3260764862
 21
71.919846544
  0
LINE
  5
247
100
AcDbEntity
  8
0
100
AcDbLine
 62
7
  6
CONTINUOUS
 10
72.5760764862
 20
72.169846544
 11
72.5760764862
 21
91.669846544
  0
LINE
  5
248
100
AcDbEntity
  8
0
100
AcDbLine
 62
7
  6
CONTINUOUS
 10
73.5710764862
 20
97.919846544
 11
73.5710764862
 21
96.919846544
  0
LINE
  5
249
100
AcDbEntity
  8
0
100
AcDbLine
 62
7
  6
CONTINUOUS
 10
23.5760083683
 20
109.919846544
 11
40.5760271032
 21
109.919846544
  0
LINE
  5
24A
100
AcDbEntity
  8
0
100
AcDbLine
 62
7
  6
CONTINUOUS
 10
86.5760271029
 20
109.919846544
 11
103.5760083679
 21
109.919846544
  0
LINE
  5
24B
100
AcDbEntity
  8
0
100
AcDbLine
 62
7
  6
CONTINUOUS
 10
80.8260764862
 20
213.919846544
 11
80.8260764862
 21
210.419846544
  0
LINE
  5
24C
100
AcDbEntity
  8
0
100
AcDbLine
 62
7
  6
CONTINUOUS
 10
82.3260764862
 20
210.419846544
 11
82.3260764862
 21
213.4198465364
  0
LINE
  5
24D
100
AcDbEntity
  8
0
100
AcDbLine
 62
7
  6
CONTINUOUS
 10
82.8260764862
 20
210.419846544
 11
82.8260764862
 21
213.119846544
  0
LINE
  5
24E
100
AcDbEntity
  8
0
100
AcDbLine
 62
7
  6
CONTINUOUS
 10
89.3904428809
 20
210.4198465417
 11
89.3502116029
 21
213.426391934
  0
LINE
  5
24F
100
AcDbEntity
  8
0
100
AcDbLine
 62
7
  6
CONTINUOUS
 10
86.5762016273
 20
177.9198467557
 11
86.1508637808
 21
210.4198464956
  0
LINE
  5
250
100
AcDbEntity
  8
0
100
AcDbLine
 62
7
  6
CONTINUOUS
 10
89.1506281816
 20
210.4198464956
 11
89.5760764829
 21
177.9198467985
  0
LINE
  5
251
100
AcDbEntity
  8
0
100
AcDbLine
 62
7
  6
CONTINUOUS
 10
85.5760764862
 20
213.419846544
 11
85.5760764862
 21
213.919846544
  0
LINE
  5
252
100
AcDbEntity
  8
0
100
AcDbLine
 62
7
  6
CONTINUOUS
 10
86.5762016272
 20
177.9198467557
 11
86.5760271029
 21
109.919846544
  0
LINE
  5
253
100
AcDbEntity
  8
0
100
AcDbLine
 62
7
  6
CONTINUOUS
 10
87.8981725247
 20
213.919846544
 11
87.8981725247
 21
213.419846544
  0
LINE
  5
254
100
AcDbEntity
  8
0
100
AcDbLine
 62
7
  6
CONTINUOUS
 10
88.3260764862
 20
210.419846544
 11
88.3260764862
 21
213.119846544
  0
LINE
  5
255
100
AcDbEntity
  8
0
100
AcDbLine
 62
7
  6
CONTINUOUS
 10
89.5760140662
 20
109.919846544
 11
89.5760764862
 21
177.9198467985
  0
LINE
  5
256
100
AcDbEntity
  8
0
100
AcDbLine
 62
7
  6
CONTINUOUS
 10
116.5760764862
 20
197.569846544
 11
116.0564612439
 21
196.669846544
  0
LINE
  5
257
100
AcDbEntity
  8
0
100
AcDbLine
 62
7
  6
CONTINUOUS
 10
141.8259236765
 20
133.8555752795
 11
156.8259301848
 21
136.8198715957
  0
LINE
  5
258
100
AcDbEntity
  8
0
100
AcDbLine
 62
7
  6
CONTINUOUS
 10
141.8259175897
 20
133.4699720648
 11
156.8259226599
 21
136.1698489725
  0
LINE
  5
259
100
AcDbEntity
  8
0
100
AcDbLine
 62
7
  6
CONTINUOUS
 10
156.8257689062
 20
136.819846544
 11
141.8268331064
 21
134.6748465439
  0
LINE
  5
25A
100
AcDbEntity
  8
0
100
AcDbLine
 62
7
  6
CONTINUOUS
 10
156.8259201653
 20
124.519846544
 11
159.3259214702
 21
124.519846544
  0
LINE
  5
25B
100
AcDbEntity
  8
0
100
AcDbLine
 62
7
  6
CONTINUOUS
 10
159.3259233222
 20
125.169846544
 11
156.8259204384
 21
125.1698506783
  0
LINE
  5
25C
100
AcDbEntity
  8
0
100
AcDbLine
 62
7
  6
CONTINUOUS
 10
167.5259146323
 20
125.619846544
 11
159.3259146324
 21
125.619846544
  0
LINE
  5
25D
100
AcDbEntity
  8
0
100
AcDbLine
 62
7
  6
CONTINUOUS
 10
159.325922325
 20
125.869846544
 11
167.5259223249
 21
125.869846544
  0
LINE
  5
25E
100
AcDbEntity
  8
0
100
AcDbLine
 62
7
  6
CONTINUOUS
 10
136.8259086494
 20
126.664846544
 11
141.826832621
 21
126.664846544
  0
LINE
  5
25F
100
AcDbEntity
  8
0
100
AcDbLine
 62
7
  6
CONTINUOUS
 10
176.4259194758
 20
126.769846544
 11
167.5259194758
 21
126.769846544
  0
LINE
  5
260
100
AcDbEntity
  8
0
100
AcDbLine
 62
7
  6
CONTINUOUS
 10
136.8259086494
 20
126.969846544
 11
119.8259086495
 21
126.969846544
  0
LINE
  5
261
100
AcDbEntity
  8
0
100
AcDbLine
 62
7
  6
CONTINUOUS
 10
95.318415147
 20
177.919846544
 11
95.318415147
 21
175.419846544
  0
LINE
  5
262
100
AcDbEntity
  8
0
100
AcDbLine
 62
7
  6
CONTINUOUS
 10
96.5489162886
 20
175.419846544
 11
96.5489162886
 21
177.919846544
  0
LINE
  5
263
100
AcDbEntity
  8
0
100
AcDbLine
 62
7
  6
CONTINUOUS
 10
96.5759827261
 20
109.919846544
 11
96.5760764862
 21
175.419846544
  0
LINE
  5
264
100
AcDbEntity
  8
0
100
AcDbLine
 62
7
  6
CONTINUOUS
 10
96.5760764862
 20
177.919846544
 11
96.5760764862
 21
213.919846544
  0
LINE
  5
265
100
AcDbEntity
  8
0
100
AcDbLine
 62
7
  6
CONTINUOUS
 10
96.8258462352
 20
175.419846544
 11
96.8258462352
 21
177.119846544
  0
LINE
  5
266
100
AcDbEntity
  8
0
100
AcDbLine
 62
7
  6
CONTINUOUS
 10
176.4259194758
 20
130.169846544
 11
167.5259194758
 21
130.169846544
  0
LINE
  5
267
100
AcDbEntity
  8
0
100
AcDbLine
 62
7
  6
CONTINUOUS
 10
176.425917339
 20
130.969846544
 11
167.525917339
 21
130.969846544
  0
LINE
  5
268
100
AcDbEntity
  8
0
100
AcDbLine
 62
7
  6
CONTINUOUS
 10
176.4259194758
 20
131.719846544
 11
167.5259194758
 21
131.719846544
  0
LINE
  5
269
100
AcDbEntity
  8
0
100
AcDbLine
 62
7
  6
CONTINUOUS
 10
176.4259194758
 20
134.369846544
 11
167.5259194758
 21
134.369846544
  0
LINE
  5
26A
100
AcDbEntity
  8
0
100
AcDbLine
 62
7
  6
CONTINUOUS
 10
136.8259086494
 20
134.369846544
 11
119.8259086495
 21
134.369846544
  0
LINE
  5
26B
100
AcDbEntity
  8
0
100
AcDbLine
 62
7
  6
CONTINUOUS
 10
136.8259086494
 20
134.674846544
 11
141.8268331077
 21
134.674846544
  0
LINE
  5
26C
100
AcDbEntity
  8
0
100
AcDbLine
 62
7
  6
CONTINUOUS
 10
167.5259223249
 20
135.469846544
 11
159.325922325
 21
135.469846544
  0
LINE
  5
26D
100
AcDbEntity
  8
0
100
AcDbLine
 62
7
  6
CONTINUOUS
 10
170.8259129229
 20
135.469846544
 11
172.3259129229
 21
135.469846544
  0
LINE
  5
26E
100
AcDbEntity
  8
0
100
AcDbLine
 62
7
  6
CONTINUOUS
 10
156.8259209947
 20
136.1698493383
 11
159.3259233222
 21
136.169846544
  0
LINE
  5
26F
100
AcDbEntity
  8
0
100
AcDbLine
 62
7
  6
CONTINUOUS
 10
159.3259214702
 20
136.819846544
 11
156.8259198097
 21
136.819846544
  0
LINE
  5
270
100
AcDbEntity
  8
0
100
AcDbLine
 62
7
  6
CONTINUOUS
 10
166.2759129229
 20
136.969846544
 11
170.9571459182
 21
136.969846544
  0
LINE
  5
271
100
AcDbEntity
  8
0
100
AcDbLine
 62
7
  6
CONTINUOUS
 10
141.8268326199
 20
126.664846544
 11
156.8257692889
 21
124.519846544
  0
LINE
  5
272
100
AcDbEntity
  8
0
100
AcDbLine
 62
7
  6
CONTINUOUS
 10
141.8259338533
 20
127.8148416489
 11
156.8259146882
 21
125.169850696
  0
LINE
  5
273
100
AcDbEntity
  8
0
100
AcDbLine
 62
7
  6
CONTINUOUS
 10
156.8259301847
 20
124.519826406
 11
141.826353883
 21
127.4376149754
  0
LINE
  5
274
100
AcDbEntity
  8
0
100
AcDbLine
 62
7
  6
CONTINUOUS
 10
100.5763335043
 20
177.919846544
 11
100.1115273684
 21
213.4263919948
  0
LINE
  5
275
100
AcDbEntity
  8
0
100
AcDbLine
 62
7
  6
CONTINUOUS
 10
103.1112703461
 20
213.4263919142
 11
103.5760764862
 21
177.919846544
  0
LINE
  5
276
100
AcDbEntity
  8
0
100
AcDbLine
 62
7
  6
CONTINUOUS
 10
103.6179447027
 20
212.4198465428
 11
103.9730414187
 21
185.2940074202
  0
LINE
  5
277
100
AcDbEntity
  8
0
100
AcDbLine
 62
7
  6
CONTINUOUS
 10
98.5760226134
 20
109.919846544
 11
98.5759086496
 21
99.419846544
  0
LINE
  5
278
100
AcDbEntity
  8
0
100
AcDbLine
 62
7
  6
CONTINUOUS
 10
99.5758459694
 20
177.419846544
 11
99.5758459694
 21
177.919846544
  0
LINE
  5
279
100
AcDbEntity
  8
0
100
AcDbLine
 62
7
  6
CONTINUOUS
 10
100.1115273709
 20
213.919846544
 11
100.1115273709
 21
213.4263916919
  0
LINE
  5
27A
100
AcDbEntity
  8
0
100
AcDbLine
 62
7
  6
CONTINUOUS
 10
100.5760764862
 20
175.419846544
 11
100.5759827261
 21
109.919846544
  0
LINE
  5
27B
100
AcDbEntity
  8
0
100
AcDbLine
 62
7
  6
CONTINUOUS
 10
102.0760764862
 20
177.919846544
 11
102.0760764862
 21
177.419846544
  0
LINE
  5
27C
100
AcDbEntity
  8
0
100
AcDbLine
 62
7
  6
CONTINUOUS
 10
102.3258462352
 20
175.419846544
 11
102.3258462352
 21
177.119846544
  0
LINE
  5
27D
100
AcDbEntity
  8
0
100
AcDbLine
 62
7
  6
CONTINUOUS
 10
103.5760083679
 20
101.919846544
 11
103.5760764862
 21
177.919846544
  0
LINE
  5
27E
100
AcDbEntity
  8
0
100
AcDbLine
 62
7
  6
CONTINUOUS
 10
104.0759385652
 20
169.919846544
 11
104.0759385652
 21
141.919846544
  0
LINE
  5
27F
100
AcDbEntity
  8
0
100
AcDbLine
 62
7
  6
CONTINUOUS
 10
117.5803014874
 20
142.0376973367
 11
104.0759385652
 21
141.919846544
  0
LINE
  5
280
100
AcDbEntity
  8
0
100
AcDbLine
 62
7
  6
CONTINUOUS
 10
104.0759414141
 20
142.919808467
 11
117.5803043355
 21
143.0376592598
  0
LINE
  5
281
100
AcDbEntity
  8
0
100
AcDbLine
 62
7
  6
CONTINUOUS
 10
166.2759163418
 20
138.269846544
 11
161.0259163419
 21
138.269846544
  0
LINE
  5
282
100
AcDbEntity
  8
0
100
AcDbLine
 62
7
  6
CONTINUOUS
 10
173.1259129229
 20
138.969846544
 11
160.5259129229
 21
138.969846544
  0
LINE
  5
283
100
AcDbEntity
  8
0
100
AcDbLine
 62
7
  6
CONTINUOUS
 10
160.5259163419
 20
139.269846544
 11
159.0259163419
 21
139.269846544
  0
LINE
  5
284
100
AcDbEntity
  8
0
100
AcDbLine
 62
7
  6
CONTINUOUS
 10
113.5259086495
 20
140.669846544
 11
106.1259086495
 21
140.669846544
  0
LINE
  5
285
100
AcDbEntity
  8
0
100
AcDbLine
 62
7
  6
CONTINUOUS
 10
103.5759378528
 20
142.169846544
 11
104.0759378528
 21
142.169846544
  0
LINE
  5
286
100
AcDbEntity
  8
0
100
AcDbLine
 62
7
  6
CONTINUOUS
 10
118.0759396538
 20
143.0376592599
 11
117.580304335
 21
143.0376592599
  0
LINE
  5
287
100
AcDbEntity
  8
0
100
AcDbLine
 62
7
  6
CONTINUOUS
 10
104.0759407019
 20
143.169846544
 11
103.5759407019
 21
143.169846544
  0
LINE
  5
288
100
AcDbEntity
  8
0
100
AcDbLine
 62
7
  6
CONTINUOUS
 10
159.0259163419
 20
137.356172594
 11
164.5933474904
 21
136.8690854836
  0
LINE
  5
289
100
AcDbEntity
  8
0
100
AcDbLine
 62
7
  6
CONTINUOUS
 10
106.1259086495
 20
140.669846544
 11
106.1259086495
 21
141.9377363623
  0
LINE
  5
28A
100
AcDbEntity
  8
0
100
AcDbLine
 62
7
  6
CONTINUOUS
 10
113.0826212674
 20
212.4198465439
 11
113.0826212542
 21
185.4132583529
  0
LINE
  5
28B
100
AcDbEntity
  8
0
100
AcDbLine
 62
7
  6
CONTINUOUS
 10
113.5259086495
 20
140.669846544
 11
113.5259086495
 21
142.0023151856
  0
LINE
  5
28C
100
AcDbEntity
  8
0
100
AcDbLine
 62
7
  6
CONTINUOUS
 10
113.5760764862
 20
184.4133440253
 11
113.5760764862
 21
213.4198450355
  0
LINE
  5
28D
100
AcDbEntity
  8
0
100
AcDbLine
 62
7
  6
CONTINUOUS
 10
114.0760764862
 20
196.6698471643
 11
114.0760764862
 21
211.1698459236
  0
LINE
  5
28E
100
AcDbEntity
  8
0
100
AcDbLine
 62
7
  6
CONTINUOUS
 10
115.0759411406
 20
160.4148465498
 11
115.0759411406
 21
153.4248465382
  0
LINE
  5
28F
100
AcDbEntity
  8
0
100
AcDbLine
 62
7
  6
CONTINUOUS
 10
116.0564612439
 20
211.169846544
 11
116.0564612439
 21
211.1546657409
  0
LINE
  5
290
100
AcDbEntity
  8
0
100
AcDbLine
 62
7
  6
CONTINUOUS
 10
116.0564612439
 20
207.9433575963
 11
116.0564612439
 21
207.1311546886
  0
LINE
  5
291
100
AcDbEntity
  8
0
100
AcDbLine
 62
7
  6
CONTINUOUS
 10
116.0564612439
 20
200.7085383993
 11
116.0564612439
 21
199.8963354917
  0
LINE
  5
292
100
AcDbEntity
  8
0
100
AcDbLine
 62
7
  6
CONTINUOUS
 10
116.0564612439
 20
196.685027347
 11
116.0564612439
 21
196.669846544
  0
LINE
  5
293
100
AcDbEntity
  8
0
100
AcDbLine
 62
7
  6
CONTINUOUS
 10
116.5760764862
 20
197.569846544
 11
116.5760764862
 21
210.269846544
  0
LINE
  5
294
100
AcDbEntity
  8
0
100
AcDbLine
 62
7
  6
CONTINUOUS
 10
117.3259342913
 20
159.2698464486
 11
117.3259342913
 21
154.5698466393
  0
LINE
  5
295
100
AcDbEntity
  8
0
100
AcDbLine
 62
7
  6
CONTINUOUS
 10
117.5759342913
 20
159.0198464415
 11
117.5759342913
 21
154.8198466322
  0
LINE
  5
296
100
AcDbEntity
  8
0
100
AcDbLine
 62
7
  6
CONTINUOUS
 10
117.5760764862
 20
210.269846544
 11
117.5760764862
 21
197.569846544
  0
LINE
  5
297
100
AcDbEntity
  8
0
100
AcDbLine
 62
7
  6
CONTINUOUS
 10
117.5803043361
 20
168.8020338281
 11
117.5803043335
 21
160.4585603732
  0
LINE
  5
298
100
AcDbEntity
  8
0
100
AcDbLine
 62
7
  6
CONTINUOUS
 10
117.5803043344
 20
153.3811327147
 11
117.5803043355
 21
143.0376592598
  0
LINE
  5
299
100
AcDbEntity
  8
0
100
AcDbLine
 62
7
  6
CONTINUOUS
 10
117.5846604946
 20
159.4586365227
 11
117.5846604946
 21
154.3810565652
  0
LINE
  5
29A
100
AcDbEntity
  8
0
100
AcDbLine
 62
7
  6
CONTINUOUS
 10
118.0759382293
 20
169.3020147896
 11
118.0759382293
 21
142.5376782983
  0
LINE
  5
29B
100
AcDbEntity
  8
0
100
AcDbLine
 62
7
  6
CONTINUOUS
 10
118.5760764862
 20
209.2698158848
 11
118.5760764862
 21
198.569846544
  0
LINE
  5
29C
100
AcDbEntity
  8
0
100
AcDbLine
 62
7
  6
CONTINUOUS
 10
72.0759086495
 20
96.419846544
 11
70.5760276111
 21
94.9199655055
  0
LINE
  5
29D
100
AcDbEntity
  8
0
100
AcDbLine
 62
7
  6
CONTINUOUS
 10
73.5710764862
 20
96.919846544
 11
73.0710764862
 21
96.419846544
  0
LINE
  5
29E
100
AcDbEntity
  8
0
100
AcDbLine
 62
7
  6
CONTINUOUS
 10
117.580304335
 20
153.3811327147
 11
118.0759396538
 21
153.3811327147
  0
LINE
  5
29F
100
AcDbEntity
  8
0
100
AcDbLine
 62
7
  6
CONTINUOUS
 10
115.0759342914
 20
154.5698466393
 11
117.3259342913
 21
154.5698466393
  0
LINE
  5
2A0
100
AcDbEntity
  8
0
100
AcDbLine
 62
7
  6
CONTINUOUS
 10
115.0759411406
 20
153.4248465381
 11
117.5803043344
 21
153.3811327147
  0
LINE
  5
2A1
100
AcDbEntity
  8
0
100
AcDbLine
 62
7
  6
CONTINUOUS
 10
117.5846644156
 20
154.3810565655
 11
115.0759382918
 21
154.424846544
  0
LINE
  5
2A2
100
AcDbEntity
  8
0
100
AcDbLine
 62
7
  6
CONTINUOUS
 10
119.8259086495
 20
126.969846544
 11
119.8259086495
 21
134.369846544
  0
LINE
  5
2A3
100
AcDbEntity
  8
0
100
AcDbLine
 62
7
  6
CONTINUOUS
 10
115.0759382918
 20
159.414846544
 11
117.5846644165
 21
159.4586365224
  0
LINE
  5
2A4
100
AcDbEntity
  8
0
100
AcDbLine
 62
7
  6
CONTINUOUS
 10
117.5803043335
 20
160.4585603732
 11
115.0759411406
 21
160.4148465498
  0
LINE
  5
2A5
100
AcDbEntity
  8
0
100
AcDbLine
 62
7
  6
CONTINUOUS
 10
115.0759342914
 20
159.2698464486
 11
117.3259342913
 21
159.2698464486
  0
LINE
  5
2A6
100
AcDbEntity
  8
0
100
AcDbLine
 62
7
  6
CONTINUOUS
 10
118.0759396538
 20
160.4585603732
 11
117.5803043348
 21
160.4585603732
  0
LINE
  5
2A7
100
AcDbEntity
  8
0
100
AcDbLine
 62
7
  6
CONTINUOUS
 10
179.4260764862
 20
211.019846544
 11
180.2760764862
 21
212.319846544
  0
LINE
  5
2A8
100
AcDbEntity
  8
0
100
AcDbLine
 62
7
  6
CONTINUOUS
 10
98.5759086496
 20
99.419846544
 11
98.0759086496
 21
98.919846544
  0
LINE
  5
2A9
100
AcDbEntity
  8
0
100
AcDbLine
 62
7
  6
CONTINUOUS
 10
72.3260764862
 20
71.919846544
 11
72.5760764862
 21
72.169846544
  0
LINE
  5
2AA
100
AcDbEntity
  8
0
100
AcDbLine
 62
7
  6
CONTINUOUS
 10
103.5759407019
 20
168.6698465439
 11
104.0759407019
 21
168.6698465439
  0
LINE
  5
2AB
100
AcDbEntity
  8
0
100
AcDbLine
 62
7
  6
CONTINUOUS
 10
117.5803043348
 20
168.8020338281
 11
118.0759396538
 21
168.8020338281
  0
LINE
  5
2AC
100
AcDbEntity
  8
0
100
AcDbLine
 62
7
  6
CONTINUOUS
 10
104.0759378528
 20
169.669846544
 11
103.5759378528
 21
169.669846544
  0
LINE
  5
2AD
100
AcDbEntity
  8
0
100
AcDbLine
 62
7
  6
CONTINUOUS
 10
117.5803043361
 20
168.8020338281
 11
104.0759414141
 21
168.9198846209
  0
LINE
  5
2AE
100
AcDbEntity
  8
0
100
AcDbLine
 62
7
  6
CONTINUOUS
 10
104.0759385652
 20
169.919846544
 11
117.5803014867
 21
169.8019957512
  0
LINE
  5
2AF
100
AcDbEntity
  8
0
100
AcDbLine
 62
7
  6
CONTINUOUS
 10
136.8259086494
 20
126.6653817177
 11
136.8259086494
 21
134.6743113702
  0
LINE
  5
2B0
100
AcDbEntity
  8
0
100
AcDbLine
 62
7
  6
CONTINUOUS
 10
140.5760764862
 20
199.919846544
 11
140.5760764862
 21
207.919846544
  0
LINE
  5
2B1
100
AcDbEntity
  8
0
100
AcDbLine
 62
7
  6
CONTINUOUS
 10
23.5760310159
 20
175.419846544
 11
31.8337378254
 21
175.419846544
  0
LINE
  5
2B2
100
AcDbEntity
  8
0
100
AcDbLine
 62
7
  6
CONTINUOUS
 10
95.318415147
 20
175.419846544
 11
103.5760764862
 21
175.419846544
  0
LINE
  5
2B3
100
AcDbEntity
  8
0
100
AcDbLine
 62
7
  6
CONTINUOUS
 10
24.8258462352
 20
177.119846544
 11
30.3258462352
 21
177.119846544
  0
LINE
  5
2B4
100
AcDbEntity
  8
0
100
AcDbLine
 62
7
  6
CONTINUOUS
 10
96.8258462352
 20
177.119846544
 11
102.3258462352
 21
177.119846544
  0
LINE
  5
2B5
100
AcDbEntity
  8
0
100
AcDbLine
 62
7
  6
CONTINUOUS
 10
25.1258462352
 20
177.419846544
 11
30.0258462352
 21
177.419846544
  0
LINE
  5
2B6
100
AcDbEntity
  8
0
100
AcDbLine
 62
7
  6
CONTINUOUS
 10
97.1258462352
 20
177.419846544
 11
102.0258462352
 21
177.419846544
  0
LINE
  5
2B7
100
AcDbEntity
  8
0
100
AcDbLine
 62
7
  6
CONTINUOUS
 10
23.5760764862
 20
177.919846544
 11
103.5760764862
 21
177.919846544
  0
LINE
  5
2B8
100
AcDbEntity
  8
0
100
AcDbLine
 62
7
  6
CONTINUOUS
 10
141.8263695796
 20
126.664846544
 11
141.8261464988
 21
127.4376899993
  0
LINE
  5
2B9
100
AcDbEntity
  8
0
100
AcDbLine
 62
7
  6
CONTINUOUS
 10
141.826147663
 20
133.8556018039
 11
141.8263695795
 21
134.674846544
  0
LINE
  5
2BA
100
AcDbEntity
  8
0
100
AcDbLine
 62
7
  6
CONTINUOUS
 10
113.0826212551
 20
183.9133868611
 11
103.9992161897
 21
183.7944785753
  0
LINE
  5
2BB
100
AcDbEntity
  8
0
100
AcDbLine
 62
7
  6
CONTINUOUS
 10
103.4796291085
 20
185.2874626231
 11
113.0826212542
 21
185.4132583529
  0
LINE
  5
2BC
100
AcDbEntity
  8
0
100
AcDbLine
 62
7
  6
CONTINUOUS
 10
113.5760764862
 20
185.4132583529
 11
113.0826212608
 21
185.4132583529
  0
LINE
  5
2BD
100
AcDbEntity
  8
0
100
AcDbLine
 62
7
  6
CONTINUOUS
 10
161.0259163419
 20
138.269846544
 11
160.5259163419
 21
138.969846544
  0
LINE
  5
2BE
100
AcDbEntity
  8
0
100
AcDbLine
 62
7
  6
CONTINUOUS
 10
173.8259129229
 20
138.269846544
 11
173.1259129229
 21
138.969846544
  0
LINE
  5
2BF
100
AcDbEntity
  8
0
100
AcDbLine
 62
7
  6
CONTINUOUS
 10
116.5760764862
 20
210.269846544
 11
116.0564612439
 21
211.1698465439
  0
LINE
  5
2C0
100
AcDbEntity
  8
0
100
AcDbLine
 62
7
  6
CONTINUOUS
 10
159.0259163419
 20
139.269846544
 11
159.0259163419
 21
137.356172594
  0
LINE
  5
2C1
100
AcDbEntity
  8
0
100
AcDbLine
 62
7
  6
CONTINUOUS
 10
159.3259214702
 20
136.819846544
 11
159.3259214702
 21
124.519846544
  0
LINE
  5
2C2
100
AcDbEntity
  8
0
100
AcDbLine
 62
7
  6
CONTINUOUS
 10
160.5259163419
 20
138.969846544
 11
160.5259163419
 21
139.269846544
  0
LINE
  5
2C3
100
AcDbEntity
  8
0
100
AcDbLine
 62
7
  6
CONTINUOUS
 10
172.3259129229
 20
135.469846544
 11
173.8259129229
 21
136.969846544
  0
LINE
  5
2C4
100
AcDbEntity
  8
0
100
AcDbLine
 62
7
  6
CONTINUOUS
 10
154.5760764862
 20
195.919846544
 11
164.5760764862
 21
195.919846544
  0
LINE
  5
2C5
100
AcDbEntity
  8
0
100
AcDbLine
 62
7
  6
CONTINUOUS
 10
114.0760764862
 20
196.669846544
 11
116.0564612439
 21
196.669846544
  0
LINE
  5
2C6
100
AcDbEntity
  8
0
100
AcDbLine
 62
7
  6
CONTINUOUS
 10
116.0564612439
 20
196.685027347
 11
114.0760764862
 21
196.685027347
  0
LINE
  5
2C7
100
AcDbEntity
  8
0
100
AcDbLine
 62
7
  6
CONTINUOUS
 10
164.5760764862
 20
196.919846544
 11
174.9760764862
 21
196.919846544
  0
LINE
  5
2C8
100
AcDbEntity
  8
0
100
AcDbLine
 62
7
  6
CONTINUOUS
 10
174.9760764862
 20
197.419846544
 11
164.5760764862
 21
197.419846544
  0
LINE
  5
2C9
100
AcDbEntity
  8
0
100
AcDbLine
 62
7
  6
CONTINUOUS
 10
116.5760764862
 20
197.569846544
 11
117.5760764862
 21
197.569846544
  0
LINE
  5
2CA
100
AcDbEntity
  8
0
100
AcDbLine
 62
7
  6
CONTINUOUS
 10
174.9760764862
 20
198.054846544
 11
184.2760764862
 21
198.054846544
  0
LINE
  5
2CB
100
AcDbEntity
  8
0
100
AcDbLine
 62
7
  6
CONTINUOUS
 10
113.5760764862
 20
198.769846544
 11
114.0760764862
 21
198.769846544
  0
LINE
  5
2CC
100
AcDbEntity
  8
0
100
AcDbLine
 62
7
  6
CONTINUOUS
 10
114.0760764862
 20
199.8963354917
 11
116.0564612439
 21
199.8963354917
  0
LINE
  5
2CD
100
AcDbEntity
  8
0
100
AcDbLine
 62
7
  6
CONTINUOUS
 10
145.5760764862
 20
199.919846544
 11
140.5760764862
 21
199.919846544
  0
LINE
  5
2CE
100
AcDbEntity
  8
0
100
AcDbLine
 62
7
  6
CONTINUOUS
 10
116.0564612439
 20
200.7085383993
 11
114.0760764862
 21
200.7085383993
  0
LINE
  5
2CF
100
AcDbEntity
  8
0
100
AcDbLine
 62
7
  6
CONTINUOUS
 10
140.5760764862
 20
201.419846544
 11
118.5760764862
 21
201.419846544
  0
LINE
  5
2D0
100
AcDbEntity
  8
0
100
AcDbLine
 62
7
  6
CONTINUOUS
 10
174.9760764862
 20
201.504846544
 11
184.2760764862
 21
201.504846544
  0
LINE
  5
2D1
100
AcDbEntity
  8
0
100
AcDbLine
 62
7
  6
CONTINUOUS
 10
164.5760764862
 20
211.919846544
 11
164.5760764862
 21
195.919846544
  0
LINE
  5
2D2
100
AcDbEntity
  8
0
100
AcDbLine
 62
7
  6
CONTINUOUS
 10
164.7759163418
 20
136.6698465439
 11
164.7759163418
 21
135.769846544
  0
LINE
  5
2D3
100
AcDbEntity
  8
0
100
AcDbLine
 62
7
  6
CONTINUOUS
 10
166.2759163418
 20
135.769846544
 11
166.2759163418
 21
138.269846544
  0
LINE
  5
2D4
100
AcDbEntity
  8
0
100
AcDbLine
 62
7
  6
CONTINUOUS
 10
166.7760764862
 20
213.319846544
 11
166.7760764862
 21
214.819846544
  0
LINE
  5
2D5
100
AcDbEntity
  8
0
100
AcDbLine
 62
7
  6
CONTINUOUS
 10
167.5259223249
 20
135.469846544
 11
167.5259146323
 21
125.6198666995
  0
LINE
  5
2D6
100
AcDbEntity
  8
0
100
AcDbLine
 62
7
  6
CONTINUOUS
 10
167.7760764862
 20
214.819846544
 11
167.7760764862
 21
214.319846544
  0
LINE
  5
2D7
100
AcDbEntity
  8
0
100
AcDbLine
 62
7
  6
CONTINUOUS
 10
174.9760764862
 20
202.194846544
 11
184.2760764862
 21
202.194846544
  0
LINE
  5
2D8
100
AcDbEntity
  8
0
100
AcDbLine
 62
7
  6
CONTINUOUS
 10
174.9760764862
 20
205.644846544
 11
184.2760764862
 21
205.644846544
  0
LINE
  5
2D9
100
AcDbEntity
  8
0
100
AcDbLine
 62
7
  6
CONTINUOUS
 10
174.9760764862
 20
206.334846544
 11
184.2760764862
 21
206.334846544
  0
LINE
  5
2DA
100
AcDbEntity
  8
0
100
AcDbLine
 62
7
  6
CONTINUOUS
 10
140.5760764862
 20
206.419846544
 11
118.5760764862
 21
206.419846544
  0
LINE
  5
2DB
100
AcDbEntity
  8
0
100
AcDbLine
 62
7
  6
CONTINUOUS
 10
114.0760764862
 20
207.1311546887
 11
116.0564612439
 21
207.1311546887
  0
LINE
  5
2DC
100
AcDbEntity
  8
0
100
AcDbLine
 62
7
  6
CONTINUOUS
 10
145.5760764862
 20
207.919846544
 11
140.5760764862
 21
207.919846544
  0
LINE
  5
2DD
100
AcDbEntity
  8
0
100
AcDbLine
 62
7
  6
CONTINUOUS
 10
116.0564612439
 20
207.9433575963
 11
114.0760764862
 21
207.9433575963
  0
LINE
  5
2DE
100
AcDbEntity
  8
0
100
AcDbLine
 62
7
  6
CONTINUOUS
 10
173.8259129229
 20
136.969846544
 11
173.8259129229
 21
138.269846544
  0
LINE
  5
2DF
100
AcDbEntity
  8
0
100
AcDbLine
 62
7
  6
CONTINUOUS
 10
174.2760764862
 20
214.319846544
 11
174.2760764862
 21
211.619846544
  0
LINE
  5
2E0
100
AcDbEntity
  8
0
100
AcDbLine
 62
7
  6
CONTINUOUS
 10
174.9760764862
 20
210.919846544
 11
174.9760764862
 21
196.919846544
  0
LINE
  5
2E1
100
AcDbEntity
  8
0
100
AcDbLine
 62
7
  6
CONTINUOUS
 10
176.4259194758
 20
126.769846544
 11
176.4259194758
 21
130.169846544
  0
LINE
  5
2E2
100
AcDbEntity
  8
0
100
AcDbLine
 62
7
  6
CONTINUOUS
 10
176.4259194758
 20
134.369846544
 11
176.425917339
 21
130.969846544
  0
LINE
  5
2E3
100
AcDbEntity
  8
0
100
AcDbLine
 62
7
  6
CONTINUOUS
 10
170.9571459182
 20
136.969846544
 11
170.8259129229
 21
135.469846544
  0
LINE
  5
2E4
100
AcDbEntity
  8
0
100
AcDbLine
 62
7
  6
CONTINUOUS
 10
103.1245324229
 20
212.4133017462
 11
103.6179447179
 21
212.419846543
  0
LINE
  5
2E5
100
AcDbEntity
  8
0
100
AcDbLine
 62
7
  6
CONTINUOUS
 10
89.3502116029
 20
213.426391934
 11
88.0260738843
 21
213.4204237081
  0
LINE
  5
2E6
100
AcDbEntity
  8
0
100
AcDbLine
 62
7
  6
CONTINUOUS
 10
113.5760764862
 20
209.069846544
 11
114.0760764862
 21
209.069846544
  0
LINE
  5
2E7
100
AcDbEntity
  8
0
100
AcDbLine
 62
7
  6
CONTINUOUS
 10
164.5760764862
 20
209.419846544
 11
174.9760764862
 21
209.419846544
  0
LINE
  5
2E8
100
AcDbEntity
  8
0
100
AcDbLine
 62
7
  6
CONTINUOUS
 10
174.9760764862
 20
209.784846544
 11
184.2760764862
 21
209.784846544
  0
LINE
  5
2E9
100
AcDbEntity
  8
0
100
AcDbLine
 62
7
  6
CONTINUOUS
 10
174.9760764862
 20
209.919846544
 11
164.5760764862
 21
209.919846544
  0
LINE
  5
2EA
100
AcDbEntity
  8
0
100
AcDbLine
 62
7
  6
CONTINUOUS
 10
116.5760764862
 20
210.269846544
 11
117.5760764862
 21
210.269846544
  0
LINE
  5
2EB
100
AcDbEntity
  8
0
100
AcDbLine
 62
7
  6
CONTINUOUS
 10
37.7617105213
 20
210.419846544
 11
46.3260764861
 21
210.419846544
  0
LINE
  5
2EC
100
AcDbEntity
  8
0
100
AcDbLine
 62
7
  6
CONTINUOUS
 10
80.8260764862
 20
210.419846544
 11
89.3904426678
 21
210.419846544
  0
LINE
  5
2ED
100
AcDbEntity
  8
0
100
AcDbLine
 62
7
  6
CONTINUOUS
 10
164.5760764862
 20
210.419846544
 11
174.9760764862
 21
210.419846544
  0
LINE
  5
2EE
100
AcDbEntity
  8
0
100
AcDbLine
 62
7
  6
CONTINUOUS
 10
174.9760764862
 20
210.919846544
 11
164.5760764862
 21
210.919846544
  0
LINE
  5
2EF
100
AcDbEntity
  8
0
100
AcDbLine
 62
7
  6
CONTINUOUS
 10
179.4260764862
 20
211.019846544
 11
177.9260764862
 21
211.019846544
  0
LINE
  5
2F0
100
AcDbEntity
  8
0
100
AcDbLine
 62
7
  6
CONTINUOUS
 10
114.0760764862
 20
211.1546657409
 11
116.0564612439
 21
211.1546657409
  0
LINE
  5
2F1
100
AcDbEntity
  8
0
100
AcDbLine
 62
7
  6
CONTINUOUS
 10
114.0760764862
 20
211.169846544
 11
116.0564612439
 21
211.169846544
  0
LINE
  5
2F2
100
AcDbEntity
  8
0
100
AcDbLine
 62
7
  6
CONTINUOUS
 10
154.5760764862
 20
211.919846544
 11
164.5760764862
 21
211.919846544
  0
LINE
  5
2F3
100
AcDbEntity
  8
0
100
AcDbLine
 62
7
  6
CONTINUOUS
 10
177.9260764862
 20
212.119846544
 11
174.2760764862
 21
212.119846544
  0
LINE
  5
2F4
100
AcDbEntity
  8
0
100
AcDbLine
 62
7
  6
CONTINUOUS
 10
103.6179447027
 20
212.4198465428
 11
113.5760764862
 21
212.419846544
  0
LINE
  5
2F5
100
AcDbEntity
  8
0
100
AcDbLine
 62
7
  6
CONTINUOUS
 10
38.8260764862
 20
213.119846544
 11
44.3260764862
 21
213.119846544
  0
LINE
  5
2F6
100
AcDbEntity
  8
0
100
AcDbLine
 62
7
  6
CONTINUOUS
 10
82.8260764862
 20
213.119846544
 11
88.3260764862
 21
213.119846544
  0
LINE
  5
2F7
100
AcDbEntity
  8
0
100
AcDbLine
 62
7
  6
CONTINUOUS
 10
39.1260764862
 20
213.419846544
 11
44.8260764862
 21
213.419846544
  0
LINE
  5
2F8
100
AcDbEntity
  8
0
100
AcDbLine
 62
7
  6
CONTINUOUS
 10
82.3260764862
 20
213.419846544
 11
88.0260764862
 21
213.419846544
  0
LINE
  5
2F9
100
AcDbEntity
  8
0
100
AcDbLine
 62
7
  6
CONTINUOUS
 10
27.0406256022
 20
213.4263918599
 11
37.8019412234
 21
213.4263913418
  0
LINE
  5
2FA
100
AcDbEntity
  8
0
100
AcDbLine
 62
7
  6
CONTINUOUS
 10
46.3260764862
 20
213.4263913265
 11
80.8260764862
 21
213.4263913261
  0
LINE
  5
2FB
100
AcDbEntity
  8
0
100
AcDbLine
 62
7
  6
CONTINUOUS
 10
89.3502115519
 20
213.4263913418
 11
100.1115273684
 21
213.4263919948
  0
LINE
  5
2FC
100
AcDbEntity
  8
0
100
AcDbLine
 62
7
  6
CONTINUOUS
 10
24.540840627
 20
213.919846544
 11
113.0760764783
 21
213.919846544
  0
LINE
  5
2FD
100
AcDbEntity
  8
0
100
AcDbLine
 62
7
  6
CONTINUOUS
 10
167.7760764862
 20
214.319846544
 11
179.4260764862
 21
214.319846544
  0
LINE
  5
2FE
100
AcDbEntity
  8
0
100
AcDbLine
 62
7
  6
CONTINUOUS
 10
166.7760764862
 20
214.819846544
 11
177.0600510824
 21
214.819846544
  0
LINE
  5
2FF
100
AcDbEntity
  8
0
100
AcDbLine
 62
7
  6
CONTINUOUS
 10
39.1260790865
 20
213.420423357
 11
37.8023752629
 21
213.4263842835
  0
LINE
  5
300
100
AcDbEntity
  8
0
100
AcDbLine
 62
7
  6
CONTINUOUS
 10
145.5760764862
 20
199.919846544
 11
154.5760764862
 21
195.919846544
  0
LINE
  5
301
100
AcDbEntity
  8
0
100
AcDbLine
 62
7
  6
CONTINUOUS
 10
177.9260764862
 20
211.019846544
 11
177.9260764862
 21
214.319846544
  0
LINE
  5
302
100
AcDbEntity
  8
0
100
AcDbLine
 62
7
  6
CONTINUOUS
 10
180.2760764862
 20
213.319846544
 11
180.2760764862
 21
212.319846544
  0
LINE
  5
303
100
AcDbEntity
  8
0
100
AcDbLine
 62
7
  6
CONTINUOUS
 10
184.2760764862
 20
209.784846544
 11
184.2760764862
 21
206.334846544
  0
LINE
  5
304
100
AcDbEntity
  8
0
100
AcDbLine
 62
7
  6
CONTINUOUS
 10
184.2760764862
 20
205.644846544
 11
184.2760764862
 21
202.194846544
  0
LINE
  5
305
100
AcDbEntity
  8
0
100
AcDbLine
 62
7
  6
CONTINUOUS
 10
184.2760764862
 20
201.504846544
 11
184.2760764862
 21
198.054846544
  0
LINE
  5
306
100
AcDbEntity
  8
0
100
AcDbLine
 62
7
  6
CONTINUOUS
 10
166.7760764862
 20
213.3198465439
 11
172.2043499642
 21
212.3079932687
  0
LINE
  5
307
100
AcDbEntity
  8
0
100
AcDbLine
 62
7
  6
CONTINUOUS
 10
177.9260764862
 20
214.319846544
 11
177.0600510824
 21
214.819846544
  0
LINE
  5
308
100
AcDbEntity
  8
0
100
AcDbLine
 62
7
  6
CONTINUOUS
 10
180.2760764862
 20
213.319846544
 11
179.4260764862
 21
214.319846544
  0
ARC
  5
309
100
AcDbEntity
  8
0
100
AcDbCircle
 62
7
  6
CONTINUOUS
 10
-458.1163444182
 20
132.0280656814
 40
599.943997184
100
AcDbArc
 50
359.8702873383
 51
0.137701679
  0
ARC
  5
30A
100
AcDbEntity
  8
0
100
AcDbCircle
 62
7
  6
CONTINUOUS
 10
-388.3962813737
 20
129.2706833562
 40
530.2240897555
100
AcDbArc
 50
359.8426781336
 51
0.1511930484
  0
ARC
  5
30B
100
AcDbEntity
  8
0
100
AcDbCircle
 62
7
  6
CONTINUOUS
 10
119.8259086495
 20
140.669846544
 40
13.7
100
AcDbArc
 50
180.0
 51
270.0
  0
ARC
  5
30C
100
AcDbEntity
  8
0
100
AcDbCircle
 62
7
  6
CONTINUOUS
 10
119.8259086495
 20
140.669846544
 40
6.3
100
AcDbArc
 50
180.0
 51
270.0
  0
ARC
  5
30D
100
AcDbEntity
  8
0
100
AcDbCircle
 62
7
  6
CONTINUOUS
 10
37.0759086498
 20
97.919846544
 40
1.0
100
AcDbArc
 50
0.0
 51
90.0
  0
ARC
  5
30E
100
AcDbEntity
  8
0
100
AcDbCircle
 62
7
  6
CONTINUOUS
 10
90.0759086496
 20
97.919846544
 40
1.0
100
AcDbArc
 50
90.0
 51
180.0
  0
ARC
  5
30F
100
AcDbEntity
  8
0
100
AcDbCircle
 62
7
  6
CONTINUOUS
 10
117.5759382293
 20
142.5376782983
 40
0.5
100
AcDbArc
 50
270.4999988486
 51
360.0
  0
ARC
  5
310
100
AcDbEntity
  8
0
100
AcDbCircle
 62
7
  6
CONTINUOUS
 10
117.5759382294
 20
153.8811327176
 40
0.5
100
AcDbArc
 50
0.0000584011
 51
89.0000010193
  0
ARC
  5
311
100
AcDbEntity
  8
0
100
AcDbCircle
 62
7
  6
CONTINUOUS
 10
166.5759163418
 20
135.769846544
 40
0.3
100
AcDbArc
 50
179.9999999946
 51
269.9999999991
  0
ARC
  5
312
100
AcDbEntity
  8
0
100
AcDbCircle
 62
7
  6
CONTINUOUS
 10
164.4759163418
 20
135.769846544
 40
0.3
100
AcDbArc
 50
270.0
 51
360.0
  0
ARC
  5
313
100
AcDbEntity
  8
0
100
AcDbCircle
 62
7
  6
CONTINUOUS
 10
117.3259342913
 20
154.8198466393
 40
0.25
100
AcDbArc
 50
270.0
 51
360.0
  0
ARC
  5
314
100
AcDbEntity
  8
0
100
AcDbCircle
 62
7
  6
CONTINUOUS
 10
164.5759163418
 20
136.669846544
 40
0.2
100
AcDbArc
 50
0.0
 51
84.9999999925
  0
ARC
  5
315
100
AcDbEntity
  8
0
100
AcDbCircle
 62
7
  6
CONTINUOUS
 10
-20.413352022
 20
169.3338007337
 40
132.6182219503
100
AcDbArc
 50
312.8902154423
 51
313.0486763003
  0
ARC
  5
316
100
AcDbEntity
  8
0
100
AcDbCircle
 62
7
  6
CONTINUOUS
 10
-10.2467831948
 20
158.389028588
 40
117.6801104258
100
AcDbArc
 50
312.7112335963
 51
312.8903787269
  0
ARC
  5
317
100
AcDbEntity
  8
0
100
AcDbCircle
 62
7
  6
CONTINUOUS
 10
25.1258462352
 20
177.119846544
 40
0.3
100
AcDbArc
 50
90.0
 51
180.0
  0
ARC
  5
318
100
AcDbEntity
  8
0
100
AcDbCircle
 62
7
  6
CONTINUOUS
 10
30.0258462352
 20
177.119846544
 40
0.3
100
AcDbArc
 50
0.0
 51
90.0
  0
ARC
  5
319
100
AcDbEntity
  8
0
100
AcDbCircle
 62
7
  6
CONTINUOUS
 10
24.5408397826
 20
213.419846544
 40
0.5
100
AcDbArc
 50
90.0
 51
179.249927452
  0
ARC
  5
31A
100
AcDbEntity
  8
0
100
AcDbCircle
 62
7
  6
CONTINUOUS
 10
45.3260764862
 20
213.419846544
 40
0.5
100
AcDbArc
 50
89.9999135677
 51
180.0
  0
ARC
  5
31B
100
AcDbEntity
  8
0
100
AcDbCircle
 62
7
  6
CONTINUOUS
 10
44.0260764862
 20
213.119846544
 40
0.3
100
AcDbArc
 50
0.0
 51
90.0
  0
ARC
  5
31C
100
AcDbEntity
  8
0
100
AcDbCircle
 62
7
  6
CONTINUOUS
 10
39.1260764862
 20
213.119846544
 40
0.3
100
AcDbArc
 50
90.0
 51
180.0
  0
ARC
  5
31D
100
AcDbEntity
  8
0
100
AcDbCircle
 62
7
  6
CONTINUOUS
 10
104.005760978
 20
183.2945214113
 40
0.5
100
AcDbArc
 50
90.7499989708
 51
180.0
  0
ARC
  5
31E
100
AcDbEntity
  8
0
100
AcDbCircle
 62
7
  6
CONTINUOUS
 10
113.0760764862
 20
184.4133440253
 40
0.5
100
AcDbArc
 50
270.7499965414
 51
360.0
  0
ARC
  5
31F
100
AcDbEntity
  8
0
100
AcDbCircle
 62
7
  6
CONTINUOUS
 10
117.5759382293
 20
169.3020147896
 40
0.5
100
AcDbArc
 50
0.0
 51
89.5000011505
  0
ARC
  5
320
100
AcDbEntity
  8
0
100
AcDbCircle
 62
7
  6
CONTINUOUS
 10
117.5759342913
 20
159.9585603703
 40
0.5
100
AcDbArc
 50
270.9999990343
 51
359.9999423679
  0
ARC
  5
321
100
AcDbEntity
  8
0
100
AcDbCircle
 62
7
  6
CONTINUOUS
 10
97.1258462352
 20
177.119846544
 40
0.3
100
AcDbArc
 50
90.0
 51
180.0
  0
ARC
  5
322
100
AcDbEntity
  8
0
100
AcDbCircle
 62
7
  6
CONTINUOUS
 10
102.0258462352
 20
177.119846544
 40
0.3
100
AcDbArc
 50
0.0
 51
90.0
  0
ARC
  5
323
100
AcDbEntity
  8
0
100
AcDbCircle
 62
7
  6
CONTINUOUS
 10
117.3259342913
 20
159.0198464486
 40
0.25
100
AcDbArc
 50
0.0000000001
 51
90.0
  0
ARC
  5
324
100
AcDbEntity
  8
0
100
AcDbCircle
 62
7
  6
CONTINUOUS
 10
117.5760764862
 20
198.569846544
 40
1.0
100
AcDbArc
 50
270.0
 51
360.0
  0
ARC
  5
325
100
AcDbEntity
  8
0
100
AcDbCircle
 62
7
  6
CONTINUOUS
 10
117.5760764862
 20
209.269846544
 40
1.0
100
AcDbArc
 50
0.0
 51
90.0
  0
ARC
  5
326
100
AcDbEntity
  8
0
100
AcDbCircle
 62
7
  6
CONTINUOUS
 10
174.9760764862
 20
211.619846544
 40
0.7
100
AcDbArc
 50
180.0
 51
270.0
  0
ARC
  5
327
100
AcDbEntity
  8
0
100
AcDbCircle
 62
7
  6
CONTINUOUS
 10
172.0760764862
 20
211.619846544
 40
0.7
100
AcDbArc
 50
270.0
 51
79.4410060687
  0
ARC
  5
328
100
AcDbEntity
  8
0
100
AcDbCircle
 62
7
  6
CONTINUOUS
 10
81.8260764862
 20
213.419846544
 40
0.5
100
AcDbArc
 50
0.0
 51
90.0000863618
  0
ARC
  5
329
100
AcDbEntity
  8
0
100
AcDbCircle
 62
7
  6
CONTINUOUS
 10
102.6113131898
 20
213.419846544
 40
0.5
100
AcDbArc
 50
0.7500650808
 51
90.0000477518
  0
ARC
  5
32A
100
AcDbEntity
  8
0
100
AcDbCircle
 62
7
  6
CONTINUOUS
 10
113.0760764862
 20
213.419846544
 40
0.5
100
AcDbArc
 50
359.9998272877
 51
90.0
  0
ARC
  5
32B
100
AcDbEntity
  8
0
100
AcDbCircle
 62
7
  6
CONTINUOUS
 10
88.0260764862
 20
213.119846544
 40
0.3
100
AcDbArc
 50
0.0
 51
90.0
  0
ARC
  5
32C
100
AcDbEntity
  8
0
100
AcDbCircle
 62
7
  6
CONTINUOUS
 10
83.1260764862
 20
213.119846544
 40
0.3
100
AcDbArc
 50
90.0
 51
180.0
  0
SPLINE
  5
32D
100
AcDbEntity
  8
0
100
AcDbSpline
 62
7
  6
CONTINUOUS
 70
0
 71
3
 72
9
 73
5
 74
0
 42
0.0000001
 43
0.0000001
 44
0.0000000001
 40
0.0
 40
0.0
 40
0.0
 40
0.0
 40
0.5000000149
 40
1.0
 40
1.0
 40
1.0
 40
1.0
 10
156.8259204384
 20
125.1698506783
 30
0.0
 10
156.8315456861
 20
127.0031756134
 30
0.0
 10
156.8277684617
 20
130.6698506624
 30
0.0
 10
156.831140689
 20
134.3365233131
 30
0.0
 10
156.8259209947
 20
136.1698493383
 30
0.0
  0
SPLINE
  5
32E
100
AcDbEntity
  8
0
100
AcDbSpline
 62
7
  6
CONTINUOUS
 70
0
 71
3
 72
9
 73
5
 74
0
 42
0.0000001
 43
0.0000001
 44
0.0000000001
 40
0.0
 40
0.0
 40
0.0
 40
0.0
 40
0.521411665
 40
1.0
 40
1.0
 40
1.0
 40
1.0
 10
141.8258096151
 20
127.8148040702
 30
0.0
 10
141.8266277103
 20
127.7492652169
 30
0.0
 10
141.8247225314
 20
127.6235559383
 30
0.0
 10
141.8269864148
 20
127.497844996
 30
0.0
 10
141.8261464988
 20
127.4376899993
 30
0.0
  0
SPLINE
  5
32F
100
AcDbEntity
  8
0
100
AcDbSpline
 62
7
  6
CONTINUOUS
 70
0
 71
3
 72
16
 73
12
 74
0
 42
0.0000001
 43
0.0000001
 44
0.0000000001
 40
0.0
 40
0.0
 40
0.0
 40
0.0
 40
0.0062104918
 40
0.0208901898
 40
0.0447271856
 40
0.0777188939
 40
0.1700140974
 40
0.2940933841
 40
0.4454279289
 40
0.6181419894
 40
1.0
 40
1.0
 40
1.0
 40
1.0
 10
156.825920152
 20
124.519846544
 30
0.0
 10
156.8272685975
 20
124.5198465649
 30
0.0
 10
156.8295560546
 20
124.5253388122
 30
0.0
 10
156.8308445955
 20
124.5338765203
 30
0.0
 10
156.8324809911
 20
124.5499073787
 30
0.0
 10
156.8338614251
 20
124.5819231725
 30
0.0
 10
156.8344990875
 20
124.6363137137
 30
0.0
 10
156.8345201249
 20
124.7160382133
 30
0.0
 10
156.8344627972
 20
124.813378935
 30
0.0
 10
156.8329890088
 20
124.9666259932
 30
0.0
 10
156.8294146605
 20
125.0870097497
 30
0.0
 10
156.8259204384
 20
125.169846544
 30
0.0
  0
SPLINE
  5
330
100
AcDbEntity
  8
0
100
AcDbSpline
 62
7
  6
CONTINUOUS
 70
0
 71
3
 72
11
 73
7
 74
0
 42
0.0000001
 43
0.0000001
 44
0.0000000001
 40
0.0
 40
0.0
 40
0.0
 40
0.0
 40
0.2366633296
 40
0.4947190833
 40
0.7561088028
 40
1.0
 40
1.0
 40
1.0
 40
1.0
 10
38.2858953947
 20
213.919846544
 30
0.0
 10
38.225824222
 20
213.9198465271
 30
0.0
 10
38.0989882608
 20
213.8950754487
 30
0.0
 10
37.9355776748
 20
213.7845488748
 30
0.0
 10
37.8278070285
 20
213.6174052368
 30
0.0
 10
37.8027514661
 20
213.4882918293
 30
0.0
 10
37.8019427206
 20
213.426391323
 30
0.0
  0
SPLINE
  5
331
100
AcDbEntity
  8
0
100
AcDbSpline
 62
7
  6
CONTINUOUS
 70
0
 71
3
 72
11
 73
7
 74
0
 42
0.0000001
 43
0.0000001
 44
0.0000000001
 40
0.0
 40
0.0
 40
0.0
 40
0.0
 40
0.2438911972
 40
0.5052809167
 40
0.7633366704
 40
1.0
 40
1.0
 40
1.0
 40
1.0
 10
89.3502102518
 20
213.426391323
 30
0.0
 10
89.3494015063
 20
213.4882918293
 30
0.0
 10
89.3243459439
 20
213.6174052368
 30
0.0
 10
89.2165752976
 20
213.7845488748
 30
0.0
 10
89.0531647116
 20
213.8950754487
 30
0.0
 10
88.9263287504
 20
213.9198465271
 30
0.0
 10
88.8662575777
 20
213.9198465439
 30
0.0
  0
SPLINE
  5
332
100
AcDbEntity
  8
0
100
AcDbSpline
 62
7
  6
CONTINUOUS
 70
0
 71
3
 72
9
 73
5
 74
0
 42
0.0000001
 43
0.0000001
 44
0.0000000001
 40
0.0
 40
0.0
 40
0.0
 40
0.0
 40
0.5000469001
 40
1.0
 40
1.0
 40
1.0
 40
1.0
 10
116.0564612439
 20
207.1311546887
 30
0.0
 10
116.1905467796
 20
206.6068320802
 30
0.0
 10
116.4094607846
 20
205.5444565904
 30
0.0
 10
116.4894739458
 20
204.4609410417
 30
0.0
 10
116.4894739458
 20
203.919846544
 30
0.0
  0
SPLINE
  5
333
100
AcDbEntity
  8
0
100
AcDbSpline
 62
7
  6
CONTINUOUS
 70
0
 71
3
 72
11
 73
7
 74
0
 42
0.0000001
 43
0.0000001
 44
0.0000000001
 40
0.0
 40
0.0
 40
0.0
 40
0.0
 40
0.2559057304
 40
0.4999999526
 40
0.7440932351
 40
1.0
 40
1.0
 40
1.0
 40
1.0
 10
116.0564612439
 20
211.1546657409
 30
0.0
 10
116.1865840405
 20
210.9002523035
 30
0.0
 10
116.4042944932
 20
210.38157208
 30
0.0
 10
116.5308638933
 20
209.5490126767
 30
0.0
 10
116.4043062871
 20
208.716448087
 30
0.0
 10
116.1865845665
 20
208.1977720622
 30
0.0
 10
116.0564612439
 20
207.9433575963
 30
0.0
  0
SPLINE
  5
334
100
AcDbEntity
  8
0
100
AcDbSpline
 62
7
  6
CONTINUOUS
 70
0
 71
3
 72
21
 73
17
 74
0
 42
0.0000001
 43
0.0000001
 44
0.0000000001
 40
0.0
 40
0.0
 40
0.0
 40
0.0
 40
0.0012272496
 40
0.0048473876
 40
0.0108587636
 40
0.0192512059
 40
0.0431041067
 40
0.076163028
 40
0.1181247973
 40
0.1685715858
 40
0.2270311277
 40
0.2929281676
 40
0.4444554698
 40
0.6173319889
 40
0.8049158352
 40
1.0
 40
1.0
 40
1.0
 40
1.0
 10
113.0826211728
 20
183.91338686
 30
0.0
 10
113.0832347137
 20
183.9133948917
 30
0.0
 10
113.0824791973
 20
183.9172142332
 30
0.0
 10
113.0836584999
 20
183.9212957721
 30
0.0
 10
113.0833927254
 20
183.9310597369
 30
0.0
 10
113.0840874758
 20
183.9497262313
 30
0.0
 10
113.0842331042
 20
183.9827126735
 30
0.0
 10
113.0847120926
 20
184.0319845724
 30
0.0
 10
113.0849583711
 20
184.0947761975
 30
0.0
 10
113.0851843988
 20
184.1701843279
 30
0.0
 10
113.0853051831
 20
184.2575887254
 30
0.0
 10
113.0853621829
 20
184.3955206634
 30
0.0
 10
113.0851855142
 20
184.5906628439
 30
0.0
 10
113.0846525062
 20
184.8466424394
 30
0.0
 10
113.0838005569
 20
185.1243994524
 30
0.0
 10
113.0830466575
 20
185.3157221799
 30
0.0
 10
113.0826211728
 20
185.4132583524
 30
0.0
  0
SPLINE
  5
335
100
AcDbEntity
  8
0
100
AcDbSpline
 62
7
  6
CONTINUOUS
 70
0
 71
3
 72
11
 73
7
 74
0
 42
0.0000001
 43
0.0000001
 44
0.0000000001
 40
0.0
 40
0.0
 40
0.0
 40
0.0
 40
0.2559057304
 40
0.4999999526
 40
0.7440932351
 40
1.0
 40
1.0
 40
1.0
 40
1.0
 10
116.0564612439
 20
199.8963354917
 30
0.0
 10
116.1865840405
 20
199.6419220542
 30
0.0
 10
116.4042944933
 20
199.1232418307
 30
0.0
 10
116.5308638933
 20
198.2906824275
 30
0.0
 10
116.4043062871
 20
197.4581178378
 30
0.0
 10
116.1865845665
 20
196.939441813
 30
0.0
 10
116.0564612439
 20
196.685027347
 30
0.0
  0
SPLINE
  5
336
100
AcDbEntity
  8
0
100
AcDbSpline
 62
7
  6
CONTINUOUS
 70
0
 71
3
 72
9
 73
5
 74
0
 42
0.0000001
 43
0.0000001
 44
0.0000000001
 40
0.0
 40
0.0
 40
0.0
 40
0.0
 40
0.4999532846
 40
1.0
 40
1.0
 40
1.0
 40
1.0
 10
116.4894739458
 20
203.919846544
 30
0.0
 10
116.4894739458
 20
203.3787519128
 30
0.0
 10
116.4094545202
 20
202.2952371372
 30
0.0
 10
116.1905467137
 20
201.2328607497
 30
0.0
 10
116.0564612439
 20
200.7085383993
 30
0.0
  0
SPLINE
  5
337
100
AcDbEntity
  8
0
100
AcDbSpline
 62
7
  6
CONTINUOUS
 70
0
 71
3
 72
21
 73
17
 74
0
 42
0.0000001
 43
0.0000001
 44
0.0000000001
 40
0.0
 40
0.0
 40
0.0
 40
0.0
 40
0.1950908522
 40
0.3826796657
 40
0.5555592412
 40
0.7070875715
 40
0.7729843493
 40
0.8314431138
 40
0.8818886165
 40
0.9238486047
 40
0.9569052661
 40
0.980755451
 40
0.9891463723
 40
0.9951561241
 40
0.9987745403
 40
1.0
 40
1.0
 40
1.0
 40
1.0
 10
103.9730414815
 20
185.2940074211
 30
0.0
 10
103.9743182222
 20
185.1964827579
 30
0.0
 10
103.9769033146
 20
185.005184747
 30
0.0
 10
103.9808987787
 20
184.7274689515
 30
0.0
 10
103.9848330656
 20
184.4715340027
 30
0.0
 10
103.9880619273
 20
184.2764313841
 30
0.0
 10
103.990526012
 20
184.1385319795
 30
0.0
 10
103.9921720913
 20
184.0511507484
 30
0.0
 10
103.9937140225
 20
183.9757659134
 30
0.0
 10
103.9950560717
 20
183.9129950141
 30
0.0
 10
103.9963947043
 20
183.8637476094
 30
0.0
 10
103.9971161716
 20
183.8307713583
 30
0.0
 10
103.9981362052
 20
183.8121283924
 30
0.0
 10
103.9980414845
 20
183.8023576189
 30
0.0
 10
103.9992903528
 20
183.798311898
 30
0.0
 10
103.9986035879
 20
183.7944705559
 30
0.0
 10
103.9992161873
 20
183.7944785752
 30
0.0
  0
SPLINE
  5
338
100
AcDbEntity
  8
0
100
AcDbSpline
 62
7
  6
CONTINUOUS
 70
0
 71
3
 72
23
 73
19
 74
0
 42
0.0000001
 43
0.0000001
 44
0.0000000001
 40
0.0
 40
0.0
 40
0.0
 40
0.0
 40
0.0012105951
 40
0.0048235308
 40
0.0108335981
 40
0.019225725
 40
0.0299807749
 40
0.0430719551
 40
0.0761330162
 40
0.1180907191
 40
0.1685411367
 40
0.2269985436
 40
0.2929001077
 40
0.3656113141
 40
0.444432078
 40
0.6173151053
 40
0.8049068921
 40
1.0
 40
1.0
 40
1.0
 40
1.0
 10
103.1112693855
 20
213.4263922575
 30
0.0
 10
103.1112535435
 20
213.4276026554
 30
0.0
 10
103.1035628381
 20
213.425393538
 30
0.0
 10
103.0954977376
 20
213.4279781974
 30
0.0
 10
103.0759135165
 20
213.4269076924
 30
0.0
 10
103.0514520313
 20
213.4277422882
 30
0.0
 10
103.0189498836
 20
213.4277520593
 30
0.0
 10
102.9621742139
 20
213.428175301
 30
0.0
 10
102.8739896435
 20
213.4284280672
 30
0.0
 10
102.7485657093
 20
213.4287492834
 30
0.0
 10
102.5976995179
 20
213.4289487399
 30
0.0
 10
102.4229078428
 20
213.429078389
 30
0.0
 10
102.225851557
 20
213.4291166647
 30
0.0
 10
102.0084352415
 20
213.4290689419
 30
0.0
 10
101.6840452098
 20
213.4288819015
 30
0.0
 10
101.2447838865
 20
213.4284231766
 30
0.0
 10
100.6892595098
 20
213.4275717475
 30
0.0
 10
100.3066049296
 20
213.426817737
 30
0.0
 10
100.1115273648
 20
213.4263922575
 30
0.0
  0
SPLINE
  5
339
100
AcDbEntity
  8
0
100
AcDbSpline
 62
7
  6
CONTINUOUS
 70
0
 71
3
 72
10
 73
6
 74
0
 42
0.0000001
 43
0.0000001
 44
0.0000000001
 40
0.0
 40
0.0
 40
0.0
 40
0.0
 40
0.5410253284
 40
0.8093681273
 40
1.0
 40
1.0
 40
1.0
 40
1.0
 10
103.598307828
 20
213.919846544
 30
0.0
 10
103.4682208585
 20
213.9198463741
 30
0.0
 10
103.2969555947
 20
213.765238124
 30
0.0
 10
103.1600266046
 20
213.5787487369
 30
0.0
 10
103.1106671325
 20
213.4722352726
 30
0.0
 10
103.1112688115
 20
213.4264026938
 30
0.0
  0
SPLINE
  5
33A
100
AcDbEntity
  8
0
100
AcDbSpline
 62
7
  6
CONTINUOUS
 70
0
 71
3
 72
21
 73
17
 74
0
 42
0.0000001
 43
0.0000001
 44
0.0000000001
 40
0.0
 40
0.0
 40
0.0
 40
0.0
 40
0.1950817139
 40
0.3826666947
 40
0.5555463237
 40
0.7070771478
 40
0.7729756553
 40
0.8314362628
 40
0.8818835786
 40
0.9238452296
 40
0.9569032963
 40
0.9807545497
 40
0.9891458574
 40
0.9951558903
 40
0.9987744792
 40
1.0
 40
1.0
 40
1.0
 40
1.0
 10
113.0826212483
 20
212.4198465433
 30
0.0
 10
113.0826212483
 20
212.5173917079
 30
0.0
 10
113.0825405061
 20
212.7087334669
 30
0.0
 10
113.082180669
 20
212.9865189059
 30
0.0
 10
113.0815968221
 20
213.2425266475
 30
0.0
 10
113.0809220047
 20
213.4376903929
 30
0.0
 10
113.0802631012
 20
213.5756369056
 30
0.0
 10
113.0797608771
 20
213.6630498669
 30
0.0
 10
113.0792057463
 20
213.7384640069
 30
0.0
 10
113.0786853711
 20
213.801260296
 30
0.0
 10
113.0779913516
 20
213.8505315105
 30
0.0
 10
113.0777015477
 20
213.8835214705
 30
0.0
 10
113.0769254698
 20
213.9021802442
 30
0.0
 10
113.0771481411
 20
213.9119510553
 30
0.0
 10
113.0759520686
 20
213.9160136926
 30
0.0
 10
113.0766892383
 20
213.9198465312
 30
0.0
 10
113.0760764508
 20
213.919846544
 30
0.0
  0
SPLINE
  5
33B
100
AcDbEntity
  8
0
100
AcDbSpline
 62
7
  6
CONTINUOUS
 70
0
 71
3
 72
21
 73
17
 74
0
 42
0.0000001
 43
0.0000001
 44
0.0000000001
 40
0.0
 40
0.0
 40
0.0
 40
0.0
 40
0.001222362
 40
0.0048369518
 40
0.0108432258
 40
0.0192320467
 40
0.0430778389
 40
0.0761313692
 40
0.1180894886
 40
0.1685341793
 40
0.2269933045
 40
0.2928912154
 40
0.4444241135
 40
0.6173098967
 40
0.8049048506
 40
1.0
 40
1.0
 40
1.0
 40
1.0
 10
103.5983078471
 20
213.9198463486
 30
0.0
 10
103.5976966037
 20
213.9198426572
 30
0.0
 10
103.5984976332
 20
213.9160123381
 30
0.0
 10
103.5973745535
 20
213.9119494689
 30
0.0
 10
103.597766942
 20
213.9021795493
 30
0.0
 10
103.5973169666
 20
213.8835200681
 30
0.0
 10
103.5976027067
 20
213.8505296557
 30
0.0
 10
103.5977688079
 20
213.8012588443
 30
0.0
 10
103.5983444532
 20
213.7384628383
 30
0.0
 10
103.5991056373
 20
213.6630488512
 30
0.0
 10
103.6001291392
 20
213.5756360496
 30
0.0
 10
103.6018780081
 20
213.437688593
 30
0.0
 10
103.6046096483
 20
213.2425241101
 30
0.0
 10
103.6084942334
 20
212.9865166013
 30
0.0
 10
103.6129829437
 20
212.7087312728
 30
0.0
 10
103.6162419118
 20
212.5173909856
 30
0.0
 10
103.6179444807
 20
212.4198465384
 30
0.0
  0
SPLINE
  5
33C
100
AcDbEntity
  8
0
100
AcDbSpline
 62
7
  6
CONTINUOUS
 70
0
 71
3
 72
22
 73
18
 74
0
 42
0.0000001
 43
0.0000001
 44
0.0000000001
 40
0.0
 40
0.0
 40
0.0
 40
0.0
 40
0.1923352587
 40
0.3776463661
 40
0.5486197177
 40
0.6996282459
 40
0.7659670199
 40
0.825297729
 40
0.8769597898
 40
0.9203267744
 40
0.9547659892
 40
0.9684513142
 40
0.9797215597
 40
0.9885442008
 40
0.9948866285
 40
0.9987161519
 40
1.0
 40
1.0
 40
1.0
 40
1.0
 10
70.1144249037
 20
89.4198465812
 30
0.0
 10
70.1144249037
 20
89.5836321912
 30
0.0
 10
70.1267535414
 20
89.9053380336
 30
0.0
 10
70.177902443
 20
90.3700788466
 30
0.0
 10
70.2538152145
 20
90.795628106
 30
0.0
 10
70.3295975014
 20
91.1176508482
 30
0.0
 10
70.3915084202
 20
91.3449947116
 30
0.0
 10
70.433949467
 20
91.4899228821
 30
0.0
 10
70.4729120619
 20
91.6154758823
 30
0.0
 10
70.5071033821
 20
91.7202710483
 30
0.0
 10
70.5320437476
 20
91.7941361579
 30
0.0
 10
70.548602715
 20
91.8418457266
 30
0.0
 10
70.5579074906
 20
91.8692365841
 30
0.0
 10
70.5657995152
 20
91.8898760072
 30
0.0
 10
70.5702712584
 20
91.9064715838
 30
0.0
 10
70.5752445153
 20
91.9132576581
 30
0.0
 10
70.5749832084
 20
91.9198443009
 30
0.0
 10
70.5760764861
 20
91.9198443009
 30
0.0
  0
SPLINE
  5
33D
100
AcDbEntity
  8
0
100
AcDbSpline
 62
7
  6
CONTINUOUS
 70
0
 71
3
 72
19
 73
15
 74
0
 42
0.0000001
 43
0.0000001
 44
0.0000000001
 40
0.0
 40
0.0
 40
0.0
 40
0.0
 40
0.0048396079
 40
0.0108503677
 40
0.0192423172
 40
0.0430946018
 40
0.0761533779
 40
0.1181154394
 40
0.1685629037
 40
0.2929217019
 40
0.4444518421
 40
0.6173309912
 40
0.8049163564
 40
1.0
 40
1.0
 40
1.0
 40
1.0
 10
117.580301458
 20
142.0376973364
 30
0.0
 10
117.5819145837
 20
142.0377114047
 30
0.0
 10
117.579967941
 20
142.043818645
 30
0.0
 10
117.5812427251
 20
142.0489470979
 30
0.0
 10
117.5808767692
 20
142.0624232319
 30
0.0
 10
117.5815868403
 20
142.0836523718
 30
0.0
 10
117.5816145424
 20
142.1168646842
 30
0.0
 10
117.5818903756
 20
142.1585893132
 30
0.0
 10
117.582053838
 20
142.2308893561
 30
0.0
 10
117.5821537311
 20
142.3396389678
 30
0.0
 10
117.5820120877
 20
142.4892383848
 30
0.0
 10
117.5816590869
 20
142.6598975046
 30
0.0
 10
117.5810905113
 20
142.8450787658
 30
0.0
 10
117.580588014
 20
142.9726326242
 30
0.0
 10
117.580304307
 20
143.0376592597
 30
0.0
  0
SPLINE
  5
33E
100
AcDbEntity
  8
0
100
AcDbSpline
 62
7
  6
CONTINUOUS
 70
0
 71
3
 72
19
 73
15
 74
0
 42
0.0000001
 43
0.0000001
 44
0.0000000001
 40
0.0
 40
0.0
 40
0.0
 40
0.0
 40
0.1950836436
 40
0.3826690088
 40
0.5555481579
 40
0.7070782981
 40
0.8314370963
 40
0.8818845606
 40
0.9238466221
 40
0.9569053982
 40
0.9807576828
 40
0.9891496323
 40
0.9951603921
 40
1.0
 40
1.0
 40
1.0
 40
1.0
 10
117.580304307
 20
168.8020338282
 30
0.0
 10
117.5805880141
 20
168.8670604637
 30
0.0
 10
117.5810905113
 20
168.9946143222
 30
0.0
 10
117.5816590869
 20
169.1797955833
 30
0.0
 10
117.5820120878
 20
169.3504547031
 30
0.0
 10
117.5821537312
 20
169.5000541201
 30
0.0
 10
117.5820538381
 20
169.6088037318
 30
0.0
 10
117.5818903757
 20
169.6811037747
 30
0.0
 10
117.5816145425
 20
169.7228284037
 30
0.0
 10
117.5815868404
 20
169.7560407161
 30
0.0
 10
117.5808767692
 20
169.777269856
 30
0.0
 10
117.5812427251
 20
169.79074599
 30
0.0
 10
117.579967941
 20
169.7958744429
 30
0.0
 10
117.5819145838
 20
169.8019816832
 30
0.0
 10
117.580301458
 20
169.8019957515
 30
0.0
  0
SPLINE
  5
33F
100
AcDbEntity
  8
0
100
AcDbSpline
 62
7
  6
CONTINUOUS
 70
0
 71
3
 72
19
 73
15
 74
0
 42
0.0000001
 43
0.0000001
 44
0.0000000001
 40
0.0
 40
0.0
 40
0.0
 40
0.0
 40
0.0048412678
 40
0.0108527151
 40
0.0192452539
 40
0.0430984224
 40
0.0761577047
 40
0.1181199181
 40
0.1685672197
 40
0.2929249492
 40
0.4444534652
 40
0.6173310598
 40
0.8049156417
 40
1.0
 40
1.0
 40
1.0
 40
1.0
 10
117.5846643795
 20
159.4586365218
 30
0.0
 10
117.5862778283
 20
159.4586646662
 30
0.0
 10
117.5843039505
 20
159.4647535604
 30
0.0
 10
117.5855564055
 20
159.4698939525
 30
0.0
 10
117.585131617
 20
159.4833654448
 30
0.0
 10
117.5857489702
 20
159.5045999555
 30
0.0
 10
117.5856317286
 20
159.5378104776
 30
0.0
 10
117.5857254592
 20
159.5795353283
 30
0.0
 10
117.5855734295
 20
159.6518327649
 30
0.0
 10
117.5851988211
 20
159.7605778457
 30
0.0
 10
117.5844044978
 20
159.9101694762
 30
0.0
 10
117.58330698
 20
160.0808192504
 30
0.0
 10
117.5819305694
 20
160.2659904292
 30
0.0
 10
117.5808716548
 20
160.3935372142
 30
0.0
 10
117.5803042927
 20
160.4585603728
 30
0.0
  0
SPLINE
  5
340
100
AcDbEntity
  8
0
100
AcDbSpline
 62
7
  6
CONTINUOUS
 70
0
 71
3
 72
19
 73
15
 74
0
 42
0.0000001
 43
0.0000001
 44
0.0000000001
 40
0.0
 40
0.0
 40
0.0
 40
0.0
 40
0.1950843583
 40
0.3826689402
 40
0.5555465348
 40
0.7070750509
 40
0.8314327803
 40
0.8818800819
 40
0.9238422953
 40
0.9569015776
 40
0.9807547461
 40
0.9891472849
 40
0.9951587322
 40
1.0
 40
1.0
 40
1.0
 40
1.0
 10
117.580304291
 20
153.3811327152
 30
0.0
 10
117.5808716531
 20
153.4461558738
 30
0.0
 10
117.5819305677
 20
153.5737026587
 30
0.0
 10
117.5833069783
 20
153.7588738375
 30
0.0
 10
117.5844044962
 20
153.9295236117
 30
0.0
 10
117.5851988194
 20
154.0791152422
 30
0.0
 10
117.5855734278
 20
154.1878603231
 30
0.0
 10
117.5857254575
 20
154.2601577596
 30
0.0
 10
117.585631727
 20
154.3018826103
 30
0.0
 10
117.5857489685
 20
154.3350931324
 30
0.0
 10
117.5851316153
 20
154.3563276431
 30
0.0
 10
117.5855564038
 20
154.3697991355
 30
0.0
 10
117.5843039488
 20
154.3749395276
 30
0.0
 10
117.5862778266
 20
154.3810284217
 30
0.0
 10
117.5846643779
 20
154.3810565661
 30
0.0
  0
SPLINE
  5
341
100
AcDbEntity
  8
0
100
AcDbSpline
 62
7
  6
CONTINUOUS
 70
0
 71
3
 72
23
 73
19
 74
0
 42
0.0000001
 43
0.0000001
 44
0.0000000001
 40
0.0
 40
0.0
 40
0.0
 40
0.0
 40
0.1950931078
 40
0.3826848945
 40
0.5555679218
 40
0.6343886857
 40
0.7070998921
 40
0.7730014561
 40
0.8314588631
 40
0.8819092807
 40
0.9238669837
 40
0.9569280448
 40
0.970019225
 40
0.9807742749
 40
0.9891664018
 40
0.9951764692
 40
0.9987894049
 40
1.0
 40
1.0
 40
1.0
 40
1.0
 10
27.0406256094
 20
213.4263922811
 30
0.0
 10
26.8455480446
 20
213.4268177605
 30
0.0
 10
26.4628934643
 20
213.427571771
 30
0.0
 10
25.9073690876
 20
213.4284232001
 30
0.0
 10
25.4681077642
 20
213.4288819251
 30
0.0
 10
25.1437177324
 20
213.4290689654
 30
0.0
 10
24.9263014168
 20
213.4291166882
 30
0.0
 10
24.7292451309
 20
213.4290784125
 30
0.0
 10
24.5544534557
 20
213.4289487634
 30
0.0
 10
24.4035872642
 20
213.4287493069
 30
0.0
 10
24.2781633299
 20
213.4284280908
 30
0.0
 10
24.1899787593
 20
213.4281753245
 30
0.0
 10
24.1332030895
 20
213.4277520828
 30
0.0
 10
24.1007009418
 20
213.4277423117
 30
0.0
 10
24.0762394564
 20
213.4269077159
 30
0.0
 10
24.0566552356
 20
213.4279782209
 30
0.0
 10
24.0485901343
 20
213.4253935616
 30
0.0
 10
24.0408994295
 20
213.427602679
 30
0.0
 10
24.0408835872
 20
213.4263922811
 30
0.0
  0
SPLINE
  5
342
100
AcDbEntity
  8
0
100
AcDbSpline
 62
7
  6
CONTINUOUS
 70
0
 71
3
 72
9
 73
5
 74
0
 42
0.0000001
 43
0.0000001
 44
0.0000000001
 40
0.0
 40
0.0
 40
0.0
 40
0.0
 40
0.4794085949
 40
1.0
 40
1.0
 40
1.0
 40
1.0
 10
141.826147663
 20
133.8556018039
 30
0.0
 10
141.8268241145
 20
133.7939753203
 30
0.0
 10
141.8248495086
 20
133.6654170119
 30
0.0
 10
141.826585008
 20
133.5368594438
 30
0.0
 10
141.8259201043
 20
133.4699383098
 30
0.0
  0
SPLINE
  5
343
100
AcDbEntity
  8
0
100
AcDbSpline
 62
7
  6
CONTINUOUS
 70
0
 71
3
 72
16
 73
12
 74
0
 42
0.0000001
 43
0.0000001
 44
0.0000000001
 40
0.0
 40
0.0
 40
0.0
 40
0.0
 40
0.3816801279
 40
0.5543510217
 40
0.705706848
 40
0.8298567909
 40
0.9222341733
 40
0.9552423845
 40
0.9791116023
 40
0.9938200133
 40
1.0
 40
1.0
 40
1.0
 40
1.0
 10
156.8259209127
 20
136.169846544
 30
0.0
 10
156.8295029582
 20
136.2526381992
 30
0.0
 10
156.8329571767
 20
136.372976074
 30
0.0
 10
156.8343666318
 20
136.5261735288
 30
0.0
 10
156.8345162035
 20
136.6235231288
 30
0.0
 10
156.8345926511
 20
136.7032780909
 30
0.0
 10
156.8339503938
 20
136.7577145483
 30
0.0
 10
156.8324826646
 20
136.789741249
 30
0.0
 10
156.8308250363
 20
136.8058073591
 30
0.0
 10
156.8294859699
 20
136.8143061886
 30
0.0
 10
156.8272615722
 20
136.8198465187
 30
0.0
 10
156.8259197942
 20
136.819846544
 30
0.0
  0
SPLINE
  5
344
100
AcDbEntity
  8
0
100
AcDbSpline
 62
7
  6
CONTINUOUS
 70
0
 71
3
 72
21
 73
17
 74
0
 42
0.0000001
 43
0.0000001
 44
0.0000000001
 40
0.0
 40
0.0
 40
0.0
 40
0.0
 40
0.195081725
 40
0.3826667156
 40
0.5555463519
 40
0.7070771797
 40
0.7729756875
 40
0.8314362942
 40
0.8818836078
 40
0.9238452555
 40
0.9569033176
 40
0.9807545651
 40
0.9891458694
 40
0.9951558985
 40
0.9987744834
 40
1.0
 40
1.0
 40
1.0
 40
1.0
 10
46.3260764862
 20
213.4263913059
 30
0.0
 10
46.2285313162
 20
213.4263913059
 30
0.0
 10
46.0371895467
 20
213.4263105637
 30
0.0
 10
45.7594040938
 20
213.4259507266
 30
0.0
 10
45.5033963418
 20
213.4253668796
 30
0.0
 10
45.3082325908
 20
213.4246920622
 30
0.0
 10
45.1702860766
 20
213.4240331587
 30
0.0
 10
45.0828731166
 20
213.4235309344
 30
0.0
 10
45.0074589802
 20
213.4229758036
 30
0.0
 10
44.9446626948
 20
213.4224554283
 30
0.0
 10
44.8953914908
 20
213.421761409
 30
0.0
 10
44.8624015303
 20
213.4214716046
 30
0.0
 10
44.8437427732
 20
213.4206955273
 30
0.0
 10
44.8339719513
 20
213.4209181974
 30
0.0
 10
44.8299093481
 20
213.4197221278
 30
0.0
 10
44.8260764862
 20
213.4204592932
 30
0.0
 10
44.8260764862
 20
213.4198465079
 30
0.0
  0
SPLINE
  5
345
100
AcDbEntity
  8
0
100
AcDbSpline
 62
7
  6
CONTINUOUS
 70
0
 71
3
 72
21
 73
17
 74
0
 42
0.0000001
 43
0.0000001
 44
0.0000000001
 40
0.0
 40
0.0
 40
0.0
 40
0.0
 40
0.0012255166
 40
0.0048441015
 40
0.0108541306
 40
0.0192454349
 40
0.0430966824
 40
0.0761547445
 40
0.1181163922
 40
0.1685637058
 40
0.2270243124
 40
0.2929228203
 40
0.4444536481
 40
0.6173332844
 40
0.804918275
 40
1.0
 40
1.0
 40
1.0
 40
1.0
 10
82.3260764862
 20
213.4198465053
 30
0.0
 10
82.3260764862
 20
213.4204592907
 30
0.0
 10
82.3222436243
 20
213.4197221252
 30
0.0
 10
82.3181810211
 20
213.4209181948
 30
0.0
 10
82.3084101993
 20
213.4206955248
 30
0.0
 10
82.2897514421
 20
213.4214716021
 30
0.0
 10
82.2567614816
 20
213.4217614064
 30
0.0
 10
82.2074902776
 20
213.4224554258
 30
0.0
 10
82.1446939922
 20
213.4229758011
 30
0.0
 10
82.0692798559
 20
213.4235309319
 30
0.0
 10
81.9818668958
 20
213.4240331562
 30
0.0
 10
81.8439203817
 20
213.4246920597
 30
0.0
 10
81.6487566306
 20
213.4253668771
 30
0.0
 10
81.3927488786
 20
213.4259507241
 30
0.0
 10
81.1149634257
 20
213.4263105612
 30
0.0
 10
80.9236216562
 20
213.4263913034
 30
0.0
 10
80.8260764862
 20
213.4263913034
 30
0.0
  0
ENDSEC
  0
SECTION
  2
OBJECTS
  0
DICTIONARY
  5
C
100
AcDbDictionary
280
0
281
1
  3
ACAD_GROUP
350
D
  3
ACAD_MLINESTYLE
350
17
  3
ACAD_LAYOUT
350
1A
  3
ACAD_PLOTSETTINGS
350
19
  3
ACAD_PLOTSTYLENAME
350
E
  0
DICTIONARY
  5
D
102
{ACAD_REACTORS
330
C
102
}
100
AcDbDictionary
280
0
281
1
  0
ACDBDICTIONARYWDFLT
  5
E
102
{ACAD_REACTORS
330
C
102
}
100
AcDbDictionary
281
1
  3
Normal
350
F
100
AcDbDictionaryWithDefault
340
F
  0
DICTIONARY
  5
17
102
{ACAD_REACTORS
330
C
102
}
100
AcDbDictionary
280
0
281
1
  3
Standard
350
18
  0
DICTIONARY
  5
19
102
{ACAD_REACTORS
330
C
102
}
100
AcDbDictionary
281
1
  0
DICTIONARY
  5
1A
102
{ACAD_REACTORS
330
C
102
}
100
AcDbDictionary
281
1
  3
Model
350
346
  3
Layout1
350
347
  0
ACDBPLACEHOLDER
  5
F
102
{ACAD_REACTORS
330
E
102
}
  0
MLINESTYLE
  5
18
102
{ACAD_REACTORS
330
17
102
}
100
AcDbMlineStyle
  2
STANDARD
 70
0
  3

 62
256
 51
90.0
 52
90.0
 71
2
 49
0.5
 62
256
  6
BYLAYER
 49
-0.5
 62
256
  6
BYLAYER
  0
LAYOUT
  5
346
102
{ACAD_REACTORS
330
1A
102
}
100
AcDbPlotSettings
  1

  2
none_device
  4

  6

 40
0.0
 41
0.0
 42
0.0
 43
0.0
 44
210.0
 45
297.0
 46
0.0
 47
0.0
 48
0.0
 49
0.0
140
0.0
141
0.0
142
1.0
143
1.0
 70
1024
 72
1
 73
0
 74
0
  7

 75
0
147
1.0
148
0.0
149
0.0
100
AcDbLayout
  1
Model
 70
0
 71
0
 10
0.0
 20
0.0
 11
210.0
 21
297.0
 12
0.0
 22
0.0
 32
0.0
 14
0.0
 24
0.0
 34
0.0
 15
0.0
 25
0.0
 35
0.0
146
0.0
 13
0.0
 23
0.0
 33
0.0
 16
1.0
 26
0.0
 36
0.0
 17
0.0
 27
1.0
 37
0.0
 76
0
330
210
345
0
346
0
  0
LAYOUT
  5
347
102
{ACAD_REACTORS
330
1A
102
}
100
AcDbPlotSettings
  1

  2
none_device
  4

  6

 40
0.0
 41
0.0
 42
0.0
 43
0.0
 44
210.0
 45
297.0
 46
0.0
 47
0.0
 48
0.0
 49
0.0
140
0.0
141
0.0
142
1.0
143
1.0
 70
0
 72
1
 73
0
 74
0
  7

 75
0
147
1.0
148
0.0
149
0.0
100
AcDbLayout
  1
Layout1
 70
0
 71
1
 10
0.0
 20
0.0
 11
210.0
 21
297.0
 12
0.0
 22
0.0
 32
0.0
 14
0.0
 24
0.0
 34
0.0
 15
0.0
 25
0.0
 35
0.0
146
0.0
 13
0.0
 23
0.0
 33
0.0
 16
1.0
 26
0.0
 36
0.0
 17
0.0
 27
1.0
 37
0.0
 76
0
330
211
345
0
346
0
  0
ENDSEC
  0
EOF
