  0
SECTION
  2
HEADER
  9
$ACADVER
  1
AC1032
  9
$ACADMAINTVER
 90
      176
  9
$DWGCODEPAGE
  3
ANSI_1252
  9
$LASTSAVEDBY
  1
JBO
  9
$REQUIREDVERSIONS
160
                 0
  9
$INSBASE
 10
0.0
 20
0.0
 30
0.0
  9
$EXTMIN
 10
16.24695777893066
 20
9.839200973510742
 30
0.0
  9
$EXTMAX
 10
80.2711412666331
 20
55.89492416381836
 30
0.0
  9
$LIMMIN
 10
-0.5
 20
-0.5
  9
$LIMMAX
 10
5.0
 20
5.0
  9
$ORTHOMODE
 70
     0
  9
$REGENMODE
 70
     1
  9
$FILLMODE
 70
     1
  9
$QTEXTMODE
 70
     0
  9
$MIRRTEXT
 70
     1
  9
$LTSCALE
 40
1.0
  9
$ATTMODE
 70
     1
  9
$TEXTSIZE
 40
0.2
  9
$TRACEWID
 40
0.05
  9
$TEXTSTYLE
  7
Standard
  9
$CLAYER
  8
0
  9
$CELTYPE
  6
ByLayer
  9
$CECOLOR
 62
   256
  9
$CELTSCALE
 40
1.0
  9
$DISPSILH
 70
     0
  9
$DIMSCALE
 40
1.0
  9
$DIMASZ
 40
0.18
  9
$DIMEXO
 40
0.0625
  9
$DIMDLI
 40
0.38
  9
$DIMRND
 40
0.0
  9
$DIMDLE
 40
0.0
  9
$DIMEXE
 40
0.18
  9
$DIMTP
 40
0.0
  9
$DIMTM
 40
0.0
  9
$DIMTXT
 40
0.18
  9
$DIMCEN
 40
0.09
  9
$DIMTSZ
 40
0.0
  9
$DIMTOL
 70
     0
  9
$DIMLIM
 70
     0
  9
$DIMTIH
 70
     1
  9
$DIMTOH
 70
     1
  9
$DIMSE1
 70
     0
  9
$DIMSE2
 70
     0
  9
$DIMTAD
 70
     0
  9
$DIMZIN
 70
     0
  9
$DIMBLK
  1

  9
$DIMASO
 70
     1
  9
$DIMSHO
 70
     1
  9
$DIMPOST
  1

  9
$DIMAPOST
  1

  9
$DIMALT
 70
     0
  9
$DIMALTD
 70
     2
  9
$DIMALTF
 40
25.4
  9
$DIMLFAC
 40
1.0
  9
$DIMTOFL
 70
     0
  9
$DIMTVP
 40
0.0
  9
$DIMTIX
 70
     0
  9
$DIMSOXD
 70
     0
  9
$DIMSAH
 70
     0
  9
$DIMBLK1
  1

  9
$DIMBLK2
  1

  9
$DIMSTYLE
  2
Standard
  9
$DIMCLRD
 70
     0
  9
$DIMCLRE
 70
     0
  9
$DIMCLRT
 70
     0
  9
$DIMTFAC
 40
1.0
  9
$DIMGAP
 40
0.09
  9
$DIMJUST
 70
     0
  9
$DIMSD1
 70
     0
  9
$DIMSD2
 70
     0
  9
$DIMTOLJ
 70
     1
  9
$DIMTZIN
 70
     0
  9
$DIMALTZ
 70
     0
  9
$DIMALTTZ
 70
     0
  9
$DIMUPT
 70
     0
  9
$DIMDEC
 70
     4
  9
$DIMTDEC
 70
     4
  9
$DIMALTU
 70
     2
  9
$DIMALTTD
 70
     2
  9
$DIMTXSTY
  7
Standard
  9
$DIMAUNIT
 70
     0
  9
$DIMADEC
 70
     0
  9
$DIMALTRND
 40
0.0
  9
$DIMAZIN
 70
     0
  9
$DIMDSEP
 70
    46
  9
$DIMATFIT
 70
     3
  9
$DIMFRAC
 70
     0
  9
$DIMLDRBLK
  1

  9
$DIMLUNIT
 70
     2
  9
$DIMLWD
 70
    -2
  9
$DIMLWE
 70
    -2
  9
$DIMTMOVE
 70
     0
  9
$DIMFXL
 40
1.0
  9
$DIMFXLON
 70
     0
  9
$DIMJOGANG
 40
0.7853981633974483
  9
$DIMTFILL
 70
     0
  9
$DIMTFILLCLR
 70
     0
  9
$DIMARCSYM
 70
     0
  9
$DIMLTYPE
  6

  9
$DIMLTEX1
  6

  9
$DIMLTEX2
  6

  9
$DIMTXTDIRECTION
 70
     0
  9
$LUNITS
 70
     2
  9
$LUPREC
 70
     4
  9
$SKETCHINC
 40
0.1
  9
$FILLETRAD
 40
0.5
  9
$AUNITS
 70
     0
  9
$AUPREC
 70
     0
  9
$MENU
  1
.
  9
$ELEVATION
 40
0.0
  9
$PELEVATION
 40
0.0
  9
$THICKNESS
 40
0.0
  9
$LIMCHECK
 70
     0
  9
$CHAMFERA
 40
0.0
  9
$CHAMFERB
 40
0.0
  9
$CHAMFERC
 40
0.0
  9
$CHAMFERD
 40
0.0
  9
$SKPOLY
 70
     0
  9
$TDCREATE
 40
2459895.530856481
  9
$TDUCREATE
 40
2459895.780867106
  9
$TDUPDATE
 40
2459895.536331019
  9
$TDUUPDATE
 40
2459895.786331018
  9
$TDINDWG
 40
0.0048958449
  9
$TDUSRTIMER
 40
0.0048958449
  9
$USRTIMER
 70
     1
  9
$ANGBASE
 50
0.0
  9
$ANGDIR
 70
     0
  9
$PDMODE
 70
     0
  9
$PDSIZE
 40
0.0
  9
$PLINEWID
 40
0.0
  9
$SPLFRAME
 70
     0
  9
$SPLINETYPE
 70
     6
  9
$SPLINESEGS
 70
     8
  9
$HANDSEED
  5
37D
  9
$SURFTAB1
 70
     6
  9
$SURFTAB2
 70
     6
  9
$SURFTYPE
 70
     6
  9
$SURFU
 70
     6
  9
$SURFV
 70
     6
  9
$UCSBASE
  2

  9
$UCSNAME
  2

  9
$UCSORG
 10
0.0
 20
0.0
 30
0.0
  9
$UCSXDIR
 10
1.0
 20
0.0
 30
0.0
  9
$UCSYDIR
 10
0.0
 20
1.0
 30
0.0
  9
$UCSORTHOREF
  2

  9
$UCSORTHOVIEW
 70
     0
  9
$UCSORGTOP
 10
0.0
 20
0.0
 30
0.0
  9
$UCSORGBOTTOM
 10
0.0
 20
0.0
 30
0.0
  9
$UCSORGLEFT
 10
0.0
 20
0.0
 30
0.0
  9
$UCSORGRIGHT
 10
0.0
 20
0.0
 30
0.0
  9
$UCSORGFRONT
 10
0.0
 20
0.0
 30
0.0
  9
$UCSORGBACK
 10
0.0
 20
0.0
 30
0.0
  9
$PUCSBASE
  2

  9
$PUCSNAME
  2

  9
$PUCSORG
 10
0.0
 20
0.0
 30
0.0
  9
$PUCSXDIR
 10
1.0
 20
0.0
 30
0.0
  9
$PUCSYDIR
 10
0.0
 20
1.0
 30
0.0
  9
$PUCSORTHOREF
  2

  9
$PUCSORTHOVIEW
 70
     0
  9
$PUCSORGTOP
 10
0.0
 20
0.0
 30
0.0
  9
$PUCSORGBOTTOM
 10
0.0
 20
0.0
 30
0.0
  9
$PUCSORGLEFT
 10
0.0
 20
0.0
 30
0.0
  9
$PUCSORGRIGHT
 10
0.0
 20
0.0
 30
0.0
  9
$PUCSORGFRONT
 10
0.0
 20
0.0
 30
0.0
  9
$PUCSORGBACK
 10
0.0
 20
0.0
 30
0.0
  9
$USERI1
 70
     0
  9
$USERI2
 70
     0
  9
$USERI3
 70
     0
  9
$USERI4
 70
     0
  9
$USERI5
 70
     0
  9
$USERR1
 40
0.0
  9
$USERR2
 40
0.0
  9
$USERR3
 40
0.0
  9
$USERR4
 40
0.0
  9
$USERR5
 40
0.0
  9
$WORLDVIEW
 70
     1
  9
$SHADEDGE
 70
     3
  9
$SHADEDIF
 70
    70
  9
$TILEMODE
 70
     1
  9
$MAXACTVP
 70
    64
  9
$PINSBASE
 10
0.0
 20
0.0
 30
0.0
  9
$PLIMCHECK
 70
     0
  9
$PEXTMIN
 10
-0.5
 20
-0.5
 30
-0.5
  9
$PEXTMAX
 10
5.0
 20
5.0
 30
5.0
  9
$PLIMMIN
 10
-0.5
 20
-0.5
  9
$PLIMMAX
 10
5.0
 20
5.0
  9
$UNITMODE
 70
     0
  9
$VISRETAIN
 70
     1
  9
$PLINEGEN
 70
     0
  9
$PSLTSCALE
 70
     1
  9
$TREEDEPTH
 70
  3020
  9
$CMLSTYLE
  2
Standard
  9
$CMLJUST
 70
     0
  9
$CMLSCALE
 40
1.0
  9
$PROXYGRAPHICS
 70
     1
  9
$MEASUREMENT
 70
     0
  9
$CELWEIGHT
370
    18
  9
$ENDCAPS
280
     0
  9
$JOINSTYLE
280
     0
  9
$LWDISPLAY
290
     0
  9
$INSUNITS
 70
     1
  9
$HYPERLINKBASE
  1

  9
$STYLESHEET
  1

  9
$XEDIT
290
     1
  9
$CEPSNTYPE
380
     0
  9
$PSTYLEMODE
290
     1
  9
$FINGERPRINTGUID
  2
{43c55284-58da-4d43-988d-72191fd22328}
  9
$VERSIONGUID
  2
{BD368E14-BB42-8749-96BC-A9CBEC2DEB0D}
  9
$EXTNAMES
290
     1
  9
$PSVPSCALE
 40
0.0
  9
$OLESTARTUP
290
     0
  9
$SORTENTS
280
   127
  9
$INDEXCTL
280
     0
  9
$HIDETEXT
280
     1
  9
$XCLIPFRAME
280
     2
  9
$HALOGAP
280
     0
  9
$OBSCOLOR
 70
   257
  9
$OBSLTYPE
280
     0
  9
$INTERSECTIONDISPLAY
280
     0
  9
$INTERSECTIONCOLOR
 70
   257
  9
$DIMASSOC
280
     2
  9
$PROJECTNAME
  1

  9
$CAMERADISPLAY
290
     0
  9
$LENSLENGTH
 40
50.0
  9
$CAMERAHEIGHT
 40
0.0
  9
$STEPSPERSEC
 40
2.0
  9
$STEPSIZE
 40
6.0
  9
$3DDWFPREC
 40
2.0
  9
$PSOLWIDTH
 40
0.25
  9
$PSOLHEIGHT
 40
4.0
  9
$LOFTANG1
 40
1.570796326794896
  9
$LOFTANG2
 40
1.570796326794896
  9
$LOFTMAG1
 40
0.0
  9
$LOFTMAG2
 40
0.0
  9
$LOFTPARAM
 70
     7
  9
$LOFTNORMALS
280
     1
  9
$LATITUDE
 40
37.795
  9
$LONGITUDE
 40
-122.394
  9
$NORTHDIRECTION
 40
0.0
  9
$TIMEZONE
 70
 -8000
  9
$LIGHTGLYPHDISPLAY
280
     1
  9
$TILEMODELIGHTSYNCH
280
     1
  9
$CMATERIAL
347
44
  9
$SOLIDHIST
280
     0
  9
$SHOWHIST
280
     1
  9
$DWFFRAME
280
     2
  9
$DGNFRAME
280
     0
  9
$REALWORLDSCALE
290
     1
  9
$INTERFERECOLOR
 62
     1
  9
$INTERFEREOBJVS
345
33
  9
$INTERFEREVPVS
346
30
  9
$CSHADOW
280
     0
  9
$SHADOWPLANELOCATION
 40
0.0
  0
ENDSEC
  0
SECTION
  2
CLASSES
  0
CLASS
  1
ACDBDICTIONARYWDFLT
  2
AcDbDictionaryWithDefault
  3
ObjectDBX Classes
 90
        0
 91
        1
280
     0
281
     0
  0
CLASS
  1
VISUALSTYLE
  2
AcDbVisualStyle
  3
ObjectDBX Classes
 90
     4095
 91
       24
280
     0
281
     0
  0
CLASS
  1
MATERIAL
  2
AcDbMaterial
  3
ObjectDBX Classes
 90
     1153
 91
        3
280
     0
281
     0
  0
CLASS
  1
SCALE
  2
AcDbScale
  3
ObjectDBX Classes
 90
     1153
 91
       33
280
     0
281
     0
  0
CLASS
  1
TABLESTYLE
  2
AcDbTableStyle
  3
ObjectDBX Classes
 90
     4095
 91
        1
280
     0
281
     0
  0
CLASS
  1
MLEADERSTYLE
  2
AcDbMLeaderStyle
  3
ACDB_MLEADERSTYLE_CLASS
 90
     4095
 91
        1
280
     0
281
     0
  0
CLASS
  1
SUN
  2
AcDbSun
  3
SCENEOE
 90
     1153
 91
        1
280
     0
281
     0
  0
CLASS
  1
DICTIONARYVAR
  2
AcDbDictionaryVar
  3
ObjectDBX Classes
 90
        0
 91
       15
280
     0
281
     0
  0
CLASS
  1
CELLSTYLEMAP
  2
AcDbCellStyleMap
  3
ObjectDBX Classes
 90
     1152
 91
        2
280
     0
281
     0
  0
CLASS
  1
ACDBSECTIONVIEWSTYLE
  2
AcDbSectionViewStyle
  3
ObjectDBX Classes
 90
     1025
 91
        1
280
     0
281
     0
  0
CLASS
  1
ACDBDETAILVIEWSTYLE
  2
AcDbDetailViewStyle
  3
ObjectDBX Classes
 90
     1025
 91
        1
280
     0
281
     0
  0
CLASS
  1
SOLID_BACKGROUND
  2
AcDbSolidBackground
  3
SCENEOE
 90
     4095
 91
        1
280
     0
281
     0
  0
CLASS
  1
NPOCOLLECTION
  2
AcDbImpNonPersistentObjectsCollection
  3
ObjectDBX Classes
 90
     1153
 91
        1
280
     0
281
     0
  0
CLASS
  1
DIMASSOC
  2
AcDbDimAssoc
  3
"AcDbDimAssoc|Product Desc:     AcDim ARX App For Dimension|Company:          Autodesk, Inc.|WEB Address:      www.autodesk.com"
 90
        0
 91
        1
280
     0
281
     0
  0
ENDSEC
  0
SECTION
  2
TABLES
  0
TABLE
  2
VPORT
  5
8
102
{ACAD_XDICTIONARY
360
2FF
102
}
330
0
100
AcDbSymbolTable
 70
    16
  0
VPORT
  5
29
330
8
100
AcDbSymbolTableRecord
100
AcDbViewportTableRecord
  2
*Active
 70
     0
 10
0.0
 20
0.0
 11
1.0
 21
1.0
 12
0.0
 22
0.0
 13
0.0
 23
0.0
 14
0.5
 24
0.5
 15
0.5
 25
0.5
 16
-0.0000000000000426
 26
0.0
 36
204.3572324096835
 17
48.25904941558838
 27
32.86706256866455
 37
0.0
 40
78.86840737834967
 41
1.887039239001189
 42
50.0
 43
63.82114558515432
 44
-63.82114558515432
 50
0.0
 51
0.0
 71
     0
 72
   100
 73
     1
 74
     3
 75
     0
 76
     0
 77
     0
 78
     0
281
     0
 65
     1
110
0.0
120
0.0
130
0.0
111
1.0
121
0.0
131
0.0
112
0.0
122
1.0
132
0.0
 79
     0
146
0.0
348
2F
 60
     3
 61
     5
292
     1
282
     1
141
0.0
142
0.0
 63
   250
421
  3355443
361
6D
1001
ACAD_NAV_VCDISPLAY
1070
     3
  0
VPORT
  5
2E0
330
8
100
AcDbSymbolTableRecord
100
AcDbViewportTableRecord
  2
L1
 70
     0
 10
0.0
 20
0.0
 11
1.0
 21
1.0
 12
24.12952476139094
 22
16.43353128433227
 13
0.0
 23
0.0
 14
0.5
 24
0.5
 15
0.5
 25
0.5
 16
0.7188730927569435
 26
-0.5850486126764432
 36
0.3754192287502549
 17
0.0
 27
0.0
 37
0.0
 40
49.09808486001391
 41
0.3616588469037065
 42
50.0
 43
63.82114558515432
 44
-63.82114558515432
 50
0.0
 51
0.0
 71
     0
 72
   100
 73
     1
 74
     3
 75
     0
 76
     0
 77
     0
 78
     0
281
     0
 65
     1
110
0.0
120
0.0
130
0.0
111
1.0
121
0.0
131
0.0
112
0.0
122
1.0
132
0.0
 79
     0
146
0.0
348
2F
 60
     3
 61
     5
292
     1
282
     1
141
0.0
142
0.0
 63
   250
421
  3355443
  0
VPORT
  5
2E1
330
8
100
AcDbSymbolTableRecord
100
AcDbViewportTableRecord
  2
L2
 70
     0
 10
0.0
 20
0.0
 11
0.5
 21
1.0
 12
0.0
 22
0.0
 13
0.0
 23
0.0
 14
0.5
 24
0.5
 15
0.5
 25
0.5
 16
0.0
 26
-1.0
 36
0.0
 17
0.0
 27
0.0
 37
0.0
 40
47.41469684970237
 41
0.3744990042209753
 42
50.0
 43
24.38075823657721
 44
-24.38075823657721
 50
0.0
 51
0.0
 71
     0
 72
   100
 73
     1
 74
     3
 75
     0
 76
     0
 77
     0
 78
     0
281
     0
 65
     1
110
0.0
120
0.0
130
0.0
111
1.0
121
0.0
131
0.0
112
0.0
122
1.0
132
0.0
 79
     0
146
0.0
348
2F
 60
     3
 61
     5
292
     1
282
     1
141
0.0
142
0.0
 63
   250
421
  3355443
  0
VPORT
  5
2E2
330
8
100
AcDbSymbolTableRecord
100
AcDbViewportTableRecord
  2
L2
 70
     0
 10
0.5
 20
0.0
 11
1.0
 21
1.0
 12
0.0
 22
0.0
 13
0.0
 23
0.0
 14
0.5
 24
0.5
 15
0.5
 25
0.5
 16
1.0
 26
0.0
 36
0.0
 17
0.0
 27
0.0
 37
0.0
 40
47.41469684970237
 41
0.3744990042209753
 42
50.0
 43
24.02230675357384
 44
-24.02230675357384
 50
0.0
 51
0.0
 71
     0
 72
   100
 73
     1
 74
     3
 75
     0
 76
     0
 77
     0
 78
     0
281
     0
 65
     1
110
0.0
120
0.0
130
0.0
111
1.0
121
0.0
131
0.0
112
0.0
122
1.0
132
0.0
 79
     0
146
0.0
348
2F
 60
     3
 61
     5
292
     1
282
     1
141
0.0
142
0.0
 63
   250
421
  3355443
  0
VPORT
  5
2E3
330
8
100
AcDbSymbolTableRecord
100
AcDbViewportTableRecord
  2
L3
 70
     0
 10
0.0
 20
0.5
 11
1.0
 21
1.0
 12
0.0
 22
0.0
 13
0.0
 23
0.0
 14
0.5
 24
0.5
 15
0.5
 25
0.5
 16
0.0
 26
0.0
 36
1.0
 17
0.0
 27
0.0
 37
0.0
 40
7.754444512795275
 41
2.289881206365368
 42
50.0
 43
23.70734842485119
 44
-23.70734842485119
 50
0.0
 51
0.0
 71
     0
 72
   100
 73
     1
 74
     3
 75
     0
 76
     0
 77
     0
 78
     0
281
     0
 65
     1
110
0.0
120
0.0
130
0.0
111
1.0
121
0.0
131
0.0
112
0.0
122
1.0
132
0.0
 79
     0
146
0.0
348
2F
 60
     3
 61
     5
292
     1
282
     1
141
0.0
142
0.0
 63
   250
421
  3355443
  0
VPORT
  5
2E4
330
8
100
AcDbSymbolTableRecord
100
AcDbViewportTableRecord
  2
L3
 70
     0
 10
0.0
 20
0.0
 11
1.0
 21
0.5
 12
0.0
 22
0.0
 13
0.0
 23
0.0
 14
0.5
 24
0.5
 15
0.5
 25
0.5
 16
0.0
 26
-1.0
 36
0.0
 17
0.0
 27
0.0
 37
0.0
 40
47.41469684970237
 41
0.3744990042209753
 42
50.0
 43
24.38075823657721
 44
-24.38075823657721
 50
0.0
 51
0.0
 71
     0
 72
   100
 73
     1
 74
     3
 75
     0
 76
     0
 77
     0
 78
     0
281
     0
 65
     1
110
0.0
120
0.0
130
0.0
111
1.0
121
0.0
131
0.0
112
0.0
122
1.0
132
0.0
 79
     0
146
0.0
348
2F
 60
     3
 61
     5
292
     1
282
     1
141
0.0
142
0.0
 63
   250
421
  3355443
  0
VPORT
  5
2E5
330
8
100
AcDbSymbolTableRecord
100
AcDbViewportTableRecord
  2
L4
 70
     0
 10
0.0
 20
0.5
 11
0.5
 21
1.0
 12
0.0
 22
0.0
 13
0.0
 23
0.0
 14
0.5
 24
0.5
 15
0.5
 25
0.5
 16
0.0
 26
0.0
 36
1.0
 17
0.0
 27
0.0
 37
0.0
 40
7.754444512795275
 41
2.289881206365368
 42
50.0
 43
23.70734842485119
 44
-23.70734842485119
 50
0.0
 51
0.0
 71
     0
 72
   100
 73
     1
 74
     3
 75
     0
 76
     0
 77
     0
 78
     0
281
     0
 65
     1
110
0.0
120
0.0
130
0.0
111
1.0
121
0.0
131
0.0
112
0.0
122
1.0
132
0.0
 79
     0
146
0.0
348
2F
 60
     3
 61
     5
292
     1
282
     1
141
0.0
142
0.0
 63
   250
421
  3355443
  0
VPORT
  5
2E6
330
8
100
AcDbSymbolTableRecord
100
AcDbViewportTableRecord
  2
L4
 70
     0
 10
0.0
 20
0.0
 11
0.5
 21
0.5
 12
0.0
 22
0.0
 13
0.0
 23
0.0
 14
0.5
 24
0.5
 15
0.5
 25
0.5
 16
0.0
 26
-1.0
 36
0.0
 17
0.0
 27
0.0
 37
0.0
 40
47.41469684970237
 41
0.3744990042209753
 42
50.0
 43
24.38075823657721
 44
-24.38075823657721
 50
0.0
 51
0.0
 71
     0
 72
   100
 73
     1
 74
     3
 75
     0
 76
     0
 77
     0
 78
     0
281
     0
 65
     1
110
0.0
120
0.0
130
0.0
111
1.0
121
0.0
131
0.0
112
0.0
122
1.0
132
0.0
 79
     0
146
0.0
348
2F
 60
     3
 61
     5
292
     1
282
     1
141
0.0
142
0.0
 63
   250
421
  3355443
  0
VPORT
  5
2E7
330
8
100
AcDbSymbolTableRecord
100
AcDbViewportTableRecord
  2
L4
 70
     0
 10
0.5
 20
0.0
 11
1.0
 21
0.5
 12
0.0
 22
0.0
 13
0.0
 23
0.0
 14
0.5
 24
0.5
 15
0.5
 25
0.5
 16
1.0
 26
0.0
 36
0.0
 17
0.0
 27
0.0
 37
0.0
 40
47.41469684970237
 41
0.3744990042209753
 42
50.0
 43
24.02230675357384
 44
-24.02230675357384
 50
0.0
 51
0.0
 71
     0
 72
   100
 73
     1
 74
     3
 75
     0
 76
     0
 77
     0
 78
     0
281
     0
 65
     1
110
0.0
120
0.0
130
0.0
111
1.0
121
0.0
131
0.0
112
0.0
122
1.0
132
0.0
 79
     0
146
0.0
348
2F
 60
     3
 61
     5
292
     1
282
     1
141
0.0
142
0.0
 63
   250
421
  3355443
  0
VPORT
  5
2E8
330
8
100
AcDbSymbolTableRecord
100
AcDbViewportTableRecord
  2
L4
 70
     0
 10
0.5
 20
0.5
 11
1.0
 21
1.0
 12
0.0
 22
0.0
 13
0.0
 23
0.0
 14
0.5
 24
0.5
 15
0.5
 25
0.5
 16
0.5773502691896259
 26
-0.5773502691896259
 36
0.5773502691896259
 17
0.0
 27
0.0
 37
0.0
 40
46.52603736697462
 41
0.3816520331528849
 42
50.0
 43
24.22683867650387
 44
-24.22683867650387
 50
0.0
 51
0.0
 71
     0
 72
   100
 73
     1
 74
     3
 75
     0
 76
     0
 77
     0
 78
     0
281
     0
 65
     1
110
0.0
120
0.0
130
0.0
111
1.0
121
0.0
131
0.0
112
0.0
122
1.0
132
0.0
 79
     0
146
0.0
348
2F
 60
     3
 61
     5
292
     1
282
     1
141
0.0
142
0.0
 63
   250
421
  3355443
  0
VPORT
  5
2E9
330
8
100
AcDbSymbolTableRecord
100
AcDbViewportTableRecord
  2
L6
 70
     0
 10
0.0
 20
0.5
 11
0.3333333333333334
 21
1.0
 12
24.12952476139094
 22
16.43353128433227
 13
0.0
 23
0.0
 14
0.5
 24
0.5
 15
0.5
 25
0.5
 16
0.7188730927569435
 26
-0.5850486126764432
 36
0.3754192287502549
 17
0.0
 27
0.0
 37
0.0
 40
49.09808486001391
 41
0.3616588469037065
 42
50.0
 43
63.82114558515432
 44
-63.82114558515432
 50
0.0
 51
0.0
 71
     0
 72
   100
 73
     1
 74
     3
 75
     0
 76
     0
 77
     0
 78
     0
281
     0
 65
     1
110
0.0
120
0.0
130
0.0
111
1.0
121
0.0
131
0.0
112
0.0
122
1.0
132
0.0
 79
     0
146
0.0
348
2F
 60
     3
 61
     5
292
     1
282
     1
141
0.0
142
0.0
 63
   250
421
  3355443
  0
VPORT
  5
2EA
330
8
100
AcDbSymbolTableRecord
100
AcDbViewportTableRecord
  2
L6
 70
     0
 10
0.0
 20
0.0
 11
0.3333333333333334
 21
0.5
 12
0.0
 22
0.0
 13
0.0
 23
0.0
 14
0.5
 24
0.5
 15
0.5
 25
0.5
 16
-1.0
 26
0.0
 36
0.0
 17
0.0
 27
0.0
 37
0.0
 40
47.41469684970237
 41
0.3744990042209753
 42
50.0
 43
24.02230675357384
 44
-24.02230675357384
 50
0.0
 51
0.0
 71
     0
 72
   100
 73
     1
 74
     3
 75
     0
 76
     0
 77
     0
 78
     0
281
     0
 65
     1
110
0.0
120
0.0
130
0.0
111
1.0
121
0.0
131
0.0
112
0.0
122
1.0
132
0.0
 79
     0
146
0.0
348
2F
 60
     3
 61
     5
292
     1
282
     1
141
0.0
142
0.0
 63
   250
421
  3355443
  0
VPORT
  5
2EB
330
8
100
AcDbSymbolTableRecord
100
AcDbViewportTableRecord
  2
L6
 70
     0
 10
0.3333333333333334
 20
0.5
 11
0.6666666666666666
 21
1.0
 12
0.0
 22
0.0
 13
0.0
 23
0.0
 14
0.5
 24
0.5
 15
0.5
 25
0.5
 16
0.0
 26
0.0
 36
1.0
 17
0.0
 27
0.0
 37
0.0
 40
7.754444512795275
 41
2.289881206365368
 42
50.0
 43
23.70734842485119
 44
-23.70734842485119
 50
0.0
 51
0.0
 71
     0
 72
   100
 73
     1
 74
     3
 75
     0
 76
     0
 77
     0
 78
     0
281
     0
 65
     1
110
0.0
120
0.0
130
0.0
111
1.0
121
0.0
131
0.0
112
0.0
122
1.0
132
0.0
 79
     0
146
0.0
348
2F
 60
     3
 61
     5
292
     1
282
     1
141
0.0
142
0.0
 63
   250
421
  3355443
  0
VPORT
  5
2EC
330
8
100
AcDbSymbolTableRecord
100
AcDbViewportTableRecord
  2
L6
 70
     0
 10
0.3333333333333334
 20
0.0
 11
0.6666666666666666
 21
0.5
 12
0.0
 22
0.0
 13
0.0
 23
0.0
 14
0.5
 24
0.5
 15
0.5
 25
0.5
 16
0.0
 26
-1.0
 36
0.0
 17
0.0
 27
0.0
 37
0.0
 40
47.41469684970237
 41
0.3744990042209753
 42
50.0
 43
24.38075823657721
 44
-24.38075823657721
 50
0.0
 51
0.0
 71
     0
 72
   100
 73
     1
 74
     3
 75
     0
 76
     0
 77
     0
 78
     0
281
     0
 65
     1
110
0.0
120
0.0
130
0.0
111
1.0
121
0.0
131
0.0
112
0.0
122
1.0
132
0.0
 79
     0
146
0.0
348
2F
 60
     3
 61
     5
292
     1
282
     1
141
0.0
142
0.0
 63
   250
421
  3355443
  0
VPORT
  5
2ED
330
8
100
AcDbSymbolTableRecord
100
AcDbViewportTableRecord
  2
L6
 70
     0
 10
0.6666666666666666
 20
0.5
 11
1.0
 21
1.0
 12
0.0
 22
0.0
 13
0.0
 23
0.0
 14
0.5
 24
0.5
 15
0.5
 25
0.5
 16
0.5773502691896259
 26
-0.5773502691896259
 36
0.5773502691896259
 17
0.0
 27
0.0
 37
0.0
 40
46.52603736697462
 41
0.3816520331528849
 42
50.0
 43
24.22683867650387
 44
-24.22683867650387
 50
0.0
 51
0.0
 71
     0
 72
   100
 73
     1
 74
     3
 75
     0
 76
     0
 77
     0
 78
     0
281
     0
 65
     1
110
0.0
120
0.0
130
0.0
111
1.0
121
0.0
131
0.0
112
0.0
122
1.0
132
0.0
 79
     0
146
0.0
348
2F
 60
     3
 61
     5
292
     1
282
     1
141
0.0
142
0.0
 63
   250
421
  3355443
  0
VPORT
  5
2EE
330
8
100
AcDbSymbolTableRecord
100
AcDbViewportTableRecord
  2
L6
 70
     0
 10
0.6666666666666666
 20
0.0
 11
1.0
 21
0.5
 12
0.0
 22
0.0
 13
0.0
 23
0.0
 14
0.5
 24
0.5
 15
0.5
 25
0.5
 16
1.0
 26
0.0
 36
0.0
 17
0.0
 27
0.0
 37
0.0
 40
47.41469684970237
 41
0.3744990042209753
 42
50.0
 43
24.02230675357384
 44
-24.02230675357384
 50
0.0
 51
0.0
 71
     0
 72
   100
 73
     1
 74
     3
 75
     0
 76
     0
 77
     0
 78
     0
281
     0
 65
     1
110
0.0
120
0.0
130
0.0
111
1.0
121
0.0
131
0.0
112
0.0
122
1.0
132
0.0
 79
     0
146
0.0
348
2F
 60
     3
 61
     5
292
     1
282
     1
141
0.0
142
0.0
 63
   250
421
  3355443
  0
ENDTAB
  0
TABLE
  2
LTYPE
  5
5
330
0
100
AcDbSymbolTable
 70
    10
  0
LTYPE
  5
14
330
5
100
AcDbSymbolTableRecord
100
AcDbLinetypeTableRecord
  2
ByBlock
 70
     0
  3

 72
    65
 73
     0
 40
0.0
  0
LTYPE
  5
15
330
5
100
AcDbSymbolTableRecord
100
AcDbLinetypeTableRecord
  2
ByLayer
 70
     0
  3

 72
    65
 73
     0
 40
0.0
  0
LTYPE
  5
16
330
5
100
AcDbSymbolTableRecord
100
AcDbLinetypeTableRecord
  2
Continuous
 70
     0
  3
Solid line
 72
    65
 73
     0
 40
0.0
  0
LTYPE
  5
6E
330
5
100
AcDbSymbolTableRecord
100
AcDbLinetypeTableRecord
  2
ACAD_ISO04W100
 70
     0
  3
ISO long-dash dot ____ . ____ . ____ . ____ . _
 72
    65
 73
     4
 40
1.181102362204724
 49
0.9448818897637794
 74
     4
 75
     0
340
0
 46
0.0
 50
0.0
 44
0.0
 45
0.0
 49
-0.1181102362204724
 74
     4
 75
     0
340
0
 46
0.0
 50
0.0
 44
0.0
 45
0.0
 49
0.0
 74
     4
 75
     0
340
0
 46
0.0
 50
0.0
 44
0.0
 45
0.0
 49
-0.1181102362204724
 74
     4
 75
     0
340
0
 46
0.0
 50
0.0
 44
0.0
 45
0.0
  0
LTYPE
  5
6F
330
5
100
AcDbSymbolTableRecord
100
AcDbLinetypeTableRecord
  2
ACAD_ISO05W100
 70
     0
  3
ISO long-dash double-dot ____ .. ____ .. ____ . 
 72
    65
 73
     6
 40
1.299212598425196
 49
0.9448818897637794
 74
     4
 75
     0
340
0
 46
0.0
 50
0.0
 44
0.0
 45
0.0
 49
-0.1181102362204724
 74
     4
 75
     0
340
0
 46
0.0
 50
0.0
 44
0.0
 45
0.0
 49
0.0
 74
     4
 75
     0
340
0
 46
0.0
 50
0.0
 44
0.0
 45
0.0
 49
-0.1181102362204724
 74
     4
 75
     0
340
0
 46
0.0
 50
0.0
 44
0.0
 45
0.0
 49
0.0
 74
     4
 75
     0
340
0
 46
0.0
 50
0.0
 44
0.0
 45
0.0
 49
-0.1181102362204724
 74
     4
 75
     0
340
0
 46
0.0
 50
0.0
 44
0.0
 45
0.0
  0
LTYPE
  5
70
330
5
100
AcDbSymbolTableRecord
100
AcDbLinetypeTableRecord
  2
ACAD_ISO06W100
 70
     0
  3
ISO long-dash triple-dot ____ ... ____ ... ____
 72
    65
 73
     8
 40
1.417322834645669
 49
0.9448818897637794
 74
     4
 75
     0
340
0
 46
0.0
 50
0.0
 44
0.0
 45
0.0
 49
-0.1181102362204724
 74
     4
 75
     0
340
0
 46
0.0
 50
0.0
 44
0.0
 45
0.0
 49
0.0
 74
     4
 75
     0
340
0
 46
0.0
 50
0.0
 44
0.0
 45
0.0
 49
-0.1181102362204724
 74
     4
 75
     0
340
0
 46
0.0
 50
0.0
 44
0.0
 45
0.0
 49
0.0
 74
     4
 75
     0
340
0
 46
0.0
 50
0.0
 44
0.0
 45
0.0
 49
-0.1181102362204724
 74
     4
 75
     0
340
0
 46
0.0
 50
0.0
 44
0.0
 45
0.0
 49
0.0
 74
     4
 75
     0
340
0
 46
0.0
 50
0.0
 44
0.0
 45
0.0
 49
-0.1181102362204724
 74
     4
 75
     0
340
0
 46
0.0
 50
0.0
 44
0.0
 45
0.0
  0
LTYPE
  5
71
330
5
100
AcDbSymbolTableRecord
100
AcDbLinetypeTableRecord
  2
ACAD_ISO09W100
 70
     0
  3
ISO long-dash double-short-dash ____ __ __ ____
 72
    65
 73
     6
 40
1.771653543307086
 49
0.9448818897637794
 74
     4
 75
     0
340
0
 46
0.0
 50
0.0
 44
0.0
 45
0.0
 49
-0.1181102362204724
 74
     4
 75
     0
340
0
 46
0.0
 50
0.0
 44
0.0
 45
0.0
 49
0.2362204724409449
 74
     4
 75
     0
340
0
 46
0.0
 50
0.0
 44
0.0
 45
0.0
 49
-0.1181102362204724
 74
     4
 75
     0
340
0
 46
0.0
 50
0.0
 44
0.0
 45
0.0
 49
0.2362204724409449
 74
     4
 75
     0
340
0
 46
0.0
 50
0.0
 44
0.0
 45
0.0
 49
-0.1181102362204724
 74
     4
 75
     0
340
0
 46
0.0
 50
0.0
 44
0.0
 45
0.0
  0
LTYPE
  5
72
330
5
100
AcDbSymbolTableRecord
100
AcDbLinetypeTableRecord
  2
CENTER
 70
     0
  3
____ _ ____ _ ____ _ ____
 72
    65
 73
     4
 40
1.866141732283464
 49
0.8661417322834646
 74
     4
 75
     0
340
0
 46
0.0
 50
0.0
 44
0.0
 45
0.0
 49
-0.3346456692913386
 74
     4
 75
     0
340
0
 46
0.0
 50
0.0
 44
0.0
 45
0.0
 49
0.3346456692913386
 74
     4
 75
     0
340
0
 46
0.0
 50
0.0
 44
0.0
 45
0.0
 49
-0.3346456692913386
 74
     4
 75
     0
340
0
 46
0.0
 50
0.0
 44
0.0
 45
0.0
  0
LTYPE
  5
73
330
5
100
AcDbSymbolTableRecord
100
AcDbLinetypeTableRecord
  2
DASHDOT
 70
     0
  3
_._._._._._._._._._._._._._._._.
 72
    65
 73
     4
 40
2.755905511811023
 49
1.220472440944881
 74
     4
 75
     0
340
0
 46
0.0
 50
0.0
 44
0.0
 45
0.0
 49
-0.5118110236220473
 74
     4
 75
     0
340
0
 46
0.0
 50
0.0
 44
0.0
 45
0.0
 49
0.5118110236220473
 74
     4
 75
     0
340
0
 46
0.0
 50
0.0
 44
0.0
 45
0.0
 49
-0.5118110236220473
 74
     4
 75
     0
340
0
 46
0.0
 50
0.0
 44
0.0
 45
0.0
  0
LTYPE
  5
74
330
5
100
AcDbSymbolTableRecord
100
AcDbLinetypeTableRecord
  2
DASHED
 70
     0
  3
__ __ __ __ __ __ __ __ __
 72
    65
 73
     2
 40
1.01259842519685
 49
0.5062992125984252
 74
     4
 75
     0
340
0
 46
0.0
 50
0.0
 44
0.0
 45
0.0
 49
-0.5062992125984252
 74
     4
 75
     0
340
0
 46
0.0
 50
0.0
 44
0.0
 45
0.0
  0
LTYPE
  5
75
330
5
100
AcDbSymbolTableRecord
100
AcDbLinetypeTableRecord
  2
DOT
 70
     0
  3
.........................
 72
    65
 73
     2
 40
0.3937007874015748
 49
0.0
 74
     4
 75
     0
340
0
 46
0.0
 50
0.0
 44
0.0
 45
0.0
 49
-0.3937007874015748
 74
     4
 75
     0
340
0
 46
0.0
 50
0.0
 44
0.0
 45
0.0
  0
LTYPE
  5
76
330
5
100
AcDbSymbolTableRecord
100
AcDbLinetypeTableRecord
  2
PHANTOM
 70
     0
  3
____ _ _ ____ _ _ _____ _ _ ____
 72
    65
 73
     6
 40
1.988188976377952
 49
0.7086614173228347
 74
     4
 75
     0
340
0
 46
0.0
 50
0.0
 44
0.0
 45
0.0
 49
-0.2559055118110236
 74
     4
 75
     0
340
0
 46
0.0
 50
0.0
 44
0.0
 45
0.0
 49
0.2559055118110236
 74
     4
 75
     0
340
0
 46
0.0
 50
0.0
 44
0.0
 45
0.0
 49
-0.2559055118110236
 74
     4
 75
     0
340
0
 46
0.0
 50
0.0
 44
0.0
 45
0.0
 49
0.2559055118110236
 74
     4
 75
     0
340
0
 46
0.0
 50
0.0
 44
0.0
 45
0.0
 49
-0.2559055118110236
 74
     4
 75
     0
340
0
 46
0.0
 50
0.0
 44
0.0
 45
0.0
  0
ENDTAB
  0
TABLE
  2
LAYER
  5
2
330
0
100
AcDbSymbolTable
 70
     3
  0
LAYER
  5
10
102
{ACAD_XDICTIONARY
360
36C
102
}
330
2
100
AcDbSymbolTableRecord
100
AcDbLayerTableRecord
  2
0
 70
     0
 62
     7
  6
Continuous
370
    -3
390
F
347
46
348
0
  0
LAYER
  5
78
102
{ACAD_XDICTIONARY
360
36E
102
}
330
2
100
AcDbSymbolTableRecord
100
AcDbLayerTableRecord
  2
1
 70
     0
 62
     7
420
 16777215
  6
Continuous
370
    -3
390
F
347
46
348
0
  0
LAYER
  5
352
330
2
100
AcDbSymbolTableRecord
100
AcDbLayerTableRecord
  2
Defpoints
 70
     0
 62
     7
  6
Continuous
290
     0
370
    -3
390
F
347
46
348
0
  0
ENDTAB
  0
TABLE
  2
STYLE
  5
3
330
0
100
AcDbSymbolTable
 70
     1
  0
STYLE
  5
11
330
3
100
AcDbSymbolTableRecord
100
AcDbTextStyleTableRecord
  2
Standard
 70
     0
 40
0.0
 41
1.0
 50
0.0
 71
     0
 42
0.2
  3
txt
  4

  0
ENDTAB
  0
TABLE
  2
VIEW
  5
6
330
0
100
AcDbSymbolTable
 70
     8
  0
VIEW
  5
2D8
330
6
100
AcDbSymbolTableRecord
100
AcDbViewTableRecord
  2
Top
 70
     0
 40
7.754444512795275
 10
0.0
 20
0.0
 41
11.38121309055118
 11
0.0
 21
0.0
 31
1.0
 12
0.0
 22
0.0
 32
0.0
 42
50.0
 43
23.70734842485119
 44
-23.70734842485119
 50
0.0
 71
     0
281
     0
 72
     0
 73
     0
348
2F
  0
VIEW
  5
2D9
330
6
100
AcDbSymbolTableRecord
100
AcDbViewTableRecord
  2
Front
 70
     0
 40
47.41469684970237
 10
0.0
 20
0.0
 41
11.38121309055118
 11
0.0
 21
-1.0
 31
0.0
 12
0.0
 22
0.0
 32
0.0
 42
50.0
 43
24.38075823657721
 44
-24.38075823657721
 50
0.0
 71
     0
281
     0
 72
     0
 73
     0
348
2F
  0
VIEW
  5
2DA
330
6
100
AcDbSymbolTableRecord
100
AcDbViewTableRecord
  2
Right
 70
     0
 40
47.41469684970237
 10
0.0
 20
0.0
 41
7.754444512795275
 11
1.0
 21
0.0
 31
0.0
 12
0.0
 22
0.0
 32
0.0
 42
50.0
 43
24.02230675357384
 44
-24.02230675357384
 50
0.0
 71
     0
281
     0
 72
     0
 73
     0
348
2F
  0
VIEW
  5
2DB
330
6
100
AcDbSymbolTableRecord
100
AcDbViewTableRecord
  2
Back
 70
     0
 40
47.41469684970237
 10
0.0
 20
0.0
 41
11.38121309055118
 11
0.0
 21
1.0
 31
0.0
 12
0.0
 22
0.0
 32
0.0
 42
50.0
 43
24.38075823657721
 44
-24.38075823657721
 50
0.0
 71
     0
281
     0
 72
     0
 73
     0
348
2F
  0
VIEW
  5
2DC
330
6
100
AcDbSymbolTableRecord
100
AcDbViewTableRecord
  2
Bottom
 70
     0
 40
7.754444512795275
 10
0.0
 20
0.0
 41
11.38121309055118
 11
0.0
 21
0.0
 31
-1.0
 12
0.0
 22
0.0
 32
0.0
 42
50.0
 43
23.70734842485119
 44
-23.70734842485119
 50
180.0
 71
     0
281
     0
 72
     0
 73
     0
348
2F
  0
VIEW
  5
2DD
330
6
100
AcDbSymbolTableRecord
100
AcDbViewTableRecord
  2
Left
 70
     0
 40
47.41469684970237
 10
0.0
 20
0.0
 41
7.754444512795275
 11
-1.0
 21
0.0
 31
0.0
 12
0.0
 22
0.0
 32
0.0
 42
50.0
 43
24.02230675357384
 44
-24.02230675357384
 50
0.0
 71
     0
281
     0
 72
     0
 73
     0
348
2F
  0
VIEW
  5
2DE
330
6
100
AcDbSymbolTableRecord
100
AcDbViewTableRecord
  2
Isometric
 70
     0
 40
46.52603736697462
 10
0.0
 20
0.0
 41
13.5309532537902
 11
0.5773502691896259
 21
-0.5773502691896259
 31
0.5773502691896259
 12
0.0
 22
0.0
 32
0.0
 42
50.0
 43
24.22683867650387
 44
-24.22683867650387
 50
0.0
 71
     0
281
     0
 72
     0
 73
     0
348
2F
  0
VIEW
  5
2DF
330
6
100
AcDbSymbolTableRecord
100
AcDbViewTableRecord
  2
Trimetric
 70
     0
 40
49.09808486001391
 10
24.12952476139094
 20
16.43353128433227
 41
13.19842147014417
 11
0.0
 21
0.0
 31
1.0
 12
0.0
 22
0.0
 32
0.0
 42
50.0
 43
63.82114558515432
 44
-63.82114558515432
 50
0.0
 71
     0
281
     0
 72
     0
 73
     0
348
2F
  0
ENDTAB
  0
TABLE
  2
UCS
  5
7
330
0
100
AcDbSymbolTable
 70
     0
  0
ENDTAB
  0
TABLE
  2
APPID
  5
9
330
0
100
AcDbSymbolTable
 70
     3
  0
APPID
  5
12
330
9
100
AcDbSymbolTableRecord
100
AcDbRegAppTableRecord
  2
ACAD
 70
     0
  0
APPID
  5
33E
330
9
100
AcDbSymbolTableRecord
100
AcDbRegAppTableRecord
  2
ACAD_MLEADERVER
 70
     0
  0
APPID
  5
370
330
9
100
AcDbSymbolTableRecord
100
AcDbRegAppTableRecord
  2
ACAD_NAV_VCDISPLAY
 70
     0
  0
ENDTAB
  0
TABLE
  2
DIMSTYLE
  5
A
330
0
100
AcDbSymbolTable
 70
     1
100
AcDbDimStyleTable
 71
     1
340
27
  0
DIMSTYLE
105
27
330
A
100
AcDbSymbolTableRecord
100
AcDbDimStyleTableRecord
  2
Standard
 70
     0
340
11
  0
ENDTAB
  0
TABLE
  2
BLOCK_RECORD
  5
1
330
0
100
AcDbSymbolTable
 70
     2
  0
BLOCK_RECORD
  5
1F
330
1
100
AcDbSymbolTableRecord
100
AcDbBlockTableRecord
  2
*Model_Space
340
22
 70
     0
280
     1
281
     0
  0
BLOCK_RECORD
  5
1B
330
1
100
AcDbSymbolTableRecord
100
AcDbBlockTableRecord
  2
*Paper_Space
340
1E
 70
     0
280
     1
281
     0
  0
BLOCK_RECORD
  5
23
330
1
100
AcDbSymbolTableRecord
100
AcDbBlockTableRecord
  2
*Paper_Space0
340
26
 70
     0
280
     1
281
     0
  0
BLOCK_RECORD
  5
353
330
1
100
AcDbSymbolTableRecord
100
AcDbBlockTableRecord
  2
*D1
340
0
 70
     0
280
     1
281
     0
  0
ENDTAB
  0
ENDSEC
  0
SECTION
  2
BLOCKS
  0
BLOCK
  5
20
330
1F
100
AcDbEntity
  8
0
100
AcDbBlockBegin
  2
*Model_Space
 70
     0
 10
0.0
 20
0.0
 30
0.0
  3
*Model_Space
  1

  0
ENDBLK
  5
21
330
1F
100
AcDbEntity
  8
0
100
AcDbBlockEnd
  0
BLOCK
  5
1C
330
1B
100
AcDbEntity
 67
     1
  8
0
100
AcDbBlockBegin
  2
*Paper_Space
 70
     0
 10
0.0
 20
0.0
 30
0.0
  3
*Paper_Space
  1

  0
ENDBLK
  5
1D
330
1B
100
AcDbEntity
 67
     1
  8
0
100
AcDbBlockEnd
  0
BLOCK
  5
24
330
23
100
AcDbEntity
 67
     1
  8
0
100
AcDbBlockBegin
  2
*Paper_Space0
 70
     0
 10
0.0
 20
0.0
 30
0.0
  3
*Paper_Space0
  1

  0
ENDBLK
  5
25
330
23
100
AcDbEntity
 67
     1
  8
0
100
AcDbBlockEnd
  0
BLOCK
  5
354
330
353
100
AcDbEntity
  8
0
370
    18
100
AcDbBlockBegin
  2
*D1
 70
     1
 10
0.0
 20
0.0
 30
0.0
  3
*D1
  1

  0
LINE
  5
361
330
353
100
AcDbEntity
  8
0
 62
     0
440
 16777216
370
    -2
100
AcDbLine
 10
17.13829142910482
 20
48.97953894642617
 30
0.0
 11
21.35861146882883
 21
48.97953894642617
 31
0.0
  0
LINE
  5
362
330
353
100
AcDbEntity
  8
0
 62
     0
440
 16777216
370
    -2
100
AcDbLine
 10
17.13829142910481
 20
17.38903199658558
 30
0.0
 11
21.35861146882884
 21
17.38903199658558
 31
0.0
  0
LINE
  5
363
330
353
100
AcDbEntity
  8
0
 62
     0
440
 16777216
370
    -2
100
AcDbLine
 10
21.17861146882883
 20
48.79953894642618
 30
0.0
 11
21.17861146882884
 21
33.36428547150588
 31
0.0
  0
LINE
  5
364
330
353
100
AcDbEntity
  8
0
 62
     0
440
 16777216
370
    -2
100
AcDbLine
 10
21.17861146882884
 20
17.56903199658558
 30
0.0
 11
21.17861146882884
 21
33.00428547150588
 31
0.0
  0
SOLID
  5
365
330
353
100
AcDbEntity
  8
0
 62
     0
440
 16777216
370
    18
100
AcDbTrace
 10
21.14861146882883
 20
48.79953894642618
 30
0.0
 11
21.20861146882883
 21
48.79953894642618
 31
0.0
 12
21.17861146882883
 22
48.97953894642617
 32
0.0
 13
21.17861146882883
 23
48.97953894642617
 33
0.0
  0
SOLID
  5
366
330
353
100
AcDbEntity
  8
0
 62
     0
440
 16777216
370
    18
100
AcDbTrace
 10
21.14861146882883
 20
17.56903199658558
 30
0.0
 11
21.20861146882884
 21
17.56903199658558
 31
0.0
 12
21.17861146882884
 22
17.38903199658558
 32
0.0
 13
21.17861146882884
 23
17.38903199658558
 33
0.0
  0
MTEXT
  5
367
330
353
100
AcDbEntity
  8
0
 62
     0
440
 16777216
370
    18
100
AcDbMText
 10
21.17861146882884
 20
33.18428547150586
 30
0.0
 40
0.18
 41
0.0
 46
0.0
 71
     5
 72
     1
  1
\A1;31.5905
 73
     1
 44
1.0
  0
POINT
  5
368
330
353
100
AcDbEntity
  8
Defpoints
 62
     0
440
 16777216
370
    18
100
AcDbPoint
 10
17.07579142910482
 20
48.97953894642617
 30
0.0
  0
POINT
  5
369
330
353
100
AcDbEntity
  8
Defpoints
 62
     0
440
 16777216
370
    18
100
AcDbPoint
 10
17.07579142910481
 20
17.38903199658558
 30
0.0
  0
POINT
  5
36A
330
353
100
AcDbEntity
  8
Defpoints
 62
     0
440
 16777216
370
    18
100
AcDbPoint
 10
21.17861146882884
 20
17.38903199658558
 30
0.0
  0
ENDBLK
  5
355
330
353
100
AcDbEntity
  8
0
370
    18
100
AcDbBlockEnd
  0
ENDSEC
  0
SECTION
  2
ENTITIES
  0
LINE
  5
77
330
1F
100
AcDbEntity
  8
1
  6
Continuous
 62
    18
370
    18
100
AcDbLine
 10
37.09350967407227
 20
48.97953796386719
 30
0.0
 11
37.09350967407227
 21
17.3890323638916
 31
0.0
  0
LINE
  5
79
330
1F
100
AcDbEntity
  8
1
  6
Continuous
 62
    18
370
    18
100
AcDbLine
 10
37.09350967407227
 20
17.3890323638916
 30
0.0
 11
36.11516189575195
 21
17.3890323638916
 31
0.0
  0
LINE
  5
7A
330
1F
100
AcDbEntity
  8
1
  6
Continuous
 62
    18
370
    18
100
AcDbLine
 10
35.91831588745117
 20
17.58588218688965
 30
0.0
 11
35.91831588745117
 21
48.78268814086914
 31
0.0
  0
LINE
  5
7B
330
1F
100
AcDbEntity
  8
1
  6
Continuous
 62
    18
370
    18
100
AcDbLine
 10
36.11516189575195
 20
48.97953796386719
 30
0.0
 11
37.09350967407227
 21
48.97953796386719
 31
0.0
  0
LINE
  5
7C
330
1F
100
AcDbEntity
  8
1
  6
Continuous
 62
    18
370
    18
100
AcDbLine
 10
37.2194938659668
 20
48.97953796386719
 30
0.0
 11
37.2194938659668
 21
17.3890323638916
 31
0.0
  0
LINE
  5
7D
330
1F
100
AcDbEntity
  8
1
  6
Continuous
 62
    18
370
    18
100
AcDbLine
 10
29.94547843933105
 20
17.3890323638916
 30
0.0
 11
29.94547843933105
 21
48.97953796386719
 31
0.0
  0
LINE
  5
7E
330
1F
100
AcDbEntity
  8
1
  6
Continuous
 62
    18
370
    18
100
AcDbLine
 10
29.94547843933105
 20
48.97953796386719
 30
0.0
 11
30.92382621765137
 21
48.97953796386719
 31
0.0
  0
LINE
  5
7F
330
1F
100
AcDbEntity
  8
1
  6
Continuous
 62
    18
370
    18
100
AcDbLine
 10
31.12067413330078
 20
48.78268814086914
 30
0.0
 11
31.12067413330078
 21
17.58588218688965
 31
0.0
  0
LINE
  5
80
330
1F
100
AcDbEntity
  8
1
  6
Continuous
 62
    18
370
    18
100
AcDbLine
 10
30.92382621765137
 20
17.3890323638916
 30
0.0
 11
29.94547843933105
 21
17.3890323638916
 31
0.0
  0
LINE
  5
81
330
1F
100
AcDbEntity
  8
1
  6
Continuous
 62
    18
370
    18
100
AcDbLine
 10
29.81949234008789
 20
17.3890323638916
 30
0.0
 11
29.81949234008789
 21
48.97953796386719
 31
0.0
  0
LINE
  5
82
330
1F
100
AcDbEntity
  8
1
  6
Continuous
 62
    18
370
    18
100
AcDbLine
 10
16.9498062133789
 20
17.3890323638916
 30
0.0
 11
16.9498062133789
 21
48.97953796386719
 31
0.0
  0
LINE
  5
83
330
1F
100
AcDbEntity
  8
1
  6
Continuous
 62
    18
370
    18
100
AcDbLine
 10
17.07579231262207
 20
17.3890323638916
 30
0.0
 11
17.07579231262207
 21
48.97953796386719
 31
0.0
  0
LINE
  5
84
330
1F
100
AcDbEntity
  8
1
  6
Continuous
 62
    18
370
    18
100
AcDbLine
 10
16.9498062133789
 20
17.3890323638916
 30
0.0
 11
16.44380950927734
 21
17.3890323638916
 31
0.0
  0
LINE
  5
85
330
1F
100
AcDbEntity
  8
1
  6
Continuous
 62
    18
370
    18
100
AcDbLine
 10
16.24695777893066
 20
17.58588218688965
 30
0.0
 11
16.24695777893066
 21
48.78268814086914
 31
0.0
  0
LINE
  5
86
330
1F
100
AcDbEntity
  8
1
  6
Continuous
 62
    18
370
    18
100
AcDbLine
 10
16.44380950927734
 20
48.97953796386719
 30
0.0
 11
16.9498062133789
 21
48.97953796386719
 31
0.0
  0
LINE
  5
87
330
1F
100
AcDbEntity
  8
1
  6
Continuous
 62
    18
370
    18
100
AcDbLine
 10
16.70074653625488
 20
30.48546600341797
 30
0.0
 11
16.70074653625488
 21
30.63113594055176
 31
0.0
  0
LINE
  5
88
330
1F
100
AcDbEntity
  8
1
  6
Continuous
 62
    18
370
    18
100
AcDbLine
 10
16.42515563964844
 20
30.63113594055176
 30
0.0
 11
16.42515563964844
 21
30.48546600341797
 31
0.0
  0
LINE
  5
89
330
1F
100
AcDbEntity
  8
1
  6
Continuous
 62
    18
370
    18
100
AcDbLine
 10
16.42515563964844
 20
48.13190078735352
 30
0.0
 11
16.42515563964844
 21
47.98623275756836
 31
0.0
  0
LINE
  5
8A
330
1F
100
AcDbEntity
  8
1
  6
Continuous
 62
    18
370
    18
100
AcDbLine
 10
16.70074653625488
 20
47.98623275756836
 30
0.0
 11
16.70074653625488
 21
48.13190078735352
 31
0.0
  0
LINE
  5
8B
330
1F
100
AcDbEntity
  8
1
  6
Continuous
 62
    18
370
    18
100
AcDbLine
 10
16.70074653625488
 20
18.23666954040527
 30
0.0
 11
16.70074653625488
 21
18.38233947753906
 31
0.0
  0
LINE
  5
8C
330
1F
100
AcDbEntity
  8
1
  6
Continuous
 62
    18
370
    18
100
AcDbLine
 10
16.42515563964844
 20
35.88310241699219
 30
0.0
 11
16.42515563964844
 21
35.73743438720703
 31
0.0
  0
LINE
  5
8D
330
1F
100
AcDbEntity
  8
1
  6
Continuous
 62
    18
370
    18
100
AcDbLine
 10
16.70074653625488
 20
35.73743438720703
 30
0.0
 11
16.70074653625488
 21
35.88310241699219
 31
0.0
  0
LINE
  5
8E
330
1F
100
AcDbEntity
  8
1
  6
Continuous
 62
    18
370
    18
100
AcDbLine
 10
16.42515563964844
 20
18.38233947753906
 30
0.0
 11
16.42515563964844
 21
18.23666954040527
 31
0.0
  0
LINE
  5
8F
330
1F
100
AcDbEntity
  8
1
  6
Continuous
 62
    18
370
    18
100
AcDbLine
 10
37.10138320922852
 20
55.19207763671875
 30
0.0
 11
37.2194938659668
 21
55.19207763671875
 31
0.0
  0
LINE
  5
90
330
1F
100
AcDbEntity
  8
1
  6
Continuous
 62
    18
370
    18
100
AcDbLine
 10
37.10138320922852
 20
55.19207763671875
 30
0.0
 11
37.10138320922852
 21
55.69807434082031
 31
0.0
  0
LINE
  5
91
330
1F
100
AcDbEntity
  8
1
  6
Continuous
 62
    18
370
    18
100
AcDbLine
 10
37.2194938659668
 20
55.69807434082031
 30
0.0
 11
37.10138320922852
 21
55.69807434082031
 31
0.0
  0
LINE
  5
92
330
1F
100
AcDbEntity
  8
1
  6
Continuous
 62
    18
370
    18
100
AcDbLine
 10
37.2194938659668
 20
55.19207763671875
 30
0.0
 11
37.2194938659668
 21
55.69807434082031
 31
0.0
  0
LINE
  5
93
330
1F
100
AcDbEntity
  8
1
  6
Continuous
 62
    18
370
    18
100
AcDbLine
 10
35.91831588745117
 20
55.06608963012695
 30
0.0
 11
35.91831588745117
 21
55.18420028686524
 31
0.0
  0
LINE
  5
94
330
1F
100
AcDbEntity
  8
1
  6
Continuous
 62
    18
370
    18
100
AcDbLine
 10
36.11516189575195
 20
55.18420028686524
 30
0.0
 11
36.11516189575195
 21
55.06608963012695
 31
0.0
  0
LINE
  5
95
330
1F
100
AcDbEntity
  8
1
  6
Continuous
 62
    18
370
    18
100
AcDbLine
 10
37.09350967407227
 20
55.18420028686524
 30
0.0
 11
37.09350967407227
 21
55.06608963012695
 31
0.0
  0
LINE
  5
96
330
1F
100
AcDbEntity
  8
1
  6
Continuous
 62
    18
370
    18
100
AcDbLine
 10
36.11516189575195
 20
55.06608963012695
 30
0.0
 11
37.09350967407227
 21
55.06608963012695
 31
0.0
  0
LINE
  5
97
330
1F
100
AcDbEntity
  8
1
  6
Continuous
 62
    18
370
    18
100
AcDbLine
 10
36.11516189575195
 20
55.18420028686524
 30
0.0
 11
37.09350967407227
 21
55.18420028686524
 31
0.0
  0
LINE
  5
98
330
1F
100
AcDbEntity
  8
1
  6
Continuous
 62
    18
370
    18
100
AcDbLine
 10
37.10138320922852
 20
55.89492416381836
 30
0.0
 11
37.2194938659668
 21
55.89492416381836
 31
0.0
  0
LINE
  5
99
330
1F
100
AcDbEntity
  8
1
  6
Continuous
 62
    18
370
    18
100
AcDbLine
 10
29.81949234008789
 20
55.19207763671875
 30
0.0
 11
29.93760490417481
 21
55.19207763671875
 31
0.0
  0
LINE
  5
9A
330
1F
100
AcDbEntity
  8
1
  6
Continuous
 62
    18
370
    18
100
AcDbLine
 10
29.93760490417481
 20
55.69807434082031
 30
0.0
 11
29.81949234008789
 21
55.69807434082031
 31
0.0
  0
LINE
  5
9B
330
1F
100
AcDbEntity
  8
1
  6
Continuous
 62
    18
370
    18
100
AcDbLine
 10
29.93760490417481
 20
55.69807434082031
 30
0.0
 11
29.93760490417481
 21
55.19207763671875
 31
0.0
  0
LINE
  5
9C
330
1F
100
AcDbEntity
  8
1
  6
Continuous
 62
    18
370
    18
100
AcDbLine
 10
29.81949234008789
 20
55.69807434082031
 30
0.0
 11
29.81949234008789
 21
55.19207763671875
 31
0.0
  0
LINE
  5
9D
330
1F
100
AcDbEntity
  8
1
  6
Continuous
 62
    18
370
    18
100
AcDbLine
 10
29.94547843933105
 20
55.06608963012695
 30
0.0
 11
29.94547843933105
 21
55.18420028686524
 31
0.0
  0
LINE
  5
9E
330
1F
100
AcDbEntity
  8
1
  6
Continuous
 62
    18
370
    18
100
AcDbLine
 10
29.94547843933105
 20
55.18420028686524
 30
0.0
 11
30.92382621765137
 21
55.18420028686524
 31
0.0
  0
LINE
  5
9F
330
1F
100
AcDbEntity
  8
1
  6
Continuous
 62
    18
370
    18
100
AcDbLine
 10
30.92382621765137
 20
55.06608963012695
 30
0.0
 11
30.92382621765137
 21
55.18420028686524
 31
0.0
  0
LINE
  5
A0
330
1F
100
AcDbEntity
  8
1
  6
Continuous
 62
    18
370
    18
100
AcDbLine
 10
29.94547843933105
 20
55.06608963012695
 30
0.0
 11
30.92382621765137
 21
55.06608963012695
 31
0.0
  0
LINE
  5
A1
330
1F
100
AcDbEntity
  8
1
  6
Continuous
 62
    18
370
    18
100
AcDbLine
 10
29.81949234008789
 20
55.89492416381836
 30
0.0
 11
29.93760490417481
 21
55.89492416381836
 31
0.0
  0
LINE
  5
A2
330
1F
100
AcDbEntity
  8
1
  6
Continuous
 62
    18
370
    18
100
AcDbLine
 10
31.12067413330078
 20
55.18420028686524
 30
0.0
 11
31.12067413330078
 21
55.06608963012695
 31
0.0
  0
LINE
  5
A3
330
1F
100
AcDbEntity
  8
1
  6
Continuous
 62
    18
370
    18
100
AcDbLine
 10
36.11516189575195
 20
10.66803455352783
 30
0.0
 11
36.11516189575195
 21
10.54992389678955
 31
0.0
  0
LINE
  5
A4
330
1F
100
AcDbEntity
  8
1
  6
Continuous
 62
    18
370
    18
100
AcDbLine
 10
35.91831588745117
 20
10.54992389678955
 30
0.0
 11
35.91831588745117
 21
10.66803455352783
 31
0.0
  0
LINE
  5
A5
330
1F
100
AcDbEntity
  8
1
  6
Continuous
 62
    18
370
    18
100
AcDbLine
 10
37.2194938659668
 20
10.5420503616333
 30
0.0
 11
37.10138320922852
 21
10.5420503616333
 31
0.0
  0
LINE
  5
A6
330
1F
100
AcDbEntity
  8
1
  6
Continuous
 62
    18
370
    18
100
AcDbLine
 10
37.2194938659668
 20
10.0360517501831
 30
0.0
 11
37.2194938659668
 21
10.5420503616333
 31
0.0
  0
LINE
  5
A7
330
1F
100
AcDbEntity
  8
1
  6
Continuous
 62
    18
370
    18
100
AcDbLine
 10
37.10138320922852
 20
10.0360517501831
 30
0.0
 11
37.2194938659668
 21
10.0360517501831
 31
0.0
  0
LINE
  5
A8
330
1F
100
AcDbEntity
  8
1
  6
Continuous
 62
    18
370
    18
100
AcDbLine
 10
37.10138320922852
 20
10.0360517501831
 30
0.0
 11
37.10138320922852
 21
10.5420503616333
 31
0.0
  0
LINE
  5
A9
330
1F
100
AcDbEntity
  8
1
  6
Continuous
 62
    18
370
    18
100
AcDbLine
 10
37.09350967407227
 20
10.66803455352783
 30
0.0
 11
37.09350967407227
 21
10.54992389678955
 31
0.0
  0
LINE
  5
AA
330
1F
100
AcDbEntity
  8
1
  6
Continuous
 62
    18
370
    18
100
AcDbLine
 10
37.2194938659668
 20
9.839200973510742
 30
0.0
 11
37.10138320922852
 21
9.839200973510742
 31
0.0
  0
LINE
  5
AB
330
1F
100
AcDbEntity
  8
1
  6
Continuous
 62
    18
370
    18
100
AcDbLine
 10
37.09350967407227
 20
10.66803455352783
 30
0.0
 11
36.11516189575195
 21
10.66803455352783
 31
0.0
  0
LINE
  5
AC
330
1F
100
AcDbEntity
  8
1
  6
Continuous
 62
    18
370
    18
100
AcDbLine
 10
37.09350967407227
 20
10.54992389678955
 30
0.0
 11
36.11516189575195
 21
10.54992389678955
 31
0.0
  0
LINE
  5
AD
330
1F
100
AcDbEntity
  8
1
  6
Continuous
 62
    18
370
    18
100
AcDbLine
 10
31.12067413330078
 20
10.66803455352783
 30
0.0
 11
31.12067413330078
 21
10.54992389678955
 31
0.0
  0
LINE
  5
AE
330
1F
100
AcDbEntity
  8
1
  6
Continuous
 62
    18
370
    18
100
AcDbLine
 10
30.92382621765137
 20
10.54992389678955
 30
0.0
 11
30.92382621765137
 21
10.66803455352783
 31
0.0
  0
LINE
  5
AF
330
1F
100
AcDbEntity
  8
1
  6
Continuous
 62
    18
370
    18
100
AcDbLine
 10
29.93760490417481
 20
10.5420503616333
 30
0.0
 11
29.81949234008789
 21
10.5420503616333
 31
0.0
  0
LINE
  5
B0
330
1F
100
AcDbEntity
  8
1
  6
Continuous
 62
    18
370
    18
100
AcDbLine
 10
29.93760490417481
 20
10.5420503616333
 30
0.0
 11
29.93760490417481
 21
10.0360517501831
 31
0.0
  0
LINE
  5
B1
330
1F
100
AcDbEntity
  8
1
  6
Continuous
 62
    18
370
    18
100
AcDbLine
 10
29.81949234008789
 20
10.0360517501831
 30
0.0
 11
29.93760490417481
 21
10.0360517501831
 31
0.0
  0
LINE
  5
B2
330
1F
100
AcDbEntity
  8
1
  6
Continuous
 62
    18
370
    18
100
AcDbLine
 10
29.81949234008789
 20
10.5420503616333
 30
0.0
 11
29.81949234008789
 21
10.0360517501831
 31
0.0
  0
LINE
  5
B3
330
1F
100
AcDbEntity
  8
1
  6
Continuous
 62
    18
370
    18
100
AcDbLine
 10
29.94547843933105
 20
10.54992389678955
 30
0.0
 11
29.94547843933105
 21
10.66803455352783
 31
0.0
  0
LINE
  5
B4
330
1F
100
AcDbEntity
  8
1
  6
Continuous
 62
    18
370
    18
100
AcDbLine
 10
30.92382621765137
 20
10.66803455352783
 30
0.0
 11
29.94547843933105
 21
10.66803455352783
 31
0.0
  0
LINE
  5
B5
330
1F
100
AcDbEntity
  8
1
  6
Continuous
 62
    18
370
    18
100
AcDbLine
 10
30.92382621765137
 20
10.54992389678955
 30
0.0
 11
29.94547843933105
 21
10.54992389678955
 31
0.0
  0
LINE
  5
B6
330
1F
100
AcDbEntity
  8
1
  6
Continuous
 62
    18
370
    18
100
AcDbLine
 10
29.93760490417481
 20
9.839200973510742
 30
0.0
 11
29.81949234008789
 21
9.839200973510742
 31
0.0
  0
LINE
  5
B7
330
1F
100
AcDbEntity
  8
1
  6
Continuous
 62
    18
370
    18
100
AcDbLine
 10
52.89886856079101
 20
48.97953796386719
 30
0.0
 11
52.89886856079101
 21
17.3890323638916
 31
0.0
  0
LINE
  5
B8
330
1F
100
AcDbEntity
  8
1
  6
Continuous
 62
    18
370
    18
100
AcDbLine
 10
52.89886856079101
 20
48.97953796386719
 30
0.0
 11
53.40486907958984
 21
48.97953796386719
 31
0.0
  0
LINE
  5
B9
330
1F
100
AcDbEntity
  8
1
  6
Continuous
 62
    18
370
    18
100
AcDbLine
 10
53.40486907958984
 20
17.3890323638916
 30
0.0
 11
52.89886856079101
 21
17.3890323638916
 31
0.0
  0
LINE
  5
BA
330
1F
100
AcDbEntity
  8
1
  6
Continuous
 62
    18
370
    18
100
AcDbLine
 10
53.14793014526367
 20
35.88310241699219
 30
0.0
 11
53.14793014526367
 21
35.73743438720703
 31
0.0
  0
LINE
  5
BB
330
1F
100
AcDbEntity
  8
1
  6
Continuous
 62
    18
370
    18
100
AcDbLine
 10
53.42351913452148
 20
35.73743438720703
 30
0.0
 11
53.42351913452148
 21
35.88310241699219
 31
0.0
  0
LINE
  5
BC
330
1F
100
AcDbEntity
  8
1
  6
Continuous
 62
    18
370
    18
100
AcDbLine
 10
53.14793014526367
 20
18.38233947753906
 30
0.0
 11
53.14793014526367
 21
18.23666954040527
 31
0.0
  0
LINE
  5
BD
330
1F
100
AcDbEntity
  8
1
  6
Continuous
 62
    18
370
    18
100
AcDbLine
 10
53.14793014526367
 20
48.13190078735352
 30
0.0
 11
53.14793014526367
 21
47.98623275756836
 31
0.0
  0
LINE
  5
BE
330
1F
100
AcDbEntity
  8
1
  6
Continuous
 62
    18
370
    18
100
AcDbLine
 10
53.42351913452148
 20
47.98623275756836
 30
0.0
 11
53.42351913452148
 21
48.13190078735352
 31
0.0
  0
LINE
  5
BF
330
1F
100
AcDbEntity
  8
1
  6
Continuous
 62
    18
370
    18
100
AcDbLine
 10
53.42351913452148
 20
30.48546600341797
 30
0.0
 11
53.42351913452148
 21
30.63113594055176
 31
0.0
  0
LINE
  5
C0
330
1F
100
AcDbEntity
  8
1
  6
Continuous
 62
    18
370
    18
100
AcDbLine
 10
53.14793014526367
 20
30.63113594055176
 30
0.0
 11
53.14793014526367
 21
30.48546600341797
 31
0.0
  0
LINE
  5
C1
330
1F
100
AcDbEntity
  8
1
  6
Continuous
 62
    18
370
    18
100
AcDbLine
 10
53.60171508789062
 20
48.78268814086914
 30
0.0
 11
53.60171508789062
 21
17.58588218688965
 31
0.0
  0
LINE
  5
C2
330
1F
100
AcDbEntity
  8
1
  6
Continuous
 62
    18
370
    18
100
AcDbLine
 10
53.42351913452148
 20
18.23666954040527
 30
0.0
 11
53.42351913452148
 21
18.38233947753906
 31
0.0
  0
LINE
  5
C3
330
1F
100
AcDbEntity
  8
1
  6
Continuous
 62
    18
370
    18
100
AcDbLine
 10
52.77288436889648
 20
48.97953796386719
 30
0.0
 11
52.77288436889648
 21
17.3890323638916
 31
0.0
  0
LINE
  5
C4
330
1F
100
AcDbEntity
  8
1
  6
Continuous
 62
    18
370
    18
100
AcDbLine
 10
72.87113952636719
 20
48.97953796386719
 30
0.0
 11
72.98925018310547
 21
48.97953796386719
 31
0.0
  0
LINE
  5
C5
330
1F
100
AcDbEntity
  8
1
  6
Continuous
 62
    18
370
    18
100
AcDbLine
 10
72.98925018310547
 20
48.78268814086914
 30
0.0
 11
72.87113952636719
 21
48.78268814086914
 31
0.0
  0
LINE
  5
C6
330
1F
100
AcDbEntity
  8
1
  6
Continuous
 62
    18
370
    18
100
AcDbLine
 10
72.87113952636719
 20
17.58588218688965
 30
0.0
 11
72.98925018310547
 21
17.58588218688965
 31
0.0
  0
LINE
  5
C7
330
1F
100
AcDbEntity
  8
1
  6
Continuous
 62
    18
370
    18
100
AcDbLine
 10
72.98925018310547
 20
48.78268814086914
 30
0.0
 11
72.98925018310547
 21
17.58588218688965
 31
0.0
  0
LINE
  5
C8
330
1F
100
AcDbEntity
  8
1
  6
Continuous
 62
    18
370
    18
100
AcDbLine
 10
72.87113952636719
 20
48.78268814086914
 30
0.0
 11
72.87113952636719
 21
17.58588218688965
 31
0.0
  0
LINE
  5
C9
330
1F
100
AcDbEntity
  8
1
  6
Continuous
 62
    18
370
    18
100
AcDbLine
 10
72.98925018310547
 20
17.3890323638916
 30
0.0
 11
72.87113952636719
 21
17.3890323638916
 31
0.0
  0
LINE
  5
CA
330
1F
100
AcDbEntity
  8
1
  6
Continuous
 62
    18
370
    18
100
AcDbLine
 10
72.99713134765625
 20
48.97953796386719
 30
0.0
 11
72.99713134765625
 21
17.3890323638916
 31
0.0
  0
LINE
  5
CB
330
1F
100
AcDbEntity
  8
1
  6
Continuous
 62
    18
370
    18
100
AcDbLine
 10
73.97547912597656
 20
48.97953796386719
 30
0.0
 11
72.99713134765625
 21
48.97953796386719
 31
0.0
  0
LINE
  5
CC
330
1F
100
AcDbEntity
  8
1
  6
Continuous
 62
    18
370
    18
100
AcDbLine
 10
74.17232513427734
 20
17.58588218688965
 30
0.0
 11
74.17232513427734
 21
48.78268814086914
 31
0.0
  0
LINE
  5
CD
330
1F
100
AcDbEntity
  8
1
  6
Continuous
 62
    18
370
    18
100
AcDbLine
 10
72.99713134765625
 20
17.3890323638916
 30
0.0
 11
73.97547912597656
 21
17.3890323638916
 31
0.0
  0
LINE
  5
CE
330
1F
100
AcDbEntity
  8
1
  6
Continuous
 62
    18
370
    18
100
AcDbLine
 10
80.2711410522461
 20
48.78268814086914
 30
0.0
 11
80.15303802490235
 21
48.78268814086914
 31
0.0
  0
LINE
  5
CF
330
1F
100
AcDbEntity
  8
1
  6
Continuous
 62
    18
370
    18
100
AcDbLine
 10
80.15303802490235
 20
48.97953796386719
 30
0.0
 11
80.2711410522461
 21
48.97953796386719
 31
0.0
  0
LINE
  5
D0
330
1F
100
AcDbEntity
  8
1
  6
Continuous
 62
    18
370
    18
100
AcDbLine
 10
80.15303802490235
 20
17.58588218688965
 30
0.0
 11
80.2711410522461
 21
17.58588218688965
 31
0.0
  0
LINE
  5
D1
330
1F
100
AcDbEntity
  8
1
  6
Continuous
 62
    18
370
    18
100
AcDbLine
 10
80.2711410522461
 20
17.58588218688965
 30
0.0
 11
80.2711410522461
 21
48.78268814086914
 31
0.0
  0
LINE
  5
D2
330
1F
100
AcDbEntity
  8
1
  6
Continuous
 62
    18
370
    18
100
AcDbLine
 10
80.15303802490235
 20
17.58588218688965
 30
0.0
 11
80.15303802490235
 21
48.78268814086914
 31
0.0
  0
LINE
  5
D3
330
1F
100
AcDbEntity
  8
1
  6
Continuous
 62
    18
370
    18
100
AcDbLine
 10
80.2711410522461
 20
17.3890323638916
 30
0.0
 11
80.15303802490235
 21
17.3890323638916
 31
0.0
  0
LINE
  5
D4
330
1F
100
AcDbEntity
  8
1
  6
Continuous
 62
    18
370
    18
100
AcDbLine
 10
80.14515686035156
 20
17.3890323638916
 30
0.0
 11
80.14515686035156
 21
48.97953796386719
 31
0.0
  0
LINE
  5
D5
330
1F
100
AcDbEntity
  8
1
  6
Continuous
 62
    18
370
    18
100
AcDbLine
 10
78.96996307373047
 20
48.78268814086914
 30
0.0
 11
78.96996307373047
 21
17.58588218688965
 31
0.0
  0
LINE
  5
D6
330
1F
100
AcDbEntity
  8
1
  6
Continuous
 62
    18
370
    18
100
AcDbLine
 10
80.14515686035156
 20
48.97953796386719
 30
0.0
 11
79.16680908203125
 21
48.97953796386719
 31
0.0
  0
LINE
  5
D7
330
1F
100
AcDbEntity
  8
1
  6
Continuous
 62
    18
370
    18
100
AcDbLine
 10
79.16680908203125
 20
17.3890323638916
 30
0.0
 11
80.14515686035156
 21
17.3890323638916
 31
0.0
  0
ARC
  5
D8
330
1F
100
AcDbEntity
  8
1
  6
Continuous
 62
    18
370
    18
100
AcDbCircle
 10
36.19390487670898
 20
22.43423461914062
 30
0.0
 40
0.0885826796293259
100
AcDbArc
 50
90.0
 51
270.0
  0
ARC
  5
D9
330
1F
100
AcDbEntity
  8
1
  6
Continuous
 62
    18
370
    18
100
AcDbCircle
 10
36.19390487670898
 20
21.80923461914062
 30
0.0
 40
0.0885826796293259
100
AcDbArc
 50
90.0
 51
270.0
  0
ARC
  5
DA
330
1F
100
AcDbEntity
  8
1
  6
Continuous
 62
    18
370
    18
100
AcDbCircle
 10
36.19390487670898
 20
21.18423461914062
 30
0.0
 40
0.0885826796293259
100
AcDbArc
 50
90.0
 51
270.0
  0
ARC
  5
DB
330
1F
100
AcDbEntity
  8
1
  6
Continuous
 62
    18
370
    18
100
AcDbCircle
 10
36.19390487670898
 20
20.68423461914063
 30
0.0
 40
0.0885826796293259
100
AcDbArc
 50
90.0
 51
270.0
  0
ARC
  5
DC
330
1F
100
AcDbEntity
  8
1
  6
Continuous
 62
    18
370
    18
100
AcDbCircle
 10
36.19390487670898
 20
20.05923461914063
 30
0.0
 40
0.0885826796293259
100
AcDbArc
 50
90.0
 51
270.0
  0
ARC
  5
DD
330
1F
100
AcDbEntity
  8
1
  6
Continuous
 62
    18
370
    18
100
AcDbCircle
 10
36.19390487670898
 20
19.43423461914062
 30
0.0
 40
0.0885826796293259
100
AcDbArc
 50
270.0
 51
90.0
  0
ARC
  5
DE
330
1F
100
AcDbEntity
  8
1
  6
Continuous
 62
    18
370
    18
100
AcDbCircle
 10
36.19390487670898
 20
19.43423461914062
 30
0.0
 40
0.0885826796293259
100
AcDbArc
 50
90.0
 51
270.0
  0
ARC
  5
DF
330
1F
100
AcDbEntity
  8
1
  6
Continuous
 62
    18
370
    18
100
AcDbCircle
 10
36.19390487670898
 20
18.93423461914062
 30
0.0
 40
0.0885826796293259
100
AcDbArc
 50
270.0
 51
90.0
  0
ARC
  5
E0
330
1F
100
AcDbEntity
  8
1
  6
Continuous
 62
    18
370
    18
100
AcDbCircle
 10
36.19390487670898
 20
18.93423461914062
 30
0.0
 40
0.0885826796293259
100
AcDbArc
 50
90.0
 51
270.0
  0
ARC
  5
E1
330
1F
100
AcDbEntity
  8
1
  6
Continuous
 62
    18
370
    18
100
AcDbCircle
 10
36.19390487670898
 20
18.30923461914062
 30
0.0
 40
0.0885826796293259
100
AcDbArc
 50
270.0
 51
90.0
  0
ARC
  5
E2
330
1F
100
AcDbEntity
  8
1
  6
Continuous
 62
    18
370
    18
100
AcDbCircle
 10
36.19390487670898
 20
18.30923461914062
 30
0.0
 40
0.0885826796293259
100
AcDbArc
 50
90.0
 51
270.0
  0
ARC
  5
E3
330
1F
100
AcDbEntity
  8
1
  6
Continuous
 62
    18
370
    18
100
AcDbCircle
 10
36.19390487670898
 20
17.68423461914062
 30
0.0
 40
0.0885826796293259
100
AcDbArc
 50
270.0
 51
90.0
  0
ARC
  5
E4
330
1F
100
AcDbEntity
  8
1
  6
Continuous
 62
    18
370
    18
100
AcDbCircle
 10
36.19390487670898
 20
17.68423461914062
 30
0.0
 40
0.0885826796293259
100
AcDbArc
 50
90.0
 51
270.0
  0
ARC
  5
E5
330
1F
100
AcDbEntity
  8
1
  6
Continuous
 62
    18
370
    18
100
AcDbCircle
 10
36.19390487670898
 20
45.18423461914062
 30
0.0
 40
0.0885826796293259
100
AcDbArc
 50
90.0
 51
270.0
  0
ARC
  5
E6
330
1F
100
AcDbEntity
  8
1
  6
Continuous
 62
    18
370
    18
100
AcDbCircle
 10
36.19390487670898
 20
44.55923461914062
 30
0.0
 40
0.0885826796293259
100
AcDbArc
 50
90.0
 51
270.0
  0
ARC
  5
E7
330
1F
100
AcDbEntity
  8
1
  6
Continuous
 62
    18
370
    18
100
AcDbCircle
 10
36.19390487670898
 20
45.68423461914062
 30
0.0
 40
0.0885826796293259
100
AcDbArc
 50
270.0
 51
90.0
  0
ARC
  5
E8
330
1F
100
AcDbEntity
  8
1
  6
Continuous
 62
    18
370
    18
100
AcDbCircle
 10
36.19390487670898
 20
45.68423461914062
 30
0.0
 40
0.0885826796293259
100
AcDbArc
 50
90.0
 51
270.0
  0
ARC
  5
E9
330
1F
100
AcDbEntity
  8
1
  6
Continuous
 62
    18
370
    18
100
AcDbCircle
 10
36.19390487670898
 20
48.68423461914062
 30
0.0
 40
0.0885826796293259
100
AcDbArc
 50
270.0
 51
90.0
  0
ARC
  5
EA
330
1F
100
AcDbEntity
  8
1
  6
Continuous
 62
    18
370
    18
100
AcDbCircle
 10
36.19390487670898
 20
48.68423461914062
 30
0.0
 40
0.0885826796293259
100
AcDbArc
 50
90.0
 51
270.0
  0
ARC
  5
EB
330
1F
100
AcDbEntity
  8
1
  6
Continuous
 62
    18
370
    18
100
AcDbCircle
 10
36.19390487670898
 20
48.05923461914062
 30
0.0
 40
0.0885826796293259
100
AcDbArc
 50
270.0
 51
90.0
  0
ARC
  5
EC
330
1F
100
AcDbEntity
  8
1
  6
Continuous
 62
    18
370
    18
100
AcDbCircle
 10
36.19390487670898
 20
48.05923461914062
 30
0.0
 40
0.0885826796293259
100
AcDbArc
 50
90.0
 51
270.0
  0
ARC
  5
ED
330
1F
100
AcDbEntity
  8
1
  6
Continuous
 62
    18
370
    18
100
AcDbCircle
 10
36.19390487670898
 20
47.43423461914062
 30
0.0
 40
0.0885826796293259
100
AcDbArc
 50
270.0
 51
90.0
  0
ARC
  5
EE
330
1F
100
AcDbEntity
  8
1
  6
Continuous
 62
    18
370
    18
100
AcDbCircle
 10
36.19390487670898
 20
47.43423461914062
 30
0.0
 40
0.0885826796293259
100
AcDbArc
 50
90.0
 51
270.0
  0
ARC
  5
EF
330
1F
100
AcDbEntity
  8
1
  6
Continuous
 62
    18
370
    18
100
AcDbCircle
 10
36.19390487670898
 20
43.43423461914063
 30
0.0
 40
0.0885826796293259
100
AcDbArc
 50
270.0
 51
90.0
  0
ARC
  5
F0
330
1F
100
AcDbEntity
  8
1
  6
Continuous
 62
    18
370
    18
100
AcDbCircle
 10
36.19390487670898
 20
43.43423461914063
 30
0.0
 40
0.0885826796293259
100
AcDbArc
 50
90.0
 51
270.0
  0
ARC
  5
F1
330
1F
100
AcDbEntity
  8
1
  6
Continuous
 62
    18
370
    18
100
AcDbCircle
 10
36.19390487670898
 20
42.80923461914063
 30
0.0
 40
0.0885826796293259
100
AcDbArc
 50
270.0
 51
90.0
  0
ARC
  5
F2
330
1F
100
AcDbEntity
  8
1
  6
Continuous
 62
    18
370
    18
100
AcDbCircle
 10
36.19390487670898
 20
42.80923461914063
 30
0.0
 40
0.0885826796293259
100
AcDbArc
 50
90.0
 51
270.0
  0
ARC
  5
F3
330
1F
100
AcDbEntity
  8
1
  6
Continuous
 62
    18
370
    18
100
AcDbCircle
 10
36.19390487670898
 20
42.18423461914063
 30
0.0
 40
0.0885826796293259
100
AcDbArc
 50
270.0
 51
90.0
  0
ARC
  5
F4
330
1F
100
AcDbEntity
  8
1
  6
Continuous
 62
    18
370
    18
100
AcDbCircle
 10
36.19390487670898
 20
42.18423461914063
 30
0.0
 40
0.0885826796293259
100
AcDbArc
 50
90.0
 51
270.0
  0
ARC
  5
F5
330
1F
100
AcDbEntity
  8
1
  6
Continuous
 62
    18
370
    18
100
AcDbCircle
 10
36.19390487670898
 20
41.68423461914062
 30
0.0
 40
0.0885826796293259
100
AcDbArc
 50
270.0
 51
90.0
  0
ARC
  5
F6
330
1F
100
AcDbEntity
  8
1
  6
Continuous
 62
    18
370
    18
100
AcDbCircle
 10
36.19390487670898
 20
41.68423461914062
 30
0.0
 40
0.0885826796293259
100
AcDbArc
 50
90.0
 51
270.0
  0
ARC
  5
F7
330
1F
100
AcDbEntity
  8
1
  6
Continuous
 62
    18
370
    18
100
AcDbCircle
 10
36.19390487670898
 20
41.05923461914062
 30
0.0
 40
0.0885826796293259
100
AcDbArc
 50
270.0
 51
90.0
  0
ARC
  5
F8
330
1F
100
AcDbEntity
  8
1
  6
Continuous
 62
    18
370
    18
100
AcDbCircle
 10
36.19390487670898
 20
41.05923461914062
 30
0.0
 40
0.0885826796293259
100
AcDbArc
 50
90.0
 51
270.0
  0
ARC
  5
F9
330
1F
100
AcDbEntity
  8
1
  6
Continuous
 62
    18
370
    18
100
AcDbCircle
 10
36.19390487670898
 20
40.43423461914062
 30
0.0
 40
0.0885826796293259
100
AcDbArc
 50
270.0
 51
90.0
  0
ARC
  5
FA
330
1F
100
AcDbEntity
  8
1
  6
Continuous
 62
    18
370
    18
100
AcDbCircle
 10
36.19390487670898
 20
40.43423461914062
 30
0.0
 40
0.0885826796293259
100
AcDbArc
 50
90.0
 51
270.0
  0
ARC
  5
FB
330
1F
100
AcDbEntity
  8
1
  6
Continuous
 62
    18
370
    18
100
AcDbCircle
 10
36.19390487670898
 20
39.93423461914062
 30
0.0
 40
0.0885826796293259
100
AcDbArc
 50
270.0
 51
90.0
  0
ARC
  5
FC
330
1F
100
AcDbEntity
  8
1
  6
Continuous
 62
    18
370
    18
100
AcDbCircle
 10
36.19390487670898
 20
39.93423461914062
 30
0.0
 40
0.0885826796293259
100
AcDbArc
 50
90.0
 51
270.0
  0
ARC
  5
FD
330
1F
100
AcDbEntity
  8
1
  6
Continuous
 62
    18
370
    18
100
AcDbCircle
 10
36.19390487670898
 20
39.30923461914062
 30
0.0
 40
0.0885826796293259
100
AcDbArc
 50
270.0
 51
90.0
  0
ARC
  5
FE
330
1F
100
AcDbEntity
  8
1
  6
Continuous
 62
    18
370
    18
100
AcDbCircle
 10
36.19390487670898
 20
39.30923461914062
 30
0.0
 40
0.0885826796293259
100
AcDbArc
 50
90.0
 51
270.0
  0
ARC
  5
FF
330
1F
100
AcDbEntity
  8
1
  6
Continuous
 62
    18
370
    18
100
AcDbCircle
 10
36.19390487670898
 20
38.68423080444336
 30
0.0
 40
0.0885826796293259
100
AcDbArc
 50
270.0
 51
90.0
  0
ARC
  5
100
330
1F
100
AcDbEntity
  8
1
  6
Continuous
 62
    18
370
    18
100
AcDbCircle
 10
36.19390487670898
 20
38.68423080444336
 30
0.0
 40
0.0885826796293259
100
AcDbArc
 50
90.0
 51
270.0
  0
ARC
  5
101
330
1F
100
AcDbEntity
  8
1
  6
Continuous
 62
    18
370
    18
100
AcDbCircle
 10
36.19390487670898
 20
38.18423080444336
 30
0.0
 40
0.0885826796293259
100
AcDbArc
 50
270.0
 51
90.0
  0
ARC
  5
102
330
1F
100
AcDbEntity
  8
1
  6
Continuous
 62
    18
370
    18
100
AcDbCircle
 10
36.19390487670898
 20
38.18423080444336
 30
0.0
 40
0.0885826796293259
100
AcDbArc
 50
90.0
 51
270.0
  0
ARC
  5
103
330
1F
100
AcDbEntity
  8
1
  6
Continuous
 62
    18
370
    18
100
AcDbCircle
 10
36.19390487670898
 20
37.55923080444336
 30
0.0
 40
0.0885826796293259
100
AcDbArc
 50
270.0
 51
90.0
  0
ARC
  5
104
330
1F
100
AcDbEntity
  8
1
  6
Continuous
 62
    18
370
    18
100
AcDbCircle
 10
36.19390487670898
 20
37.55923080444336
 30
0.0
 40
0.0885826796293259
100
AcDbArc
 50
90.0
 51
270.0
  0
ARC
  5
105
330
1F
100
AcDbEntity
  8
1
  6
Continuous
 62
    18
370
    18
100
AcDbCircle
 10
36.19390487670898
 20
36.93423080444336
 30
0.0
 40
0.0885826796293259
100
AcDbArc
 50
270.0
 51
90.0
  0
ARC
  5
106
330
1F
100
AcDbEntity
  8
1
  6
Continuous
 62
    18
370
    18
100
AcDbCircle
 10
36.19390487670898
 20
36.93423080444336
 30
0.0
 40
0.0885826796293259
100
AcDbArc
 50
90.0
 51
270.0
  0
ARC
  5
107
330
1F
100
AcDbEntity
  8
1
  6
Continuous
 62
    18
370
    18
100
AcDbCircle
 10
36.19390487670898
 20
36.43423080444336
 30
0.0
 40
0.0885826796293259
100
AcDbArc
 50
270.0
 51
90.0
  0
ARC
  5
108
330
1F
100
AcDbEntity
  8
1
  6
Continuous
 62
    18
370
    18
100
AcDbCircle
 10
36.19390487670898
 20
36.43423080444336
 30
0.0
 40
0.0885826796293259
100
AcDbArc
 50
90.0
 51
270.0
  0
ARC
  5
109
330
1F
100
AcDbEntity
  8
1
  6
Continuous
 62
    18
370
    18
100
AcDbCircle
 10
36.19390487670898
 20
35.80923080444336
 30
0.0
 40
0.0885826796293259
100
AcDbArc
 50
270.0
 51
90.0
  0
ARC
  5
10A
330
1F
100
AcDbEntity
  8
1
  6
Continuous
 62
    18
370
    18
100
AcDbCircle
 10
36.19390487670898
 20
35.80923080444336
 30
0.0
 40
0.0885826796293259
100
AcDbArc
 50
90.0
 51
270.0
  0
ARC
  5
10B
330
1F
100
AcDbEntity
  8
1
  6
Continuous
 62
    18
370
    18
100
AcDbCircle
 10
36.19390487670898
 20
35.18423080444336
 30
0.0
 40
0.0885826796293259
100
AcDbArc
 50
270.0
 51
90.0
  0
ARC
  5
10C
330
1F
100
AcDbEntity
  8
1
  6
Continuous
 62
    18
370
    18
100
AcDbCircle
 10
36.19390487670898
 20
35.18423080444336
 30
0.0
 40
0.0885826796293259
100
AcDbArc
 50
90.0
 51
270.0
  0
ARC
  5
10D
330
1F
100
AcDbEntity
  8
1
  6
Continuous
 62
    18
370
    18
100
AcDbCircle
 10
36.19390487670898
 20
34.68423080444336
 30
0.0
 40
0.0885826796293259
100
AcDbArc
 50
270.0
 51
90.0
  0
ARC
  5
10E
330
1F
100
AcDbEntity
  8
1
  6
Continuous
 62
    18
370
    18
100
AcDbCircle
 10
36.19390487670898
 20
34.68423080444336
 30
0.0
 40
0.0885826796293259
100
AcDbArc
 50
90.0
 51
270.0
  0
ARC
  5
10F
330
1F
100
AcDbEntity
  8
1
  6
Continuous
 62
    18
370
    18
100
AcDbCircle
 10
36.19390487670898
 20
34.05923080444336
 30
0.0
 40
0.0885826796293259
100
AcDbArc
 50
270.0
 51
90.0
  0
ARC
  5
110
330
1F
100
AcDbEntity
  8
1
  6
Continuous
 62
    18
370
    18
100
AcDbCircle
 10
36.19390487670898
 20
34.05923080444336
 30
0.0
 40
0.0885826796293259
100
AcDbArc
 50
90.0
 51
270.0
  0
ARC
  5
111
330
1F
100
AcDbEntity
  8
1
  6
Continuous
 62
    18
370
    18
100
AcDbCircle
 10
36.19390487670898
 20
33.43423080444336
 30
0.0
 40
0.0885826796293259
100
AcDbArc
 50
270.0
 51
90.0
  0
ARC
  5
112
330
1F
100
AcDbEntity
  8
1
  6
Continuous
 62
    18
370
    18
100
AcDbCircle
 10
36.19390487670898
 20
33.43423080444336
 30
0.0
 40
0.0885826796293259
100
AcDbArc
 50
90.0
 51
270.0
  0
ARC
  5
113
330
1F
100
AcDbEntity
  8
1
  6
Continuous
 62
    18
370
    18
100
AcDbCircle
 10
36.19390487670898
 20
32.93423080444336
 30
0.0
 40
0.0885826796293259
100
AcDbArc
 50
90.0
 51
270.0
  0
ARC
  5
114
330
1F
100
AcDbEntity
  8
1
  6
Continuous
 62
    18
370
    18
100
AcDbCircle
 10
36.19390487670898
 20
32.30923080444336
 30
0.0
 40
0.0885826796293259
100
AcDbArc
 50
90.0
 51
270.0
  0
ARC
  5
115
330
1F
100
AcDbEntity
  8
1
  6
Continuous
 62
    18
370
    18
100
AcDbCircle
 10
36.19390487670898
 20
31.68423271179199
 30
0.0
 40
0.0885826796293259
100
AcDbArc
 50
270.0
 51
90.0
  0
ARC
  5
116
330
1F
100
AcDbEntity
  8
1
  6
Continuous
 62
    18
370
    18
100
AcDbCircle
 10
36.19390487670898
 20
31.68423271179199
 30
0.0
 40
0.0885826796293259
100
AcDbArc
 50
90.0
 51
270.0
  0
ARC
  5
117
330
1F
100
AcDbEntity
  8
1
  6
Continuous
 62
    18
370
    18
100
AcDbCircle
 10
36.19390487670898
 20
31.18423271179199
 30
0.0
 40
0.0885826796293259
100
AcDbArc
 50
270.0
 51
90.0
  0
ARC
  5
118
330
1F
100
AcDbEntity
  8
1
  6
Continuous
 62
    18
370
    18
100
AcDbCircle
 10
36.19390487670898
 20
31.18423271179199
 30
0.0
 40
0.0885826796293259
100
AcDbArc
 50
90.0
 51
270.0
  0
ARC
  5
119
330
1F
100
AcDbEntity
  8
1
  6
Continuous
 62
    18
370
    18
100
AcDbCircle
 10
36.19390487670898
 20
30.55923271179199
 30
0.0
 40
0.0885826796293259
100
AcDbArc
 50
270.0
 51
90.0
  0
ARC
  5
11A
330
1F
100
AcDbEntity
  8
1
  6
Continuous
 62
    18
370
    18
100
AcDbCircle
 10
36.19390487670898
 20
30.55923271179199
 30
0.0
 40
0.0885826796293259
100
AcDbArc
 50
90.0
 51
270.0
  0
ARC
  5
11B
330
1F
100
AcDbEntity
  8
1
  6
Continuous
 62
    18
370
    18
100
AcDbCircle
 10
36.19390487670898
 20
29.93423271179199
 30
0.0
 40
0.0885826796293259
100
AcDbArc
 50
270.0
 51
90.0
  0
ARC
  5
11C
330
1F
100
AcDbEntity
  8
1
  6
Continuous
 62
    18
370
    18
100
AcDbCircle
 10
36.19390487670898
 20
29.93423271179199
 30
0.0
 40
0.0885826796293259
100
AcDbArc
 50
90.0
 51
270.0
  0
ARC
  5
11D
330
1F
100
AcDbEntity
  8
1
  6
Continuous
 62
    18
370
    18
100
AcDbCircle
 10
36.19390487670898
 20
29.43423271179199
 30
0.0
 40
0.0885826796293259
100
AcDbArc
 50
270.0
 51
90.0
  0
ARC
  5
11E
330
1F
100
AcDbEntity
  8
1
  6
Continuous
 62
    18
370
    18
100
AcDbCircle
 10
36.19390487670898
 20
29.43423271179199
 30
0.0
 40
0.0885826796293259
100
AcDbArc
 50
90.0
 51
270.0
  0
ARC
  5
11F
330
1F
100
AcDbEntity
  8
1
  6
Continuous
 62
    18
370
    18
100
AcDbCircle
 10
36.19390487670898
 20
28.80923271179199
 30
0.0
 40
0.0885826796293259
100
AcDbArc
 50
270.0
 51
90.0
  0
ARC
  5
120
330
1F
100
AcDbEntity
  8
1
  6
Continuous
 62
    18
370
    18
100
AcDbCircle
 10
36.19390487670898
 20
28.80923271179199
 30
0.0
 40
0.0885826796293259
100
AcDbArc
 50
90.0
 51
270.0
  0
ARC
  5
121
330
1F
100
AcDbEntity
  8
1
  6
Continuous
 62
    18
370
    18
100
AcDbCircle
 10
36.19390487670898
 20
28.18423271179199
 30
0.0
 40
0.0885826796293259
100
AcDbArc
 50
270.0
 51
90.0
  0
ARC
  5
122
330
1F
100
AcDbEntity
  8
1
  6
Continuous
 62
    18
370
    18
100
AcDbCircle
 10
36.19390487670898
 20
28.18423271179199
 30
0.0
 40
0.0885826796293259
100
AcDbArc
 50
90.0
 51
270.0
  0
ARC
  5
123
330
1F
100
AcDbEntity
  8
1
  6
Continuous
 62
    18
370
    18
100
AcDbCircle
 10
36.19390487670898
 20
27.68423271179199
 30
0.0
 40
0.0885826796293259
100
AcDbArc
 50
270.0
 51
90.0
  0
ARC
  5
124
330
1F
100
AcDbEntity
  8
1
  6
Continuous
 62
    18
370
    18
100
AcDbCircle
 10
36.19390487670898
 20
27.68423271179199
 30
0.0
 40
0.0885826796293259
100
AcDbArc
 50
90.0
 51
270.0
  0
ARC
  5
125
330
1F
100
AcDbEntity
  8
1
  6
Continuous
 62
    18
370
    18
100
AcDbCircle
 10
36.19390487670898
 20
27.05923461914063
 30
0.0
 40
0.0885826796293259
100
AcDbArc
 50
270.0
 51
90.0
  0
ARC
  5
126
330
1F
100
AcDbEntity
  8
1
  6
Continuous
 62
    18
370
    18
100
AcDbCircle
 10
36.19390487670898
 20
27.05923461914063
 30
0.0
 40
0.0885826796293259
100
AcDbArc
 50
90.0
 51
270.0
  0
ARC
  5
127
330
1F
100
AcDbEntity
  8
1
  6
Continuous
 62
    18
370
    18
100
AcDbCircle
 10
36.19390487670898
 20
26.43423461914063
 30
0.0
 40
0.0885826796293259
100
AcDbArc
 50
270.0
 51
90.0
  0
ARC
  5
128
330
1F
100
AcDbEntity
  8
1
  6
Continuous
 62
    18
370
    18
100
AcDbCircle
 10
36.19390487670898
 20
26.43423461914063
 30
0.0
 40
0.0885826796293259
100
AcDbArc
 50
90.0
 51
270.0
  0
ARC
  5
129
330
1F
100
AcDbEntity
  8
1
  6
Continuous
 62
    18
370
    18
100
AcDbCircle
 10
36.19390487670898
 20
25.93423461914063
 30
0.0
 40
0.0885826796293259
100
AcDbArc
 50
270.0
 51
90.0
  0
ARC
  5
12A
330
1F
100
AcDbEntity
  8
1
  6
Continuous
 62
    18
370
    18
100
AcDbCircle
 10
36.19390487670898
 20
25.93423461914063
 30
0.0
 40
0.0885826796293259
100
AcDbArc
 50
90.0
 51
270.0
  0
ARC
  5
12B
330
1F
100
AcDbEntity
  8
1
  6
Continuous
 62
    18
370
    18
100
AcDbCircle
 10
36.19390487670898
 20
25.30923461914063
 30
0.0
 40
0.0885826796293259
100
AcDbArc
 50
270.0
 51
90.0
  0
ARC
  5
12C
330
1F
100
AcDbEntity
  8
1
  6
Continuous
 62
    18
370
    18
100
AcDbCircle
 10
36.19390487670898
 20
25.30923461914063
 30
0.0
 40
0.0885826796293259
100
AcDbArc
 50
90.0
 51
270.0
  0
ARC
  5
12D
330
1F
100
AcDbEntity
  8
1
  6
Continuous
 62
    18
370
    18
100
AcDbCircle
 10
36.19390487670898
 20
24.68423461914063
 30
0.0
 40
0.0885826796293259
100
AcDbArc
 50
270.0
 51
90.0
  0
ARC
  5
12E
330
1F
100
AcDbEntity
  8
1
  6
Continuous
 62
    18
370
    18
100
AcDbCircle
 10
36.19390487670898
 20
24.68423461914063
 30
0.0
 40
0.0885826796293259
100
AcDbArc
 50
90.0
 51
270.0
  0
ARC
  5
12F
330
1F
100
AcDbEntity
  8
1
  6
Continuous
 62
    18
370
    18
100
AcDbCircle
 10
36.19390487670898
 20
24.18423461914063
 30
0.0
 40
0.0885826796293259
100
AcDbArc
 50
270.0
 51
90.0
  0
ARC
  5
130
330
1F
100
AcDbEntity
  8
1
  6
Continuous
 62
    18
370
    18
100
AcDbCircle
 10
36.19390487670898
 20
24.18423461914063
 30
0.0
 40
0.0885826796293259
100
AcDbArc
 50
90.0
 51
270.0
  0
ARC
  5
131
330
1F
100
AcDbEntity
  8
1
  6
Continuous
 62
    18
370
    18
100
AcDbCircle
 10
36.19390487670898
 20
23.55923461914063
 30
0.0
 40
0.0885826796293259
100
AcDbArc
 50
270.0
 51
90.0
  0
ARC
  5
132
330
1F
100
AcDbEntity
  8
1
  6
Continuous
 62
    18
370
    18
100
AcDbCircle
 10
36.19390487670898
 20
23.55923461914063
 30
0.0
 40
0.0885826796293259
100
AcDbArc
 50
90.0
 51
270.0
  0
ARC
  5
133
330
1F
100
AcDbEntity
  8
1
  6
Continuous
 62
    18
370
    18
100
AcDbCircle
 10
36.19390487670898
 20
22.93423461914063
 30
0.0
 40
0.0885826796293259
100
AcDbArc
 50
270.0
 51
90.0
  0
ARC
  5
134
330
1F
100
AcDbEntity
  8
1
  6
Continuous
 62
    18
370
    18
100
AcDbCircle
 10
36.19390487670898
 20
22.93423461914063
 30
0.0
 40
0.0885826796293259
100
AcDbArc
 50
90.0
 51
270.0
  0
ARC
  5
135
330
1F
100
AcDbEntity
  8
1
  6
Continuous
 62
    18
370
    18
100
AcDbCircle
 10
36.11516189575195
 20
48.78268814086914
 30
0.0
 40
0.1968504041433334
100
AcDbArc
 50
90.0
 51
180.0
  0
ARC
  5
136
330
1F
100
AcDbEntity
  8
1
  6
Continuous
 62
    18
370
    18
100
AcDbCircle
 10
36.11516189575195
 20
17.58588218688965
 30
0.0
 40
0.1968504041433334
100
AcDbArc
 50
180.0
 51
270.0
  0
ARC
  5
137
330
1F
100
AcDbEntity
  8
1
  6
Continuous
 62
    18
370
    18
100
AcDbCircle
 10
36.19390487670898
 20
32.93423080444336
 30
0.0
 40
0.0885826796293259
100
AcDbArc
 50
270.0
 51
90.0
  0
ARC
  5
138
330
1F
100
AcDbEntity
  8
1
  6
Continuous
 62
    18
370
    18
100
AcDbCircle
 10
36.19390487670898
 20
32.30923080444336
 30
0.0
 40
0.0885826796293259
100
AcDbArc
 50
270.0
 51
90.0
  0
ARC
  5
139
330
1F
100
AcDbEntity
  8
1
  6
Continuous
 62
    18
370
    18
100
AcDbCircle
 10
36.19390487670898
 20
21.80923461914062
 30
0.0
 40
0.0885826796293259
100
AcDbArc
 50
270.0
 51
90.0
  0
ARC
  5
13A
330
1F
100
AcDbEntity
  8
1
  6
Continuous
 62
    18
370
    18
100
AcDbCircle
 10
36.19390487670898
 20
21.18423461914062
 30
0.0
 40
0.0885826796293259
100
AcDbArc
 50
270.0
 51
90.0
  0
ARC
  5
13B
330
1F
100
AcDbEntity
  8
1
  6
Continuous
 62
    18
370
    18
100
AcDbCircle
 10
36.19390487670898
 20
20.68423461914063
 30
0.0
 40
0.0885826796293259
100
AcDbArc
 50
270.0
 51
90.0
  0
ARC
  5
13C
330
1F
100
AcDbEntity
  8
1
  6
Continuous
 62
    18
370
    18
100
AcDbCircle
 10
36.19390487670898
 20
20.05923461914063
 30
0.0
 40
0.0885826796293259
100
AcDbArc
 50
270.0
 51
90.0
  0
ARC
  5
13D
330
1F
100
AcDbEntity
  8
1
  6
Continuous
 62
    18
370
    18
100
AcDbCircle
 10
36.19390487670898
 20
45.18423461914062
 30
0.0
 40
0.0885826796293259
100
AcDbArc
 50
270.0
 51
90.0
  0
ARC
  5
13E
330
1F
100
AcDbEntity
  8
1
  6
Continuous
 62
    18
370
    18
100
AcDbCircle
 10
36.19390487670898
 20
44.55923461914062
 30
0.0
 40
0.0885826796293259
100
AcDbArc
 50
270.0
 51
90.0
  0
ARC
  5
13F
330
1F
100
AcDbEntity
  8
1
  6
Continuous
 62
    18
370
    18
100
AcDbCircle
 10
36.19390487670898
 20
43.93423461914062
 30
0.0
 40
0.0885826796293259
100
AcDbArc
 50
270.0
 51
90.0
  0
ARC
  5
140
330
1F
100
AcDbEntity
  8
1
  6
Continuous
 62
    18
370
    18
100
AcDbCircle
 10
36.19390487670898
 20
46.93423461914062
 30
0.0
 40
0.0885826796293259
100
AcDbArc
 50
270.0
 51
90.0
  0
ARC
  5
141
330
1F
100
AcDbEntity
  8
1
  6
Continuous
 62
    18
370
    18
100
AcDbCircle
 10
36.19390487670898
 20
46.30923461914062
 30
0.0
 40
0.0885826796293259
100
AcDbArc
 50
270.0
 51
90.0
  0
ARC
  5
142
330
1F
100
AcDbEntity
  8
1
  6
Continuous
 62
    18
370
    18
100
AcDbCircle
 10
36.19390487670898
 20
46.30923461914062
 30
0.0
 40
0.0885826796293259
100
AcDbArc
 50
90.0
 51
270.0
  0
ARC
  5
143
330
1F
100
AcDbEntity
  8
1
  6
Continuous
 62
    18
370
    18
100
AcDbCircle
 10
36.19390487670898
 20
46.93423461914062
 30
0.0
 40
0.0885826796293259
100
AcDbArc
 50
90.0
 51
270.0
  0
ARC
  5
144
330
1F
100
AcDbEntity
  8
1
  6
Continuous
 62
    18
370
    18
100
AcDbCircle
 10
36.19390487670898
 20
43.93423461914062
 30
0.0
 40
0.0885826796293259
100
AcDbArc
 50
90.0
 51
270.0
  0
ARC
  5
145
330
1F
100
AcDbEntity
  8
1
  6
Continuous
 62
    18
370
    18
100
AcDbCircle
 10
36.19390487670898
 20
22.43423461914062
 30
0.0
 40
0.0885826796293259
100
AcDbArc
 50
270.0
 51
90.0
  0
ARC
  5
146
330
1F
100
AcDbEntity
  8
1
  6
Continuous
 62
    18
370
    18
100
AcDbCircle
 10
30.84508514404297
 20
43.93433761596679
 30
0.0
 40
0.0885826796293259
100
AcDbArc
 50
270.0
 51
90.0
  0
ARC
  5
147
330
1F
100
AcDbEntity
  8
1
  6
Continuous
 62
    18
370
    18
100
AcDbCircle
 10
30.84508514404297
 20
44.55933761596679
 30
0.0
 40
0.0885826796293259
100
AcDbArc
 50
270.0
 51
90.0
  0
ARC
  5
148
330
1F
100
AcDbEntity
  8
1
  6
Continuous
 62
    18
370
    18
100
AcDbCircle
 10
30.84508514404297
 20
45.18433761596679
 30
0.0
 40
0.0885826796293259
100
AcDbArc
 50
270.0
 51
90.0
  0
ARC
  5
149
330
1F
100
AcDbEntity
  8
1
  6
Continuous
 62
    18
370
    18
100
AcDbCircle
 10
30.84508514404297
 20
45.68433761596679
 30
0.0
 40
0.0885826796293259
100
AcDbArc
 50
270.0
 51
90.0
  0
ARC
  5
14A
330
1F
100
AcDbEntity
  8
1
  6
Continuous
 62
    18
370
    18
100
AcDbCircle
 10
30.84508514404297
 20
46.30933761596679
 30
0.0
 40
0.0885826796293259
100
AcDbArc
 50
270.0
 51
90.0
  0
ARC
  5
14B
330
1F
100
AcDbEntity
  8
1
  6
Continuous
 62
    18
370
    18
100
AcDbCircle
 10
30.84508514404297
 20
46.93433761596679
 30
0.0
 40
0.0885826796293259
100
AcDbArc
 50
270.0
 51
90.0
  0
ARC
  5
14C
330
1F
100
AcDbEntity
  8
1
  6
Continuous
 62
    18
370
    18
100
AcDbCircle
 10
30.84508514404297
 20
47.43433761596679
 30
0.0
 40
0.0885826796293259
100
AcDbArc
 50
270.0
 51
90.0
  0
ARC
  5
14D
330
1F
100
AcDbEntity
  8
1
  6
Continuous
 62
    18
370
    18
100
AcDbCircle
 10
30.84508514404297
 20
48.0593376159668
 30
0.0
 40
0.0885826796293259
100
AcDbArc
 50
270.0
 51
90.0
  0
ARC
  5
14E
330
1F
100
AcDbEntity
  8
1
  6
Continuous
 62
    18
370
    18
100
AcDbCircle
 10
30.84508514404297
 20
48.6843376159668
 30
0.0
 40
0.0885826796293259
100
AcDbArc
 50
270.0
 51
90.0
  0
ARC
  5
14F
330
1F
100
AcDbEntity
  8
1
  6
Continuous
 62
    18
370
    18
100
AcDbCircle
 10
30.84508514404297
 20
21.18433570861816
 30
0.0
 40
0.0885826796293259
100
AcDbArc
 50
270.0
 51
90.0
  0
ARC
  5
150
330
1F
100
AcDbEntity
  8
1
  6
Continuous
 62
    18
370
    18
100
AcDbCircle
 10
30.84508514404297
 20
20.68433570861817
 30
0.0
 40
0.0885826796293259
100
AcDbArc
 50
270.0
 51
90.0
  0
ARC
  5
151
330
1F
100
AcDbEntity
  8
1
  6
Continuous
 62
    18
370
    18
100
AcDbCircle
 10
30.84508514404297
 20
17.68433570861816
 30
0.0
 40
0.0885826796293259
100
AcDbArc
 50
270.0
 51
90.0
  0
ARC
  5
152
330
1F
100
AcDbEntity
  8
1
  6
Continuous
 62
    18
370
    18
100
AcDbCircle
 10
30.84508514404297
 20
18.30933570861816
 30
0.0
 40
0.0885826796293259
100
AcDbArc
 50
270.0
 51
90.0
  0
ARC
  5
153
330
1F
100
AcDbEntity
  8
1
  6
Continuous
 62
    18
370
    18
100
AcDbCircle
 10
30.84508514404297
 20
18.93433570861816
 30
0.0
 40
0.0885826796293259
100
AcDbArc
 50
270.0
 51
90.0
  0
ARC
  5
154
330
1F
100
AcDbEntity
  8
1
  6
Continuous
 62
    18
370
    18
100
AcDbCircle
 10
30.84508514404297
 20
22.93433570861816
 30
0.0
 40
0.0885826796293259
100
AcDbArc
 50
270.0
 51
90.0
  0
ARC
  5
155
330
1F
100
AcDbEntity
  8
1
  6
Continuous
 62
    18
370
    18
100
AcDbCircle
 10
30.84508514404297
 20
23.55933570861816
 30
0.0
 40
0.0885826796293259
100
AcDbArc
 50
270.0
 51
90.0
  0
ARC
  5
156
330
1F
100
AcDbEntity
  8
1
  6
Continuous
 62
    18
370
    18
100
AcDbCircle
 10
30.84508514404297
 20
24.18433570861817
 30
0.0
 40
0.0885826796293259
100
AcDbArc
 50
270.0
 51
90.0
  0
ARC
  5
157
330
1F
100
AcDbEntity
  8
1
  6
Continuous
 62
    18
370
    18
100
AcDbCircle
 10
30.84508514404297
 20
24.68433570861817
 30
0.0
 40
0.0885826796293259
100
AcDbArc
 50
270.0
 51
90.0
  0
ARC
  5
158
330
1F
100
AcDbEntity
  8
1
  6
Continuous
 62
    18
370
    18
100
AcDbCircle
 10
30.84508514404297
 20
25.30933570861817
 30
0.0
 40
0.0885826796293259
100
AcDbArc
 50
270.0
 51
90.0
  0
ARC
  5
159
330
1F
100
AcDbEntity
  8
1
  6
Continuous
 62
    18
370
    18
100
AcDbCircle
 10
30.84508514404297
 20
25.93433570861817
 30
0.0
 40
0.0885826796293259
100
AcDbArc
 50
270.0
 51
90.0
  0
ARC
  5
15A
330
1F
100
AcDbEntity
  8
1
  6
Continuous
 62
    18
370
    18
100
AcDbCircle
 10
30.84508514404297
 20
26.43433570861816
 30
0.0
 40
0.0885826796293259
100
AcDbArc
 50
270.0
 51
90.0
  0
ARC
  5
15B
330
1F
100
AcDbEntity
  8
1
  6
Continuous
 62
    18
370
    18
100
AcDbCircle
 10
30.84508514404297
 20
27.05933570861816
 30
0.0
 40
0.0885826796293259
100
AcDbArc
 50
270.0
 51
90.0
  0
ARC
  5
15C
330
1F
100
AcDbEntity
  8
1
  6
Continuous
 62
    18
370
    18
100
AcDbCircle
 10
30.84508514404297
 20
27.68433570861816
 30
0.0
 40
0.0885826796293259
100
AcDbArc
 50
270.0
 51
90.0
  0
ARC
  5
15D
330
1F
100
AcDbEntity
  8
1
  6
Continuous
 62
    18
370
    18
100
AcDbCircle
 10
30.84508514404297
 20
28.18433570861817
 30
0.0
 40
0.0885826796293259
100
AcDbArc
 50
270.0
 51
90.0
  0
ARC
  5
15E
330
1F
100
AcDbEntity
  8
1
  6
Continuous
 62
    18
370
    18
100
AcDbCircle
 10
30.84508514404297
 20
28.80933570861817
 30
0.0
 40
0.0885826796293259
100
AcDbArc
 50
270.0
 51
90.0
  0
ARC
  5
15F
330
1F
100
AcDbEntity
  8
1
  6
Continuous
 62
    18
370
    18
100
AcDbCircle
 10
30.84508514404297
 20
29.43433570861817
 30
0.0
 40
0.0885826796293259
100
AcDbArc
 50
270.0
 51
90.0
  0
ARC
  5
160
330
1F
100
AcDbEntity
  8
1
  6
Continuous
 62
    18
370
    18
100
AcDbCircle
 10
30.84508514404297
 20
29.9343376159668
 30
0.0
 40
0.0885826796293259
100
AcDbArc
 50
270.0
 51
90.0
  0
ARC
  5
161
330
1F
100
AcDbEntity
  8
1
  6
Continuous
 62
    18
370
    18
100
AcDbCircle
 10
30.84508514404297
 20
31.1843376159668
 30
0.0
 40
0.0885826796293259
100
AcDbArc
 50
270.0
 51
90.0
  0
ARC
  5
162
330
1F
100
AcDbEntity
  8
1
  6
Continuous
 62
    18
370
    18
100
AcDbCircle
 10
30.84508514404297
 20
31.6843376159668
 30
0.0
 40
0.0885826796293259
100
AcDbArc
 50
270.0
 51
90.0
  0
ARC
  5
163
330
1F
100
AcDbEntity
  8
1
  6
Continuous
 62
    18
370
    18
100
AcDbCircle
 10
30.84508514404297
 20
32.3093376159668
 30
0.0
 40
0.0885826796293259
100
AcDbArc
 50
270.0
 51
90.0
  0
ARC
  5
164
330
1F
100
AcDbEntity
  8
1
  6
Continuous
 62
    18
370
    18
100
AcDbCircle
 10
30.84508514404297
 20
32.9343376159668
 30
0.0
 40
0.0885826796293259
100
AcDbArc
 50
270.0
 51
90.0
  0
ARC
  5
165
330
1F
100
AcDbEntity
  8
1
  6
Continuous
 62
    18
370
    18
100
AcDbCircle
 10
30.84508514404297
 20
33.4343376159668
 30
0.0
 40
0.0885826796293259
100
AcDbArc
 50
270.0
 51
90.0
  0
ARC
  5
166
330
1F
100
AcDbEntity
  8
1
  6
Continuous
 62
    18
370
    18
100
AcDbCircle
 10
30.84508514404297
 20
34.0593376159668
 30
0.0
 40
0.0885826796293259
100
AcDbArc
 50
270.0
 51
90.0
  0
ARC
  5
167
330
1F
100
AcDbEntity
  8
1
  6
Continuous
 62
    18
370
    18
100
AcDbCircle
 10
30.84508514404297
 20
34.6843376159668
 30
0.0
 40
0.0885826796293259
100
AcDbArc
 50
270.0
 51
90.0
  0
ARC
  5
168
330
1F
100
AcDbEntity
  8
1
  6
Continuous
 62
    18
370
    18
100
AcDbCircle
 10
30.84508514404297
 20
35.1843376159668
 30
0.0
 40
0.0885826796293259
100
AcDbArc
 50
270.0
 51
90.0
  0
ARC
  5
169
330
1F
100
AcDbEntity
  8
1
  6
Continuous
 62
    18
370
    18
100
AcDbCircle
 10
30.84508514404297
 20
35.8093376159668
 30
0.0
 40
0.0885826796293259
100
AcDbArc
 50
270.0
 51
90.0
  0
ARC
  5
16A
330
1F
100
AcDbEntity
  8
1
  6
Continuous
 62
    18
370
    18
100
AcDbCircle
 10
30.84508514404297
 20
36.4343376159668
 30
0.0
 40
0.0885826796293259
100
AcDbArc
 50
270.0
 51
90.0
  0
ARC
  5
16B
330
1F
100
AcDbEntity
  8
1
  6
Continuous
 62
    18
370
    18
100
AcDbCircle
 10
30.84508514404297
 20
36.9343376159668
 30
0.0
 40
0.0885826796293259
100
AcDbArc
 50
270.0
 51
90.0
  0
ARC
  5
16C
330
1F
100
AcDbEntity
  8
1
  6
Continuous
 62
    18
370
    18
100
AcDbCircle
 10
30.84508514404297
 20
37.5593376159668
 30
0.0
 40
0.0885826796293259
100
AcDbArc
 50
270.0
 51
90.0
  0
ARC
  5
16D
330
1F
100
AcDbEntity
  8
1
  6
Continuous
 62
    18
370
    18
100
AcDbCircle
 10
30.84508514404297
 20
38.1843376159668
 30
0.0
 40
0.0885826796293259
100
AcDbArc
 50
270.0
 51
90.0
  0
ARC
  5
16E
330
1F
100
AcDbEntity
  8
1
  6
Continuous
 62
    18
370
    18
100
AcDbCircle
 10
30.84508514404297
 20
38.6843376159668
 30
0.0
 40
0.0885826796293259
100
AcDbArc
 50
270.0
 51
90.0
  0
ARC
  5
16F
330
1F
100
AcDbEntity
  8
1
  6
Continuous
 62
    18
370
    18
100
AcDbCircle
 10
30.84508514404297
 20
39.3093376159668
 30
0.0
 40
0.0885826796293259
100
AcDbArc
 50
270.0
 51
90.0
  0
ARC
  5
170
330
1F
100
AcDbEntity
  8
1
  6
Continuous
 62
    18
370
    18
100
AcDbCircle
 10
30.84508514404297
 20
39.9343376159668
 30
0.0
 40
0.0885826796293259
100
AcDbArc
 50
270.0
 51
90.0
  0
ARC
  5
171
330
1F
100
AcDbEntity
  8
1
  6
Continuous
 62
    18
370
    18
100
AcDbCircle
 10
30.84508514404297
 20
40.4343376159668
 30
0.0
 40
0.0885826796293259
100
AcDbArc
 50
270.0
 51
90.0
  0
ARC
  5
172
330
1F
100
AcDbEntity
  8
1
  6
Continuous
 62
    18
370
    18
100
AcDbCircle
 10
30.84508514404297
 20
41.0593376159668
 30
0.0
 40
0.0885826796293259
100
AcDbArc
 50
270.0
 51
90.0
  0
ARC
  5
173
330
1F
100
AcDbEntity
  8
1
  6
Continuous
 62
    18
370
    18
100
AcDbCircle
 10
30.84508514404297
 20
41.6843376159668
 30
0.0
 40
0.0885826796293259
100
AcDbArc
 50
270.0
 51
90.0
  0
ARC
  5
174
330
1F
100
AcDbEntity
  8
1
  6
Continuous
 62
    18
370
    18
100
AcDbCircle
 10
30.84508514404297
 20
42.1843376159668
 30
0.0
 40
0.0885826796293259
100
AcDbArc
 50
270.0
 51
90.0
  0
ARC
  5
175
330
1F
100
AcDbEntity
  8
1
  6
Continuous
 62
    18
370
    18
100
AcDbCircle
 10
30.84508514404297
 20
42.8093376159668
 30
0.0
 40
0.0885826796293259
100
AcDbArc
 50
270.0
 51
90.0
  0
ARC
  5
176
330
1F
100
AcDbEntity
  8
1
  6
Continuous
 62
    18
370
    18
100
AcDbCircle
 10
30.84508514404297
 20
43.4343376159668
 30
0.0
 40
0.0885826796293259
100
AcDbArc
 50
270.0
 51
90.0
  0
ARC
  5
177
330
1F
100
AcDbEntity
  8
1
  6
Continuous
 62
    18
370
    18
100
AcDbCircle
 10
30.92382621765137
 20
17.58588218688965
 30
0.0
 40
0.1968504041433334
100
AcDbArc
 50
270.0
 51
0.0
  0
ARC
  5
178
330
1F
100
AcDbEntity
  8
1
  6
Continuous
 62
    18
370
    18
100
AcDbCircle
 10
30.92382621765137
 20
48.78268814086914
 30
0.0
 40
0.1968504041433334
100
AcDbArc
 50
0.0
 51
90.0
  0
ARC
  5
179
330
1F
100
AcDbEntity
  8
1
  6
Continuous
 62
    18
370
    18
100
AcDbCircle
 10
30.84508514404297
 20
30.5593376159668
 30
0.0
 40
0.0885826796293259
100
AcDbArc
 50
270.0
 51
90.0
  0
ARC
  5
17A
330
1F
100
AcDbEntity
  8
1
  6
Continuous
 62
    18
370
    18
100
AcDbCircle
 10
30.84508514404297
 20
43.93433761596679
 30
0.0
 40
0.0885826796293259
100
AcDbArc
 50
90.0
 51
270.0
  0
ARC
  5
17B
330
1F
100
AcDbEntity
  8
1
  6
Continuous
 62
    18
370
    18
100
AcDbCircle
 10
30.84508514404297
 20
44.55933761596679
 30
0.0
 40
0.0885826796293259
100
AcDbArc
 50
90.0
 51
270.0
  0
ARC
  5
17C
330
1F
100
AcDbEntity
  8
1
  6
Continuous
 62
    18
370
    18
100
AcDbCircle
 10
30.84508514404297
 20
45.18433761596679
 30
0.0
 40
0.0885826796293259
100
AcDbArc
 50
90.0
 51
270.0
  0
ARC
  5
17D
330
1F
100
AcDbEntity
  8
1
  6
Continuous
 62
    18
370
    18
100
AcDbCircle
 10
30.84508514404297
 20
45.68433761596679
 30
0.0
 40
0.0885826796293259
100
AcDbArc
 50
90.0
 51
270.0
  0
ARC
  5
17E
330
1F
100
AcDbEntity
  8
1
  6
Continuous
 62
    18
370
    18
100
AcDbCircle
 10
30.84508514404297
 20
46.30933761596679
 30
0.0
 40
0.0885826796293259
100
AcDbArc
 50
90.0
 51
270.0
  0
ARC
  5
17F
330
1F
100
AcDbEntity
  8
1
  6
Continuous
 62
    18
370
    18
100
AcDbCircle
 10
30.84508514404297
 20
46.93433761596679
 30
0.0
 40
0.0885826796293259
100
AcDbArc
 50
90.0
 51
270.0
  0
ARC
  5
180
330
1F
100
AcDbEntity
  8
1
  6
Continuous
 62
    18
370
    18
100
AcDbCircle
 10
30.84508514404297
 20
47.43433761596679
 30
0.0
 40
0.0885826796293259
100
AcDbArc
 50
90.0
 51
270.0
  0
ARC
  5
181
330
1F
100
AcDbEntity
  8
1
  6
Continuous
 62
    18
370
    18
100
AcDbCircle
 10
30.84508514404297
 20
48.0593376159668
 30
0.0
 40
0.0885826796293259
100
AcDbArc
 50
90.0
 51
270.0
  0
ARC
  5
182
330
1F
100
AcDbEntity
  8
1
  6
Continuous
 62
    18
370
    18
100
AcDbCircle
 10
30.84508514404297
 20
48.6843376159668
 30
0.0
 40
0.0885826796293259
100
AcDbArc
 50
90.0
 51
270.0
  0
ARC
  5
183
330
1F
100
AcDbEntity
  8
1
  6
Continuous
 62
    18
370
    18
100
AcDbCircle
 10
30.84508514404297
 20
21.18433570861816
 30
0.0
 40
0.0885826796293259
100
AcDbArc
 50
90.0
 51
270.0
  0
ARC
  5
184
330
1F
100
AcDbEntity
  8
1
  6
Continuous
 62
    18
370
    18
100
AcDbCircle
 10
30.84508514404297
 20
21.80933570861816
 30
0.0
 40
0.0885826796293259
100
AcDbArc
 50
90.0
 51
270.0
  0
ARC
  5
185
330
1F
100
AcDbEntity
  8
1
  6
Continuous
 62
    18
370
    18
100
AcDbCircle
 10
30.84508514404297
 20
22.43433570861816
 30
0.0
 40
0.0885826796293259
100
AcDbArc
 50
90.0
 51
270.0
  0
ARC
  5
186
330
1F
100
AcDbEntity
  8
1
  6
Continuous
 62
    18
370
    18
100
AcDbCircle
 10
30.84508514404297
 20
19.43433570861816
 30
0.0
 40
0.0885826796293259
100
AcDbArc
 50
90.0
 51
270.0
  0
ARC
  5
187
330
1F
100
AcDbEntity
  8
1
  6
Continuous
 62
    18
370
    18
100
AcDbCircle
 10
30.84508514404297
 20
20.05933570861817
 30
0.0
 40
0.0885826796293259
100
AcDbArc
 50
90.0
 51
270.0
  0
ARC
  5
188
330
1F
100
AcDbEntity
  8
1
  6
Continuous
 62
    18
370
    18
100
AcDbCircle
 10
30.84508514404297
 20
20.68433570861817
 30
0.0
 40
0.0885826796293259
100
AcDbArc
 50
90.0
 51
270.0
  0
ARC
  5
189
330
1F
100
AcDbEntity
  8
1
  6
Continuous
 62
    18
370
    18
100
AcDbCircle
 10
30.84508514404297
 20
17.68433570861816
 30
0.0
 40
0.0885826796293259
100
AcDbArc
 50
90.0
 51
270.0
  0
ARC
  5
18A
330
1F
100
AcDbEntity
  8
1
  6
Continuous
 62
    18
370
    18
100
AcDbCircle
 10
30.84508514404297
 20
18.30933570861816
 30
0.0
 40
0.0885826796293259
100
AcDbArc
 50
90.0
 51
270.0
  0
ARC
  5
18B
330
1F
100
AcDbEntity
  8
1
  6
Continuous
 62
    18
370
    18
100
AcDbCircle
 10
30.84508514404297
 20
18.93433570861816
 30
0.0
 40
0.0885826796293259
100
AcDbArc
 50
90.0
 51
270.0
  0
ARC
  5
18C
330
1F
100
AcDbEntity
  8
1
  6
Continuous
 62
    18
370
    18
100
AcDbCircle
 10
30.84508514404297
 20
22.93433570861816
 30
0.0
 40
0.0885826796293259
100
AcDbArc
 50
90.0
 51
270.0
  0
ARC
  5
18D
330
1F
100
AcDbEntity
  8
1
  6
Continuous
 62
    18
370
    18
100
AcDbCircle
 10
30.84508514404297
 20
23.55933570861816
 30
0.0
 40
0.0885826796293259
100
AcDbArc
 50
90.0
 51
270.0
  0
ARC
  5
18E
330
1F
100
AcDbEntity
  8
1
  6
Continuous
 62
    18
370
    18
100
AcDbCircle
 10
30.84508514404297
 20
24.18433570861817
 30
0.0
 40
0.0885826796293259
100
AcDbArc
 50
90.0
 51
270.0
  0
ARC
  5
18F
330
1F
100
AcDbEntity
  8
1
  6
Continuous
 62
    18
370
    18
100
AcDbCircle
 10
30.84508514404297
 20
24.68433570861817
 30
0.0
 40
0.0885826796293259
100
AcDbArc
 50
90.0
 51
270.0
  0
ARC
  5
190
330
1F
100
AcDbEntity
  8
1
  6
Continuous
 62
    18
370
    18
100
AcDbCircle
 10
30.84508514404297
 20
25.30933570861817
 30
0.0
 40
0.0885826796293259
100
AcDbArc
 50
90.0
 51
270.0
  0
ARC
  5
191
330
1F
100
AcDbEntity
  8
1
  6
Continuous
 62
    18
370
    18
100
AcDbCircle
 10
30.84508514404297
 20
25.93433570861817
 30
0.0
 40
0.0885826796293259
100
AcDbArc
 50
90.0
 51
270.0
  0
ARC
  5
192
330
1F
100
AcDbEntity
  8
1
  6
Continuous
 62
    18
370
    18
100
AcDbCircle
 10
30.84508514404297
 20
26.43433570861816
 30
0.0
 40
0.0885826796293259
100
AcDbArc
 50
90.0
 51
270.0
  0
ARC
  5
193
330
1F
100
AcDbEntity
  8
1
  6
Continuous
 62
    18
370
    18
100
AcDbCircle
 10
30.84508514404297
 20
27.05933570861816
 30
0.0
 40
0.0885826796293259
100
AcDbArc
 50
90.0
 51
270.0
  0
ARC
  5
194
330
1F
100
AcDbEntity
  8
1
  6
Continuous
 62
    18
370
    18
100
AcDbCircle
 10
30.84508514404297
 20
27.68433570861816
 30
0.0
 40
0.0885826796293259
100
AcDbArc
 50
90.0
 51
270.0
  0
ARC
  5
195
330
1F
100
AcDbEntity
  8
1
  6
Continuous
 62
    18
370
    18
100
AcDbCircle
 10
30.84508514404297
 20
28.18433570861817
 30
0.0
 40
0.0885826796293259
100
AcDbArc
 50
90.0
 51
270.0
  0
ARC
  5
196
330
1F
100
AcDbEntity
  8
1
  6
Continuous
 62
    18
370
    18
100
AcDbCircle
 10
30.84508514404297
 20
28.80933570861817
 30
0.0
 40
0.0885826796293259
100
AcDbArc
 50
90.0
 51
270.0
  0
ARC
  5
197
330
1F
100
AcDbEntity
  8
1
  6
Continuous
 62
    18
370
    18
100
AcDbCircle
 10
30.84508514404297
 20
29.43433570861817
 30
0.0
 40
0.0885826796293259
100
AcDbArc
 50
90.0
 51
270.0
  0
ARC
  5
198
330
1F
100
AcDbEntity
  8
1
  6
Continuous
 62
    18
370
    18
100
AcDbCircle
 10
30.84508514404297
 20
29.9343376159668
 30
0.0
 40
0.0885826796293259
100
AcDbArc
 50
90.0
 51
270.0
  0
ARC
  5
199
330
1F
100
AcDbEntity
  8
1
  6
Continuous
 62
    18
370
    18
100
AcDbCircle
 10
30.84508514404297
 20
30.5593376159668
 30
0.0
 40
0.0885826796293259
100
AcDbArc
 50
90.0
 51
270.0
  0
ARC
  5
19A
330
1F
100
AcDbEntity
  8
1
  6
Continuous
 62
    18
370
    18
100
AcDbCircle
 10
30.84508514404297
 20
31.1843376159668
 30
0.0
 40
0.0885826796293259
100
AcDbArc
 50
90.0
 51
270.0
  0
ARC
  5
19B
330
1F
100
AcDbEntity
  8
1
  6
Continuous
 62
    18
370
    18
100
AcDbCircle
 10
30.84508514404297
 20
31.6843376159668
 30
0.0
 40
0.0885826796293259
100
AcDbArc
 50
90.0
 51
270.0
  0
ARC
  5
19C
330
1F
100
AcDbEntity
  8
1
  6
Continuous
 62
    18
370
    18
100
AcDbCircle
 10
30.84508514404297
 20
32.3093376159668
 30
0.0
 40
0.0885826796293259
100
AcDbArc
 50
90.0
 51
270.0
  0
ARC
  5
19D
330
1F
100
AcDbEntity
  8
1
  6
Continuous
 62
    18
370
    18
100
AcDbCircle
 10
30.84508514404297
 20
32.9343376159668
 30
0.0
 40
0.0885826796293259
100
AcDbArc
 50
90.0
 51
270.0
  0
ARC
  5
19E
330
1F
100
AcDbEntity
  8
1
  6
Continuous
 62
    18
370
    18
100
AcDbCircle
 10
30.84508514404297
 20
33.4343376159668
 30
0.0
 40
0.0885826796293259
100
AcDbArc
 50
90.0
 51
270.0
  0
ARC
  5
19F
330
1F
100
AcDbEntity
  8
1
  6
Continuous
 62
    18
370
    18
100
AcDbCircle
 10
30.84508514404297
 20
34.0593376159668
 30
0.0
 40
0.0885826796293259
100
AcDbArc
 50
90.0
 51
270.0
  0
ARC
  5
1A0
330
1F
100
AcDbEntity
  8
1
  6
Continuous
 62
    18
370
    18
100
AcDbCircle
 10
30.84508514404297
 20
34.6843376159668
 30
0.0
 40
0.0885826796293259
100
AcDbArc
 50
90.0
 51
270.0
  0
ARC
  5
1A1
330
1F
100
AcDbEntity
  8
1
  6
Continuous
 62
    18
370
    18
100
AcDbCircle
 10
30.84508514404297
 20
35.1843376159668
 30
0.0
 40
0.0885826796293259
100
AcDbArc
 50
90.0
 51
270.0
  0
ARC
  5
1A2
330
1F
100
AcDbEntity
  8
1
  6
Continuous
 62
    18
370
    18
100
AcDbCircle
 10
30.84508514404297
 20
35.8093376159668
 30
0.0
 40
0.0885826796293259
100
AcDbArc
 50
90.0
 51
270.0
  0
ARC
  5
1A3
330
1F
100
AcDbEntity
  8
1
  6
Continuous
 62
    18
370
    18
100
AcDbCircle
 10
30.84508514404297
 20
36.4343376159668
 30
0.0
 40
0.0885826796293259
100
AcDbArc
 50
90.0
 51
270.0
  0
ARC
  5
1A4
330
1F
100
AcDbEntity
  8
1
  6
Continuous
 62
    18
370
    18
100
AcDbCircle
 10
30.84508514404297
 20
36.9343376159668
 30
0.0
 40
0.0885826796293259
100
AcDbArc
 50
90.0
 51
270.0
  0
ARC
  5
1A5
330
1F
100
AcDbEntity
  8
1
  6
Continuous
 62
    18
370
    18
100
AcDbCircle
 10
30.84508514404297
 20
37.5593376159668
 30
0.0
 40
0.0885826796293259
100
AcDbArc
 50
90.0
 51
270.0
  0
ARC
  5
1A6
330
1F
100
AcDbEntity
  8
1
  6
Continuous
 62
    18
370
    18
100
AcDbCircle
 10
30.84508514404297
 20
38.1843376159668
 30
0.0
 40
0.0885826796293259
100
AcDbArc
 50
90.0
 51
270.0
  0
ARC
  5
1A7
330
1F
100
AcDbEntity
  8
1
  6
Continuous
 62
    18
370
    18
100
AcDbCircle
 10
30.84508514404297
 20
38.6843376159668
 30
0.0
 40
0.0885826796293259
100
AcDbArc
 50
90.0
 51
270.0
  0
ARC
  5
1A8
330
1F
100
AcDbEntity
  8
1
  6
Continuous
 62
    18
370
    18
100
AcDbCircle
 10
30.84508514404297
 20
39.3093376159668
 30
0.0
 40
0.0885826796293259
100
AcDbArc
 50
90.0
 51
270.0
  0
ARC
  5
1A9
330
1F
100
AcDbEntity
  8
1
  6
Continuous
 62
    18
370
    18
100
AcDbCircle
 10
30.84508514404297
 20
39.9343376159668
 30
0.0
 40
0.0885826796293259
100
AcDbArc
 50
90.0
 51
270.0
  0
ARC
  5
1AA
330
1F
100
AcDbEntity
  8
1
  6
Continuous
 62
    18
370
    18
100
AcDbCircle
 10
30.84508514404297
 20
40.4343376159668
 30
0.0
 40
0.0885826796293259
100
AcDbArc
 50
90.0
 51
270.0
  0
ARC
  5
1AB
330
1F
100
AcDbEntity
  8
1
  6
Continuous
 62
    18
370
    18
100
AcDbCircle
 10
30.84508514404297
 20
41.0593376159668
 30
0.0
 40
0.0885826796293259
100
AcDbArc
 50
90.0
 51
270.0
  0
ARC
  5
1AC
330
1F
100
AcDbEntity
  8
1
  6
Continuous
 62
    18
370
    18
100
AcDbCircle
 10
30.84508514404297
 20
41.6843376159668
 30
0.0
 40
0.0885826796293259
100
AcDbArc
 50
90.0
 51
270.0
  0
ARC
  5
1AD
330
1F
100
AcDbEntity
  8
1
  6
Continuous
 62
    18
370
    18
100
AcDbCircle
 10
30.84508514404297
 20
42.1843376159668
 30
0.0
 40
0.0885826796293259
100
AcDbArc
 50
90.0
 51
270.0
  0
ARC
  5
1AE
330
1F
100
AcDbEntity
  8
1
  6
Continuous
 62
    18
370
    18
100
AcDbCircle
 10
30.84508514404297
 20
42.8093376159668
 30
0.0
 40
0.0885826796293259
100
AcDbArc
 50
90.0
 51
270.0
  0
ARC
  5
1AF
330
1F
100
AcDbEntity
  8
1
  6
Continuous
 62
    18
370
    18
100
AcDbCircle
 10
30.84508514404297
 20
43.4343376159668
 30
0.0
 40
0.0885826796293259
100
AcDbArc
 50
90.0
 51
270.0
  0
ARC
  5
1B0
330
1F
100
AcDbEntity
  8
1
  6
Continuous
 62
    18
370
    18
100
AcDbCircle
 10
30.84508514404297
 20
20.05933570861817
 30
0.0
 40
0.0885826796293259
100
AcDbArc
 50
270.0
 51
90.0
  0
ARC
  5
1B1
330
1F
100
AcDbEntity
  8
1
  6
Continuous
 62
    18
370
    18
100
AcDbCircle
 10
30.84508514404297
 20
19.43433570861816
 30
0.0
 40
0.0885826796293259
100
AcDbArc
 50
270.0
 51
90.0
  0
ARC
  5
1B2
330
1F
100
AcDbEntity
  8
1
  6
Continuous
 62
    18
370
    18
100
AcDbCircle
 10
30.84508514404297
 20
22.43433570861816
 30
0.0
 40
0.0885826796293259
100
AcDbArc
 50
270.0
 51
90.0
  0
ARC
  5
1B3
330
1F
100
AcDbEntity
  8
1
  6
Continuous
 62
    18
370
    18
100
AcDbCircle
 10
30.84508514404297
 20
21.80933570861816
 30
0.0
 40
0.0885826796293259
100
AcDbArc
 50
270.0
 51
90.0
  0
ARC
  5
1B4
330
1F
100
AcDbEntity
  8
1
  6
Continuous
 62
    18
370
    18
100
AcDbCircle
 10
16.44380950927734
 20
17.58588218688965
 30
0.0
 40
0.1968504041433334
100
AcDbArc
 50
180.0
 51
270.0
  0
ARC
  5
1B5
330
1F
100
AcDbEntity
  8
1
  6
Continuous
 62
    18
370
    18
100
AcDbCircle
 10
16.44380950927734
 20
48.78268814086914
 30
0.0
 40
0.1968504041433334
100
AcDbArc
 50
90.0
 51
180.0
  0
ARC
  5
1B6
330
1F
100
AcDbEntity
  8
1
  6
Continuous
 62
    18
370
    18
100
AcDbCircle
 10
16.56295013427734
 20
30.63113594055176
 30
0.0
 40
0.1377952694892883
100
AcDbArc
 50
0.0
 51
180.0
  0
ARC
  5
1B7
330
1F
100
AcDbEntity
  8
1
  6
Continuous
 62
    18
370
    18
100
AcDbCircle
 10
16.56295013427734
 20
30.48546600341797
 30
0.0
 40
0.1377952694892883
100
AcDbArc
 50
180.0
 51
270.0
  0
ARC
  5
1B8
330
1F
100
AcDbEntity
  8
1
  6
Continuous
 62
    18
370
    18
100
AcDbCircle
 10
16.56295013427734
 20
47.98623275756836
 30
0.0
 40
0.1377952694892883
100
AcDbArc
 50
180.0
 51
270.0
  0
ARC
  5
1B9
330
1F
100
AcDbEntity
  8
1
  6
Continuous
 62
    18
370
    18
100
AcDbCircle
 10
16.56295013427734
 20
48.13190078735352
 30
0.0
 40
0.1377952694892883
100
AcDbArc
 50
0.0
 51
180.0
  0
ARC
  5
1BA
330
1F
100
AcDbEntity
  8
1
  6
Continuous
 62
    18
370
    18
100
AcDbCircle
 10
16.56295013427734
 20
18.38233947753906
 30
0.0
 40
0.1377952694892883
100
AcDbArc
 50
0.0
 51
180.0
  0
ARC
  5
1BB
330
1F
100
AcDbEntity
  8
1
  6
Continuous
 62
    18
370
    18
100
AcDbCircle
 10
16.56295013427734
 20
35.73743438720703
 30
0.0
 40
0.1377952694892883
100
AcDbArc
 50
180.0
 51
270.0
  0
ARC
  5
1BC
330
1F
100
AcDbEntity
  8
1
  6
Continuous
 62
    18
370
    18
100
AcDbCircle
 10
16.56295013427734
 20
35.88310241699219
 30
0.0
 40
0.1377952694892883
100
AcDbArc
 50
0.0
 51
180.0
  0
ARC
  5
1BD
330
1F
100
AcDbEntity
  8
1
  6
Continuous
 62
    18
370
    18
100
AcDbCircle
 10
16.56295013427734
 20
18.23666954040527
 30
0.0
 40
0.1377952694892883
100
AcDbArc
 50
180.0
 51
270.0
  0
ARC
  5
1BE
330
1F
100
AcDbEntity
  8
1
  6
Continuous
 62
    18
370
    18
100
AcDbCircle
 10
16.56295013427734
 20
47.98623275756836
 30
0.0
 40
0.1377952694892883
100
AcDbArc
 50
270.0
 51
0.0
  0
ARC
  5
1BF
330
1F
100
AcDbEntity
  8
1
  6
Continuous
 62
    18
370
    18
100
AcDbCircle
 10
16.56295013427734
 20
18.23666954040527
 30
0.0
 40
0.1377952694892883
100
AcDbArc
 50
270.0
 51
0.0
  0
ARC
  5
1C0
330
1F
100
AcDbEntity
  8
1
  6
Continuous
 62
    18
370
    18
100
AcDbCircle
 10
16.56295013427734
 20
35.73743438720703
 30
0.0
 40
0.1377952694892883
100
AcDbArc
 50
270.0
 51
0.0
  0
ARC
  5
1C1
330
1F
100
AcDbEntity
  8
1
  6
Continuous
 62
    18
370
    18
100
AcDbCircle
 10
16.56295013427734
 20
30.48546600341797
 30
0.0
 40
0.1377952694892883
100
AcDbArc
 50
270.0
 51
0.0
  0
ARC
  5
1C2
330
1F
100
AcDbEntity
  8
1
  6
Continuous
 62
    18
370
    18
100
AcDbCircle
 10
37.09350967407227
 20
55.19207763671875
 30
0.0
 40
0.125984251499176
100
AcDbArc
 50
270.0
 51
0.0
  0
ARC
  5
1C3
330
1F
100
AcDbEntity
  8
1
  6
Continuous
 62
    18
370
    18
100
AcDbCircle
 10
37.09350967407227
 20
55.19207763671875
 30
0.0
 40
0.0078740157186985
100
AcDbArc
 50
270.0
 51
0.0
  0
ARC
  5
1C4
330
1F
100
AcDbEntity
  8
1
  6
Continuous
 62
    18
370
    18
100
AcDbCircle
 10
29.94547843933105
 20
55.19207763671875
 30
0.0
 40
0.125984251499176
100
AcDbArc
 50
180.0
 51
270.0
  0
ARC
  5
1C5
330
1F
100
AcDbEntity
  8
1
  6
Continuous
 62
    18
370
    18
100
AcDbCircle
 10
29.94547843933105
 20
55.19207763671875
 30
0.0
 40
0.0078740157186985
100
AcDbArc
 50
180.0
 51
270.0
  0
ARC
  5
1C6
330
1F
100
AcDbEntity
  8
1
  6
Continuous
 62
    18
370
    18
100
AcDbCircle
 10
37.09350967407227
 20
10.5420503616333
 30
0.0
 40
0.125984251499176
100
AcDbArc
 50
0.0
 51
90.0
  0
ARC
  5
1C7
330
1F
100
AcDbEntity
  8
1
  6
Continuous
 62
    18
370
    18
100
AcDbCircle
 10
37.09350967407227
 20
10.5420503616333
 30
0.0
 40
0.0078740157186985
100
AcDbArc
 50
0.0
 51
90.0
  0
ARC
  5
1C8
330
1F
100
AcDbEntity
  8
1
  6
Continuous
 62
    18
370
    18
100
AcDbCircle
 10
29.94547843933105
 20
10.5420503616333
 30
0.0
 40
0.125984251499176
100
AcDbArc
 50
90.0
 51
180.0
  0
ARC
  5
1C9
330
1F
100
AcDbEntity
  8
1
  6
Continuous
 62
    18
370
    18
100
AcDbCircle
 10
29.94547843933105
 20
10.5420503616333
 30
0.0
 40
0.0078740157186985
100
AcDbArc
 50
90.0
 51
180.0
  0
ARC
  5
1CA
330
1F
100
AcDbEntity
  8
1
  6
Continuous
 62
    18
370
    18
100
AcDbCircle
 10
53.40486907958984
 20
48.78268814086914
 30
0.0
 40
0.1968504041433334
100
AcDbArc
 50
0.0
 51
90.0
  0
ARC
  5
1CB
330
1F
100
AcDbEntity
  8
1
  6
Continuous
 62
    18
370
    18
100
AcDbCircle
 10
53.40486907958984
 20
17.58588218688965
 30
0.0
 40
0.1968504041433334
100
AcDbArc
 50
270.0
 51
0.0
  0
ARC
  5
1CC
330
1F
100
AcDbEntity
  8
1
  6
Continuous
 62
    18
370
    18
100
AcDbCircle
 10
53.28572463989257
 20
35.73743438720703
 30
0.0
 40
0.1377952694892883
100
AcDbArc
 50
180.0
 51
0.0
  0
ARC
  5
1CD
330
1F
100
AcDbEntity
  8
1
  6
Continuous
 62
    18
370
    18
100
AcDbCircle
 10
53.28572463989257
 20
35.88310241699219
 30
0.0
 40
0.1377952694892883
100
AcDbArc
 50
0.0
 51
90.0
  0
ARC
  5
1CE
330
1F
100
AcDbEntity
  8
1
  6
Continuous
 62
    18
370
    18
100
AcDbCircle
 10
53.28572463989257
 20
18.23666954040527
 30
0.0
 40
0.1377952694892883
100
AcDbArc
 50
180.0
 51
0.0
  0
ARC
  5
1CF
330
1F
100
AcDbEntity
  8
1
  6
Continuous
 62
    18
370
    18
100
AcDbCircle
 10
53.28572463989257
 20
47.98623275756836
 30
0.0
 40
0.1377952694892883
100
AcDbArc
 50
180.0
 51
0.0
  0
ARC
  5
1D0
330
1F
100
AcDbEntity
  8
1
  6
Continuous
 62
    18
370
    18
100
AcDbCircle
 10
53.28572463989257
 20
30.63113594055176
 30
0.0
 40
0.1377952694892883
100
AcDbArc
 50
0.0
 51
90.0
  0
ARC
  5
1D1
330
1F
100
AcDbEntity
  8
1
  6
Continuous
 62
    18
370
    18
100
AcDbCircle
 10
53.28572463989257
 20
30.48546600341797
 30
0.0
 40
0.1377952694892883
100
AcDbArc
 50
180.0
 51
0.0
  0
ARC
  5
1D2
330
1F
100
AcDbEntity
  8
1
  6
Continuous
 62
    18
370
    18
100
AcDbCircle
 10
53.28572463989257
 20
48.13190078735352
 30
0.0
 40
0.1377952694892883
100
AcDbArc
 50
0.0
 51
90.0
  0
ARC
  5
1D3
330
1F
100
AcDbEntity
  8
1
  6
Continuous
 62
    18
370
    18
100
AcDbCircle
 10
53.28572463989257
 20
18.38233947753906
 30
0.0
 40
0.1377952694892883
100
AcDbArc
 50
0.0
 51
90.0
  0
ARC
  5
1D4
330
1F
100
AcDbEntity
  8
1
  6
Continuous
 62
    18
370
    18
100
AcDbCircle
 10
53.28572463989257
 20
35.88310241699219
 30
0.0
 40
0.1377952694892883
100
AcDbArc
 50
90.0
 51
180.0
  0
ARC
  5
1D5
330
1F
100
AcDbEntity
  8
1
  6
Continuous
 62
    18
370
    18
100
AcDbCircle
 10
53.28572463989257
 20
18.38233947753906
 30
0.0
 40
0.1377952694892883
100
AcDbArc
 50
90.0
 51
180.0
  0
ARC
  5
1D6
330
1F
100
AcDbEntity
  8
1
  6
Continuous
 62
    18
370
    18
100
AcDbCircle
 10
53.28572463989257
 20
48.13190078735352
 30
0.0
 40
0.1377952694892883
100
AcDbArc
 50
90.0
 51
180.0
  0
ARC
  5
1D7
330
1F
100
AcDbEntity
  8
1
  6
Continuous
 62
    18
370
    18
100
AcDbCircle
 10
53.28572463989257
 20
30.63113594055176
 30
0.0
 40
0.1377952694892883
100
AcDbArc
 50
90.0
 51
180.0
  0
ARC
  5
1D8
330
1F
100
AcDbEntity
  8
1
  6
Continuous
 62
    18
370
    18
100
AcDbCircle
 10
73.89673614501953
 20
46.30923461914062
 30
0.0
 40
0.0885826796293259
100
AcDbArc
 50
90.0
 51
270.0
  0
ARC
  5
1D9
330
1F
100
AcDbEntity
  8
1
  6
Continuous
 62
    18
370
    18
100
AcDbCircle
 10
73.89673614501953
 20
46.93423461914062
 30
0.0
 40
0.0885826796293259
100
AcDbArc
 50
90.0
 51
270.0
  0
ARC
  5
1DA
330
1F
100
AcDbEntity
  8
1
  6
Continuous
 62
    18
370
    18
100
AcDbCircle
 10
73.89673614501953
 20
43.93423461914062
 30
0.0
 40
0.0885826796293259
100
AcDbArc
 50
90.0
 51
270.0
  0
ARC
  5
1DB
330
1F
100
AcDbEntity
  8
1
  6
Continuous
 62
    18
370
    18
100
AcDbCircle
 10
73.89673614501953
 20
44.55923461914062
 30
0.0
 40
0.0885826796293259
100
AcDbArc
 50
90.0
 51
270.0
  0
ARC
  5
1DC
330
1F
100
AcDbEntity
  8
1
  6
Continuous
 62
    18
370
    18
100
AcDbCircle
 10
73.89673614501953
 20
45.18423461914062
 30
0.0
 40
0.0885826796293259
100
AcDbArc
 50
90.0
 51
270.0
  0
ARC
  5
1DD
330
1F
100
AcDbEntity
  8
1
  6
Continuous
 62
    18
370
    18
100
AcDbCircle
 10
73.89673614501953
 20
17.68423461914062
 30
0.0
 40
0.0885826796293259
100
AcDbArc
 50
90.0
 51
270.0
  0
ARC
  5
1DE
330
1F
100
AcDbEntity
  8
1
  6
Continuous
 62
    18
370
    18
100
AcDbCircle
 10
73.89673614501953
 20
17.68423461914062
 30
0.0
 40
0.0885826796293259
100
AcDbArc
 50
270.0
 51
90.0
  0
ARC
  5
1DF
330
1F
100
AcDbEntity
  8
1
  6
Continuous
 62
    18
370
    18
100
AcDbCircle
 10
73.89673614501953
 20
18.30923461914062
 30
0.0
 40
0.0885826796293259
100
AcDbArc
 50
90.0
 51
270.0
  0
ARC
  5
1E0
330
1F
100
AcDbEntity
  8
1
  6
Continuous
 62
    18
370
    18
100
AcDbCircle
 10
73.89673614501953
 20
18.93423461914062
 30
0.0
 40
0.0885826796293259
100
AcDbArc
 50
90.0
 51
270.0
  0
ARC
  5
1E1
330
1F
100
AcDbEntity
  8
1
  6
Continuous
 62
    18
370
    18
100
AcDbCircle
 10
73.89673614501953
 20
18.93423461914062
 30
0.0
 40
0.0885826796293259
100
AcDbArc
 50
270.0
 51
90.0
  0
ARC
  5
1E2
330
1F
100
AcDbEntity
  8
1
  6
Continuous
 62
    18
370
    18
100
AcDbCircle
 10
73.89673614501953
 20
19.43423461914062
 30
0.0
 40
0.0885826796293259
100
AcDbArc
 50
90.0
 51
270.0
  0
ARC
  5
1E3
330
1F
100
AcDbEntity
  8
1
  6
Continuous
 62
    18
370
    18
100
AcDbCircle
 10
73.89673614501953
 20
19.43423461914062
 30
0.0
 40
0.0885826796293259
100
AcDbArc
 50
270.0
 51
90.0
  0
ARC
  5
1E4
330
1F
100
AcDbEntity
  8
1
  6
Continuous
 62
    18
370
    18
100
AcDbCircle
 10
73.89673614501953
 20
20.05923461914063
 30
0.0
 40
0.0885826796293259
100
AcDbArc
 50
90.0
 51
270.0
  0
ARC
  5
1E5
330
1F
100
AcDbEntity
  8
1
  6
Continuous
 62
    18
370
    18
100
AcDbCircle
 10
73.89673614501953
 20
20.05923461914063
 30
0.0
 40
0.0885826796293259
100
AcDbArc
 50
270.0
 51
90.0
  0
ARC
  5
1E6
330
1F
100
AcDbEntity
  8
1
  6
Continuous
 62
    18
370
    18
100
AcDbCircle
 10
73.89673614501953
 20
20.68423461914063
 30
0.0
 40
0.0885826796293259
100
AcDbArc
 50
90.0
 51
270.0
  0
ARC
  5
1E7
330
1F
100
AcDbEntity
  8
1
  6
Continuous
 62
    18
370
    18
100
AcDbCircle
 10
73.89673614501953
 20
20.68423461914063
 30
0.0
 40
0.0885826796293259
100
AcDbArc
 50
270.0
 51
90.0
  0
ARC
  5
1E8
330
1F
100
AcDbEntity
  8
1
  6
Continuous
 62
    18
370
    18
100
AcDbCircle
 10
73.89673614501953
 20
21.18423461914062
 30
0.0
 40
0.0885826796293259
100
AcDbArc
 50
90.0
 51
270.0
  0
ARC
  5
1E9
330
1F
100
AcDbEntity
  8
1
  6
Continuous
 62
    18
370
    18
100
AcDbCircle
 10
73.89673614501953
 20
21.18423461914062
 30
0.0
 40
0.0885826796293259
100
AcDbArc
 50
270.0
 51
90.0
  0
ARC
  5
1EA
330
1F
100
AcDbEntity
  8
1
  6
Continuous
 62
    18
370
    18
100
AcDbCircle
 10
73.89673614501953
 20
21.80923461914062
 30
0.0
 40
0.0885826796293259
100
AcDbArc
 50
90.0
 51
270.0
  0
ARC
  5
1EB
330
1F
100
AcDbEntity
  8
1
  6
Continuous
 62
    18
370
    18
100
AcDbCircle
 10
73.89673614501953
 20
21.80923461914062
 30
0.0
 40
0.0885826796293259
100
AcDbArc
 50
270.0
 51
90.0
  0
ARC
  5
1EC
330
1F
100
AcDbEntity
  8
1
  6
Continuous
 62
    18
370
    18
100
AcDbCircle
 10
73.89673614501953
 20
22.43423461914062
 30
0.0
 40
0.0885826796293259
100
AcDbArc
 50
90.0
 51
270.0
  0
ARC
  5
1ED
330
1F
100
AcDbEntity
  8
1
  6
Continuous
 62
    18
370
    18
100
AcDbCircle
 10
73.89673614501953
 20
22.43423461914062
 30
0.0
 40
0.0885826796293259
100
AcDbArc
 50
270.0
 51
90.0
  0
ARC
  5
1EE
330
1F
100
AcDbEntity
  8
1
  6
Continuous
 62
    18
370
    18
100
AcDbCircle
 10
73.89673614501953
 20
46.30923461914062
 30
0.0
 40
0.0885826796293259
100
AcDbArc
 50
270.0
 51
90.0
  0
ARC
  5
1EF
330
1F
100
AcDbEntity
  8
1
  6
Continuous
 62
    18
370
    18
100
AcDbCircle
 10
73.89673614501953
 20
46.93423461914062
 30
0.0
 40
0.0885826796293259
100
AcDbArc
 50
270.0
 51
90.0
  0
ARC
  5
1F0
330
1F
100
AcDbEntity
  8
1
  6
Continuous
 62
    18
370
    18
100
AcDbCircle
 10
73.89673614501953
 20
43.93423461914062
 30
0.0
 40
0.0885826796293259
100
AcDbArc
 50
270.0
 51
90.0
  0
ARC
  5
1F1
330
1F
100
AcDbEntity
  8
1
  6
Continuous
 62
    18
370
    18
100
AcDbCircle
 10
73.89673614501953
 20
44.55923461914062
 30
0.0
 40
0.0885826796293259
100
AcDbArc
 50
270.0
 51
90.0
  0
ARC
  5
1F2
330
1F
100
AcDbEntity
  8
1
  6
Continuous
 62
    18
370
    18
100
AcDbCircle
 10
73.97547912597656
 20
48.78268814086914
 30
0.0
 40
0.1968504041433334
100
AcDbArc
 50
0.0
 51
90.0
  0
ARC
  5
1F3
330
1F
100
AcDbEntity
  8
1
  6
Continuous
 62
    18
370
    18
100
AcDbCircle
 10
73.89673614501953
 20
27.68423271179199
 30
0.0
 40
0.0885826796293259
100
AcDbArc
 50
270.0
 51
90.0
  0
ARC
  5
1F4
330
1F
100
AcDbEntity
  8
1
  6
Continuous
 62
    18
370
    18
100
AcDbCircle
 10
73.97547912597656
 20
17.58588218688965
 30
0.0
 40
0.1968504041433334
100
AcDbArc
 50
270.0
 51
0.0
  0
ARC
  5
1F5
330
1F
100
AcDbEntity
  8
1
  6
Continuous
 62
    18
370
    18
100
AcDbCircle
 10
73.89673614501953
 20
28.80923271179199
 30
0.0
 40
0.0885826796293259
100
AcDbArc
 50
270.0
 51
90.0
  0
ARC
  5
1F6
330
1F
100
AcDbEntity
  8
1
  6
Continuous
 62
    18
370
    18
100
AcDbCircle
 10
73.89673614501953
 20
29.43423271179199
 30
0.0
 40
0.0885826796293259
100
AcDbArc
 50
270.0
 51
90.0
  0
ARC
  5
1F7
330
1F
100
AcDbEntity
  8
1
  6
Continuous
 62
    18
370
    18
100
AcDbCircle
 10
73.89673614501953
 20
29.93423271179199
 30
0.0
 40
0.0885826796293259
100
AcDbArc
 50
270.0
 51
90.0
  0
ARC
  5
1F8
330
1F
100
AcDbEntity
  8
1
  6
Continuous
 62
    18
370
    18
100
AcDbCircle
 10
73.89673614501953
 20
30.55923271179199
 30
0.0
 40
0.0885826796293259
100
AcDbArc
 50
270.0
 51
90.0
  0
ARC
  5
1F9
330
1F
100
AcDbEntity
  8
1
  6
Continuous
 62
    18
370
    18
100
AcDbCircle
 10
73.89673614501953
 20
31.18423271179199
 30
0.0
 40
0.0885826796293259
100
AcDbArc
 50
270.0
 51
90.0
  0
ARC
  5
1FA
330
1F
100
AcDbEntity
  8
1
  6
Continuous
 62
    18
370
    18
100
AcDbCircle
 10
73.89673614501953
 20
31.68423271179199
 30
0.0
 40
0.0885826796293259
100
AcDbArc
 50
270.0
 51
90.0
  0
ARC
  5
1FB
330
1F
100
AcDbEntity
  8
1
  6
Continuous
 62
    18
370
    18
100
AcDbCircle
 10
73.89673614501953
 20
32.30923080444336
 30
0.0
 40
0.0885826796293259
100
AcDbArc
 50
270.0
 51
90.0
  0
ARC
  5
1FC
330
1F
100
AcDbEntity
  8
1
  6
Continuous
 62
    18
370
    18
100
AcDbCircle
 10
73.89673614501953
 20
32.93423080444336
 30
0.0
 40
0.0885826796293259
100
AcDbArc
 50
270.0
 51
90.0
  0
ARC
  5
1FD
330
1F
100
AcDbEntity
  8
1
  6
Continuous
 62
    18
370
    18
100
AcDbCircle
 10
73.89673614501953
 20
33.43423080444336
 30
0.0
 40
0.0885826796293259
100
AcDbArc
 50
270.0
 51
90.0
  0
ARC
  5
1FE
330
1F
100
AcDbEntity
  8
1
  6
Continuous
 62
    18
370
    18
100
AcDbCircle
 10
73.89673614501953
 20
34.05923080444336
 30
0.0
 40
0.0885826796293259
100
AcDbArc
 50
270.0
 51
90.0
  0
ARC
  5
1FF
330
1F
100
AcDbEntity
  8
1
  6
Continuous
 62
    18
370
    18
100
AcDbCircle
 10
73.89673614501953
 20
34.68423080444336
 30
0.0
 40
0.0885826796293259
100
AcDbArc
 50
270.0
 51
90.0
  0
ARC
  5
200
330
1F
100
AcDbEntity
  8
1
  6
Continuous
 62
    18
370
    18
100
AcDbCircle
 10
73.89673614501953
 20
35.18423080444336
 30
0.0
 40
0.0885826796293259
100
AcDbArc
 50
270.0
 51
90.0
  0
ARC
  5
201
330
1F
100
AcDbEntity
  8
1
  6
Continuous
 62
    18
370
    18
100
AcDbCircle
 10
73.89673614501953
 20
35.80923080444336
 30
0.0
 40
0.0885826796293259
100
AcDbArc
 50
270.0
 51
90.0
  0
ARC
  5
202
330
1F
100
AcDbEntity
  8
1
  6
Continuous
 62
    18
370
    18
100
AcDbCircle
 10
73.89673614501953
 20
36.43423080444336
 30
0.0
 40
0.0885826796293259
100
AcDbArc
 50
270.0
 51
90.0
  0
ARC
  5
203
330
1F
100
AcDbEntity
  8
1
  6
Continuous
 62
    18
370
    18
100
AcDbCircle
 10
73.89673614501953
 20
36.93423080444336
 30
0.0
 40
0.0885826796293259
100
AcDbArc
 50
270.0
 51
90.0
  0
ARC
  5
204
330
1F
100
AcDbEntity
  8
1
  6
Continuous
 62
    18
370
    18
100
AcDbCircle
 10
73.89673614501953
 20
37.55923080444336
 30
0.0
 40
0.0885826796293259
100
AcDbArc
 50
270.0
 51
90.0
  0
ARC
  5
205
330
1F
100
AcDbEntity
  8
1
  6
Continuous
 62
    18
370
    18
100
AcDbCircle
 10
73.89673614501953
 20
38.18423080444336
 30
0.0
 40
0.0885826796293259
100
AcDbArc
 50
270.0
 51
90.0
  0
ARC
  5
206
330
1F
100
AcDbEntity
  8
1
  6
Continuous
 62
    18
370
    18
100
AcDbCircle
 10
73.89673614501953
 20
38.68423080444336
 30
0.0
 40
0.0885826796293259
100
AcDbArc
 50
270.0
 51
90.0
  0
ARC
  5
207
330
1F
100
AcDbEntity
  8
1
  6
Continuous
 62
    18
370
    18
100
AcDbCircle
 10
73.89673614501953
 20
39.30923461914062
 30
0.0
 40
0.0885826796293259
100
AcDbArc
 50
270.0
 51
90.0
  0
ARC
  5
208
330
1F
100
AcDbEntity
  8
1
  6
Continuous
 62
    18
370
    18
100
AcDbCircle
 10
73.89673614501953
 20
39.93423461914062
 30
0.0
 40
0.0885826796293259
100
AcDbArc
 50
270.0
 51
90.0
  0
ARC
  5
209
330
1F
100
AcDbEntity
  8
1
  6
Continuous
 62
    18
370
    18
100
AcDbCircle
 10
73.89673614501953
 20
40.43423461914062
 30
0.0
 40
0.0885826796293259
100
AcDbArc
 50
270.0
 51
90.0
  0
ARC
  5
20A
330
1F
100
AcDbEntity
  8
1
  6
Continuous
 62
    18
370
    18
100
AcDbCircle
 10
73.89673614501953
 20
41.05923461914062
 30
0.0
 40
0.0885826796293259
100
AcDbArc
 50
270.0
 51
90.0
  0
ARC
  5
20B
330
1F
100
AcDbEntity
  8
1
  6
Continuous
 62
    18
370
    18
100
AcDbCircle
 10
73.89673614501953
 20
41.68423461914062
 30
0.0
 40
0.0885826796293259
100
AcDbArc
 50
270.0
 51
90.0
  0
ARC
  5
20C
330
1F
100
AcDbEntity
  8
1
  6
Continuous
 62
    18
370
    18
100
AcDbCircle
 10
73.89673614501953
 20
42.18423461914063
 30
0.0
 40
0.0885826796293259
100
AcDbArc
 50
270.0
 51
90.0
  0
ARC
  5
20D
330
1F
100
AcDbEntity
  8
1
  6
Continuous
 62
    18
370
    18
100
AcDbCircle
 10
73.89673614501953
 20
42.80923461914063
 30
0.0
 40
0.0885826796293259
100
AcDbArc
 50
270.0
 51
90.0
  0
ARC
  5
20E
330
1F
100
AcDbEntity
  8
1
  6
Continuous
 62
    18
370
    18
100
AcDbCircle
 10
73.89673614501953
 20
43.43423461914063
 30
0.0
 40
0.0885826796293259
100
AcDbArc
 50
270.0
 51
90.0
  0
ARC
  5
20F
330
1F
100
AcDbEntity
  8
1
  6
Continuous
 62
    18
370
    18
100
AcDbCircle
 10
73.89673614501953
 20
22.93423461914063
 30
0.0
 40
0.0885826796293259
100
AcDbArc
 50
270.0
 51
90.0
  0
ARC
  5
210
330
1F
100
AcDbEntity
  8
1
  6
Continuous
 62
    18
370
    18
100
AcDbCircle
 10
73.89673614501953
 20
23.55923461914063
 30
0.0
 40
0.0885826796293259
100
AcDbArc
 50
270.0
 51
90.0
  0
ARC
  5
211
330
1F
100
AcDbEntity
  8
1
  6
Continuous
 62
    18
370
    18
100
AcDbCircle
 10
73.89673614501953
 20
24.18423461914063
 30
0.0
 40
0.0885826796293259
100
AcDbArc
 50
270.0
 51
90.0
  0
ARC
  5
212
330
1F
100
AcDbEntity
  8
1
  6
Continuous
 62
    18
370
    18
100
AcDbCircle
 10
73.89673614501953
 20
24.68423461914063
 30
0.0
 40
0.0885826796293259
100
AcDbArc
 50
270.0
 51
90.0
  0
ARC
  5
213
330
1F
100
AcDbEntity
  8
1
  6
Continuous
 62
    18
370
    18
100
AcDbCircle
 10
73.89673614501953
 20
25.30923461914063
 30
0.0
 40
0.0885826796293259
100
AcDbArc
 50
270.0
 51
90.0
  0
ARC
  5
214
330
1F
100
AcDbEntity
  8
1
  6
Continuous
 62
    18
370
    18
100
AcDbCircle
 10
73.89673614501953
 20
25.93423461914063
 30
0.0
 40
0.0885826796293259
100
AcDbArc
 50
270.0
 51
90.0
  0
ARC
  5
215
330
1F
100
AcDbEntity
  8
1
  6
Continuous
 62
    18
370
    18
100
AcDbCircle
 10
73.89673614501953
 20
26.43423461914063
 30
0.0
 40
0.0885826796293259
100
AcDbArc
 50
270.0
 51
90.0
  0
ARC
  5
216
330
1F
100
AcDbEntity
  8
1
  6
Continuous
 62
    18
370
    18
100
AcDbCircle
 10
73.89673614501953
 20
27.05923461914063
 30
0.0
 40
0.0885826796293259
100
AcDbArc
 50
270.0
 51
90.0
  0
ARC
  5
217
330
1F
100
AcDbEntity
  8
1
  6
Continuous
 62
    18
370
    18
100
AcDbCircle
 10
73.89673614501953
 20
45.18423461914062
 30
0.0
 40
0.0885826796293259
100
AcDbArc
 50
270.0
 51
90.0
  0
ARC
  5
218
330
1F
100
AcDbEntity
  8
1
  6
Continuous
 62
    18
370
    18
100
AcDbCircle
 10
73.89673614501953
 20
28.18423271179199
 30
0.0
 40
0.0885826796293259
100
AcDbArc
 50
270.0
 51
90.0
  0
ARC
  5
219
330
1F
100
AcDbEntity
  8
1
  6
Continuous
 62
    18
370
    18
100
AcDbCircle
 10
73.89673614501953
 20
18.30923461914062
 30
0.0
 40
0.0885826796293259
100
AcDbArc
 50
270.0
 51
90.0
  0
ARC
  5
21A
330
1F
100
AcDbEntity
  8
1
  6
Continuous
 62
    18
370
    18
100
AcDbCircle
 10
73.89673614501953
 20
39.93423461914062
 30
0.0
 40
0.0885826796293259
100
AcDbArc
 50
90.0
 51
270.0
  0
ARC
  5
21B
330
1F
100
AcDbEntity
  8
1
  6
Continuous
 62
    18
370
    18
100
AcDbCircle
 10
73.89673614501953
 20
39.30923461914062
 30
0.0
 40
0.0885826796293259
100
AcDbArc
 50
90.0
 51
270.0
  0
ARC
  5
21C
330
1F
100
AcDbEntity
  8
1
  6
Continuous
 62
    18
370
    18
100
AcDbCircle
 10
73.89673614501953
 20
38.68423080444336
 30
0.0
 40
0.0885826796293259
100
AcDbArc
 50
90.0
 51
270.0
  0
ARC
  5
21D
330
1F
100
AcDbEntity
  8
1
  6
Continuous
 62
    18
370
    18
100
AcDbCircle
 10
73.89673614501953
 20
38.18423080444336
 30
0.0
 40
0.0885826796293259
100
AcDbArc
 50
90.0
 51
270.0
  0
ARC
  5
21E
330
1F
100
AcDbEntity
  8
1
  6
Continuous
 62
    18
370
    18
100
AcDbCircle
 10
73.89673614501953
 20
37.55923080444336
 30
0.0
 40
0.0885826796293259
100
AcDbArc
 50
90.0
 51
270.0
  0
ARC
  5
21F
330
1F
100
AcDbEntity
  8
1
  6
Continuous
 62
    18
370
    18
100
AcDbCircle
 10
73.89673614501953
 20
36.93423080444336
 30
0.0
 40
0.0885826796293259
100
AcDbArc
 50
90.0
 51
270.0
  0
ARC
  5
220
330
1F
100
AcDbEntity
  8
1
  6
Continuous
 62
    18
370
    18
100
AcDbCircle
 10
73.89673614501953
 20
36.43423080444336
 30
0.0
 40
0.0885826796293259
100
AcDbArc
 50
90.0
 51
270.0
  0
ARC
  5
221
330
1F
100
AcDbEntity
  8
1
  6
Continuous
 62
    18
370
    18
100
AcDbCircle
 10
73.89673614501953
 20
35.80923080444336
 30
0.0
 40
0.0885826796293259
100
AcDbArc
 50
90.0
 51
270.0
  0
ARC
  5
222
330
1F
100
AcDbEntity
  8
1
  6
Continuous
 62
    18
370
    18
100
AcDbCircle
 10
73.89673614501953
 20
35.18423080444336
 30
0.0
 40
0.0885826796293259
100
AcDbArc
 50
90.0
 51
270.0
  0
ARC
  5
223
330
1F
100
AcDbEntity
  8
1
  6
Continuous
 62
    18
370
    18
100
AcDbCircle
 10
73.89673614501953
 20
34.68423080444336
 30
0.0
 40
0.0885826796293259
100
AcDbArc
 50
90.0
 51
270.0
  0
ARC
  5
224
330
1F
100
AcDbEntity
  8
1
  6
Continuous
 62
    18
370
    18
100
AcDbCircle
 10
73.89673614501953
 20
34.05923080444336
 30
0.0
 40
0.0885826796293259
100
AcDbArc
 50
90.0
 51
270.0
  0
ARC
  5
225
330
1F
100
AcDbEntity
  8
1
  6
Continuous
 62
    18
370
    18
100
AcDbCircle
 10
73.89673614501953
 20
33.43423080444336
 30
0.0
 40
0.0885826796293259
100
AcDbArc
 50
90.0
 51
270.0
  0
ARC
  5
226
330
1F
100
AcDbEntity
  8
1
  6
Continuous
 62
    18
370
    18
100
AcDbCircle
 10
73.89673614501953
 20
32.93423080444336
 30
0.0
 40
0.0885826796293259
100
AcDbArc
 50
90.0
 51
270.0
  0
ARC
  5
227
330
1F
100
AcDbEntity
  8
1
  6
Continuous
 62
    18
370
    18
100
AcDbCircle
 10
73.89673614501953
 20
32.30923080444336
 30
0.0
 40
0.0885826796293259
100
AcDbArc
 50
90.0
 51
270.0
  0
ARC
  5
228
330
1F
100
AcDbEntity
  8
1
  6
Continuous
 62
    18
370
    18
100
AcDbCircle
 10
73.89673614501953
 20
31.68423271179199
 30
0.0
 40
0.0885826796293259
100
AcDbArc
 50
90.0
 51
270.0
  0
ARC
  5
229
330
1F
100
AcDbEntity
  8
1
  6
Continuous
 62
    18
370
    18
100
AcDbCircle
 10
73.89673614501953
 20
31.18423271179199
 30
0.0
 40
0.0885826796293259
100
AcDbArc
 50
90.0
 51
270.0
  0
ARC
  5
22A
330
1F
100
AcDbEntity
  8
1
  6
Continuous
 62
    18
370
    18
100
AcDbCircle
 10
73.89673614501953
 20
30.55923271179199
 30
0.0
 40
0.0885826796293259
100
AcDbArc
 50
90.0
 51
270.0
  0
ARC
  5
22B
330
1F
100
AcDbEntity
  8
1
  6
Continuous
 62
    18
370
    18
100
AcDbCircle
 10
73.89673614501953
 20
29.93423271179199
 30
0.0
 40
0.0885826796293259
100
AcDbArc
 50
90.0
 51
270.0
  0
ARC
  5
22C
330
1F
100
AcDbEntity
  8
1
  6
Continuous
 62
    18
370
    18
100
AcDbCircle
 10
73.89673614501953
 20
29.43423271179199
 30
0.0
 40
0.0885826796293259
100
AcDbArc
 50
90.0
 51
270.0
  0
ARC
  5
22D
330
1F
100
AcDbEntity
  8
1
  6
Continuous
 62
    18
370
    18
100
AcDbCircle
 10
73.89673614501953
 20
28.80923271179199
 30
0.0
 40
0.0885826796293259
100
AcDbArc
 50
90.0
 51
270.0
  0
ARC
  5
22E
330
1F
100
AcDbEntity
  8
1
  6
Continuous
 62
    18
370
    18
100
AcDbCircle
 10
73.89673614501953
 20
28.18423271179199
 30
0.0
 40
0.0885826796293259
100
AcDbArc
 50
90.0
 51
270.0
  0
ARC
  5
22F
330
1F
100
AcDbEntity
  8
1
  6
Continuous
 62
    18
370
    18
100
AcDbCircle
 10
73.89673614501953
 20
27.68423271179199
 30
0.0
 40
0.0885826796293259
100
AcDbArc
 50
90.0
 51
270.0
  0
ARC
  5
230
330
1F
100
AcDbEntity
  8
1
  6
Continuous
 62
    18
370
    18
100
AcDbCircle
 10
73.89673614501953
 20
27.05923461914063
 30
0.0
 40
0.0885826796293259
100
AcDbArc
 50
90.0
 51
270.0
  0
ARC
  5
231
330
1F
100
AcDbEntity
  8
1
  6
Continuous
 62
    18
370
    18
100
AcDbCircle
 10
73.89673614501953
 20
26.43423461914063
 30
0.0
 40
0.0885826796293259
100
AcDbArc
 50
90.0
 51
270.0
  0
ARC
  5
232
330
1F
100
AcDbEntity
  8
1
  6
Continuous
 62
    18
370
    18
100
AcDbCircle
 10
73.89673614501953
 20
25.93423461914063
 30
0.0
 40
0.0885826796293259
100
AcDbArc
 50
90.0
 51
270.0
  0
ARC
  5
233
330
1F
100
AcDbEntity
  8
1
  6
Continuous
 62
    18
370
    18
100
AcDbCircle
 10
73.89673614501953
 20
47.43423461914062
 30
0.0
 40
0.0885826796293259
100
AcDbArc
 50
270.0
 51
90.0
  0
ARC
  5
234
330
1F
100
AcDbEntity
  8
1
  6
Continuous
 62
    18
370
    18
100
AcDbCircle
 10
73.89673614501953
 20
48.05923461914062
 30
0.0
 40
0.0885826796293259
100
AcDbArc
 50
270.0
 51
90.0
  0
ARC
  5
235
330
1F
100
AcDbEntity
  8
1
  6
Continuous
 62
    18
370
    18
100
AcDbCircle
 10
73.89673614501953
 20
48.68423461914062
 30
0.0
 40
0.0885826796293259
100
AcDbArc
 50
270.0
 51
90.0
  0
ARC
  5
236
330
1F
100
AcDbEntity
  8
1
  6
Continuous
 62
    18
370
    18
100
AcDbCircle
 10
73.89673614501953
 20
45.68423461914062
 30
0.0
 40
0.0885826796293259
100
AcDbArc
 50
270.0
 51
90.0
  0
ARC
  5
237
330
1F
100
AcDbEntity
  8
1
  6
Continuous
 62
    18
370
    18
100
AcDbCircle
 10
73.89673614501953
 20
47.43423461914062
 30
0.0
 40
0.0885826796293259
100
AcDbArc
 50
90.0
 51
270.0
  0
ARC
  5
238
330
1F
100
AcDbEntity
  8
1
  6
Continuous
 62
    18
370
    18
100
AcDbCircle
 10
73.89673614501953
 20
43.43423461914063
 30
0.0
 40
0.0885826796293259
100
AcDbArc
 50
90.0
 51
270.0
  0
ARC
  5
239
330
1F
100
AcDbEntity
  8
1
  6
Continuous
 62
    18
370
    18
100
AcDbCircle
 10
73.89673614501953
 20
42.80923461914063
 30
0.0
 40
0.0885826796293259
100
AcDbArc
 50
90.0
 51
270.0
  0
ARC
  5
23A
330
1F
100
AcDbEntity
  8
1
  6
Continuous
 62
    18
370
    18
100
AcDbCircle
 10
73.89673614501953
 20
42.18423461914063
 30
0.0
 40
0.0885826796293259
100
AcDbArc
 50
90.0
 51
270.0
  0
ARC
  5
23B
330
1F
100
AcDbEntity
  8
1
  6
Continuous
 62
    18
370
    18
100
AcDbCircle
 10
73.89673614501953
 20
41.68423461914062
 30
0.0
 40
0.0885826796293259
100
AcDbArc
 50
90.0
 51
270.0
  0
ARC
  5
23C
330
1F
100
AcDbEntity
  8
1
  6
Continuous
 62
    18
370
    18
100
AcDbCircle
 10
73.89673614501953
 20
41.05923461914062
 30
0.0
 40
0.0885826796293259
100
AcDbArc
 50
90.0
 51
270.0
  0
ARC
  5
23D
330
1F
100
AcDbEntity
  8
1
  6
Continuous
 62
    18
370
    18
100
AcDbCircle
 10
73.89673614501953
 20
40.43423461914062
 30
0.0
 40
0.0885826796293259
100
AcDbArc
 50
90.0
 51
270.0
  0
ARC
  5
23E
330
1F
100
AcDbEntity
  8
1
  6
Continuous
 62
    18
370
    18
100
AcDbCircle
 10
73.89673614501953
 20
48.68423461914062
 30
0.0
 40
0.0885826796293259
100
AcDbArc
 50
90.0
 51
270.0
  0
ARC
  5
23F
330
1F
100
AcDbEntity
  8
1
  6
Continuous
 62
    18
370
    18
100
AcDbCircle
 10
73.89673614501953
 20
48.05923461914062
 30
0.0
 40
0.0885826796293259
100
AcDbArc
 50
90.0
 51
270.0
  0
ARC
  5
240
330
1F
100
AcDbEntity
  8
1
  6
Continuous
 62
    18
370
    18
100
AcDbCircle
 10
73.89673614501953
 20
22.93423461914063
 30
0.0
 40
0.0885826796293259
100
AcDbArc
 50
90.0
 51
270.0
  0
ARC
  5
241
330
1F
100
AcDbEntity
  8
1
  6
Continuous
 62
    18
370
    18
100
AcDbCircle
 10
73.89673614501953
 20
25.30923461914063
 30
0.0
 40
0.0885826796293259
100
AcDbArc
 50
90.0
 51
270.0
  0
ARC
  5
242
330
1F
100
AcDbEntity
  8
1
  6
Continuous
 62
    18
370
    18
100
AcDbCircle
 10
73.89673614501953
 20
45.68423461914062
 30
0.0
 40
0.0885826796293259
100
AcDbArc
 50
90.0
 51
270.0
  0
ARC
  5
243
330
1F
100
AcDbEntity
  8
1
  6
Continuous
 62
    18
370
    18
100
AcDbCircle
 10
73.89673614501953
 20
24.18423461914063
 30
0.0
 40
0.0885826796293259
100
AcDbArc
 50
90.0
 51
270.0
  0
ARC
  5
244
330
1F
100
AcDbEntity
  8
1
  6
Continuous
 62
    18
370
    18
100
AcDbCircle
 10
73.89673614501953
 20
23.55923461914063
 30
0.0
 40
0.0885826796293259
100
AcDbArc
 50
90.0
 51
270.0
  0
ARC
  5
245
330
1F
100
AcDbEntity
  8
1
  6
Continuous
 62
    18
370
    18
100
AcDbCircle
 10
73.89673614501953
 20
24.68423461914063
 30
0.0
 40
0.0885826796293259
100
AcDbArc
 50
90.0
 51
270.0
  0
ARC
  5
246
330
1F
100
AcDbEntity
  8
1
  6
Continuous
 62
    18
370
    18
100
AcDbCircle
 10
79.16680908203125
 20
17.58588218688965
 30
0.0
 40
0.1968504041433334
100
AcDbArc
 50
180.0
 51
270.0
  0
ARC
  5
247
330
1F
100
AcDbEntity
  8
1
  6
Continuous
 62
    18
370
    18
100
AcDbCircle
 10
79.16680908203125
 20
48.78268814086914
 30
0.0
 40
0.1968504041433334
100
AcDbArc
 50
90.0
 51
180.0
  0
ARC
  5
248
330
1F
100
AcDbEntity
  8
1
  6
Continuous
 62
    18
370
    18
100
AcDbCircle
 10
79.24555206298828
 20
43.4343376159668
 30
0.0
 40
0.0885826796293259
100
AcDbArc
 50
270.0
 51
90.0
  0
ARC
  5
249
330
1F
100
AcDbEntity
  8
1
  6
Continuous
 62
    18
370
    18
100
AcDbCircle
 10
79.24555206298828
 20
43.4343376159668
 30
0.0
 40
0.0885826796293259
100
AcDbArc
 50
90.0
 51
270.0
  0
ARC
  5
24A
330
1F
100
AcDbEntity
  8
1
  6
Continuous
 62
    18
370
    18
100
AcDbCircle
 10
79.24555206298828
 20
42.8093376159668
 30
0.0
 40
0.0885826796293259
100
AcDbArc
 50
270.0
 51
90.0
  0
ARC
  5
24B
330
1F
100
AcDbEntity
  8
1
  6
Continuous
 62
    18
370
    18
100
AcDbCircle
 10
79.24555206298828
 20
42.8093376159668
 30
0.0
 40
0.0885826796293259
100
AcDbArc
 50
90.0
 51
270.0
  0
ARC
  5
24C
330
1F
100
AcDbEntity
  8
1
  6
Continuous
 62
    18
370
    18
100
AcDbCircle
 10
79.24555206298828
 20
42.1843376159668
 30
0.0
 40
0.0885826796293259
100
AcDbArc
 50
270.0
 51
90.0
  0
ARC
  5
24D
330
1F
100
AcDbEntity
  8
1
  6
Continuous
 62
    18
370
    18
100
AcDbCircle
 10
79.24555206298828
 20
42.1843376159668
 30
0.0
 40
0.0885826796293259
100
AcDbArc
 50
90.0
 51
270.0
  0
ARC
  5
24E
330
1F
100
AcDbEntity
  8
1
  6
Continuous
 62
    18
370
    18
100
AcDbCircle
 10
79.24555206298828
 20
41.6843376159668
 30
0.0
 40
0.0885826796293259
100
AcDbArc
 50
270.0
 51
90.0
  0
ARC
  5
24F
330
1F
100
AcDbEntity
  8
1
  6
Continuous
 62
    18
370
    18
100
AcDbCircle
 10
79.24555206298828
 20
41.6843376159668
 30
0.0
 40
0.0885826796293259
100
AcDbArc
 50
90.0
 51
270.0
  0
ARC
  5
250
330
1F
100
AcDbEntity
  8
1
  6
Continuous
 62
    18
370
    18
100
AcDbCircle
 10
79.24555206298828
 20
41.0593376159668
 30
0.0
 40
0.0885826796293259
100
AcDbArc
 50
270.0
 51
90.0
  0
ARC
  5
251
330
1F
100
AcDbEntity
  8
1
  6
Continuous
 62
    18
370
    18
100
AcDbCircle
 10
79.24555206298828
 20
41.0593376159668
 30
0.0
 40
0.0885826796293259
100
AcDbArc
 50
90.0
 51
270.0
  0
ARC
  5
252
330
1F
100
AcDbEntity
  8
1
  6
Continuous
 62
    18
370
    18
100
AcDbCircle
 10
79.24555206298828
 20
40.4343376159668
 30
0.0
 40
0.0885826796293259
100
AcDbArc
 50
270.0
 51
90.0
  0
ARC
  5
253
330
1F
100
AcDbEntity
  8
1
  6
Continuous
 62
    18
370
    18
100
AcDbCircle
 10
79.24555206298828
 20
40.4343376159668
 30
0.0
 40
0.0885826796293259
100
AcDbArc
 50
90.0
 51
270.0
  0
ARC
  5
254
330
1F
100
AcDbEntity
  8
1
  6
Continuous
 62
    18
370
    18
100
AcDbCircle
 10
79.24555206298828
 20
39.9343376159668
 30
0.0
 40
0.0885826796293259
100
AcDbArc
 50
270.0
 51
90.0
  0
ARC
  5
255
330
1F
100
AcDbEntity
  8
1
  6
Continuous
 62
    18
370
    18
100
AcDbCircle
 10
79.24555206298828
 20
39.9343376159668
 30
0.0
 40
0.0885826796293259
100
AcDbArc
 50
90.0
 51
270.0
  0
ARC
  5
256
330
1F
100
AcDbEntity
  8
1
  6
Continuous
 62
    18
370
    18
100
AcDbCircle
 10
79.24555206298828
 20
39.3093376159668
 30
0.0
 40
0.0885826796293259
100
AcDbArc
 50
270.0
 51
90.0
  0
ARC
  5
257
330
1F
100
AcDbEntity
  8
1
  6
Continuous
 62
    18
370
    18
100
AcDbCircle
 10
79.24555206298828
 20
39.3093376159668
 30
0.0
 40
0.0885826796293259
100
AcDbArc
 50
90.0
 51
270.0
  0
ARC
  5
258
330
1F
100
AcDbEntity
  8
1
  6
Continuous
 62
    18
370
    18
100
AcDbCircle
 10
79.24555206298828
 20
38.6843376159668
 30
0.0
 40
0.0885826796293259
100
AcDbArc
 50
270.0
 51
90.0
  0
ARC
  5
259
330
1F
100
AcDbEntity
  8
1
  6
Continuous
 62
    18
370
    18
100
AcDbCircle
 10
79.24555206298828
 20
38.6843376159668
 30
0.0
 40
0.0885826796293259
100
AcDbArc
 50
90.0
 51
270.0
  0
ARC
  5
25A
330
1F
100
AcDbEntity
  8
1
  6
Continuous
 62
    18
370
    18
100
AcDbCircle
 10
79.24555206298828
 20
38.1843376159668
 30
0.0
 40
0.0885826796293259
100
AcDbArc
 50
270.0
 51
90.0
  0
ARC
  5
25B
330
1F
100
AcDbEntity
  8
1
  6
Continuous
 62
    18
370
    18
100
AcDbCircle
 10
79.24555206298828
 20
38.1843376159668
 30
0.0
 40
0.0885826796293259
100
AcDbArc
 50
90.0
 51
270.0
  0
ARC
  5
25C
330
1F
100
AcDbEntity
  8
1
  6
Continuous
 62
    18
370
    18
100
AcDbCircle
 10
79.24555206298828
 20
37.5593376159668
 30
0.0
 40
0.0885826796293259
100
AcDbArc
 50
270.0
 51
90.0
  0
ARC
  5
25D
330
1F
100
AcDbEntity
  8
1
  6
Continuous
 62
    18
370
    18
100
AcDbCircle
 10
79.24555206298828
 20
37.5593376159668
 30
0.0
 40
0.0885826796293259
100
AcDbArc
 50
90.0
 51
270.0
  0
ARC
  5
25E
330
1F
100
AcDbEntity
  8
1
  6
Continuous
 62
    18
370
    18
100
AcDbCircle
 10
79.24555206298828
 20
36.9343376159668
 30
0.0
 40
0.0885826796293259
100
AcDbArc
 50
270.0
 51
90.0
  0
ARC
  5
25F
330
1F
100
AcDbEntity
  8
1
  6
Continuous
 62
    18
370
    18
100
AcDbCircle
 10
79.24555206298828
 20
36.9343376159668
 30
0.0
 40
0.0885826796293259
100
AcDbArc
 50
90.0
 51
270.0
  0
ARC
  5
260
330
1F
100
AcDbEntity
  8
1
  6
Continuous
 62
    18
370
    18
100
AcDbCircle
 10
79.24555206298828
 20
36.4343376159668
 30
0.0
 40
0.0885826796293259
100
AcDbArc
 50
270.0
 51
90.0
  0
ARC
  5
261
330
1F
100
AcDbEntity
  8
1
  6
Continuous
 62
    18
370
    18
100
AcDbCircle
 10
79.24555206298828
 20
36.4343376159668
 30
0.0
 40
0.0885826796293259
100
AcDbArc
 50
90.0
 51
270.0
  0
ARC
  5
262
330
1F
100
AcDbEntity
  8
1
  6
Continuous
 62
    18
370
    18
100
AcDbCircle
 10
79.24555206298828
 20
35.8093376159668
 30
0.0
 40
0.0885826796293259
100
AcDbArc
 50
270.0
 51
90.0
  0
ARC
  5
263
330
1F
100
AcDbEntity
  8
1
  6
Continuous
 62
    18
370
    18
100
AcDbCircle
 10
79.24555206298828
 20
35.8093376159668
 30
0.0
 40
0.0885826796293259
100
AcDbArc
 50
90.0
 51
270.0
  0
ARC
  5
264
330
1F
100
AcDbEntity
  8
1
  6
Continuous
 62
    18
370
    18
100
AcDbCircle
 10
79.24555206298828
 20
35.1843376159668
 30
0.0
 40
0.0885826796293259
100
AcDbArc
 50
270.0
 51
90.0
  0
ARC
  5
265
330
1F
100
AcDbEntity
  8
1
  6
Continuous
 62
    18
370
    18
100
AcDbCircle
 10
79.24555206298828
 20
35.1843376159668
 30
0.0
 40
0.0885826796293259
100
AcDbArc
 50
90.0
 51
270.0
  0
ARC
  5
266
330
1F
100
AcDbEntity
  8
1
  6
Continuous
 62
    18
370
    18
100
AcDbCircle
 10
79.24555206298828
 20
34.6843376159668
 30
0.0
 40
0.0885826796293259
100
AcDbArc
 50
270.0
 51
90.0
  0
ARC
  5
267
330
1F
100
AcDbEntity
  8
1
  6
Continuous
 62
    18
370
    18
100
AcDbCircle
 10
79.24555206298828
 20
34.6843376159668
 30
0.0
 40
0.0885826796293259
100
AcDbArc
 50
90.0
 51
270.0
  0
ARC
  5
268
330
1F
100
AcDbEntity
  8
1
  6
Continuous
 62
    18
370
    18
100
AcDbCircle
 10
79.24555206298828
 20
34.0593376159668
 30
0.0
 40
0.0885826796293259
100
AcDbArc
 50
270.0
 51
90.0
  0
ARC
  5
269
330
1F
100
AcDbEntity
  8
1
  6
Continuous
 62
    18
370
    18
100
AcDbCircle
 10
79.24555206298828
 20
34.0593376159668
 30
0.0
 40
0.0885826796293259
100
AcDbArc
 50
90.0
 51
270.0
  0
ARC
  5
26A
330
1F
100
AcDbEntity
  8
1
  6
Continuous
 62
    18
370
    18
100
AcDbCircle
 10
79.24555206298828
 20
33.4343376159668
 30
0.0
 40
0.0885826796293259
100
AcDbArc
 50
270.0
 51
90.0
  0
ARC
  5
26B
330
1F
100
AcDbEntity
  8
1
  6
Continuous
 62
    18
370
    18
100
AcDbCircle
 10
79.24555206298828
 20
33.4343376159668
 30
0.0
 40
0.0885826796293259
100
AcDbArc
 50
90.0
 51
270.0
  0
ARC
  5
26C
330
1F
100
AcDbEntity
  8
1
  6
Continuous
 62
    18
370
    18
100
AcDbCircle
 10
79.24555206298828
 20
32.9343376159668
 30
0.0
 40
0.0885826796293259
100
AcDbArc
 50
270.0
 51
90.0
  0
ARC
  5
26D
330
1F
100
AcDbEntity
  8
1
  6
Continuous
 62
    18
370
    18
100
AcDbCircle
 10
79.24555206298828
 20
32.9343376159668
 30
0.0
 40
0.0885826796293259
100
AcDbArc
 50
90.0
 51
270.0
  0
ARC
  5
26E
330
1F
100
AcDbEntity
  8
1
  6
Continuous
 62
    18
370
    18
100
AcDbCircle
 10
79.24555206298828
 20
32.3093376159668
 30
0.0
 40
0.0885826796293259
100
AcDbArc
 50
270.0
 51
90.0
  0
ARC
  5
26F
330
1F
100
AcDbEntity
  8
1
  6
Continuous
 62
    18
370
    18
100
AcDbCircle
 10
79.24555206298828
 20
32.3093376159668
 30
0.0
 40
0.0885826796293259
100
AcDbArc
 50
90.0
 51
270.0
  0
ARC
  5
270
330
1F
100
AcDbEntity
  8
1
  6
Continuous
 62
    18
370
    18
100
AcDbCircle
 10
79.24555206298828
 20
31.6843376159668
 30
0.0
 40
0.0885826796293259
100
AcDbArc
 50
270.0
 51
90.0
  0
ARC
  5
271
330
1F
100
AcDbEntity
  8
1
  6
Continuous
 62
    18
370
    18
100
AcDbCircle
 10
79.24555206298828
 20
31.6843376159668
 30
0.0
 40
0.0885826796293259
100
AcDbArc
 50
90.0
 51
270.0
  0
ARC
  5
272
330
1F
100
AcDbEntity
  8
1
  6
Continuous
 62
    18
370
    18
100
AcDbCircle
 10
79.24555206298828
 20
31.1843376159668
 30
0.0
 40
0.0885826796293259
100
AcDbArc
 50
270.0
 51
90.0
  0
ARC
  5
273
330
1F
100
AcDbEntity
  8
1
  6
Continuous
 62
    18
370
    18
100
AcDbCircle
 10
79.24555206298828
 20
31.1843376159668
 30
0.0
 40
0.0885826796293259
100
AcDbArc
 50
90.0
 51
270.0
  0
ARC
  5
274
330
1F
100
AcDbEntity
  8
1
  6
Continuous
 62
    18
370
    18
100
AcDbCircle
 10
79.24555206298828
 20
30.5593376159668
 30
0.0
 40
0.0885826796293259
100
AcDbArc
 50
270.0
 51
90.0
  0
ARC
  5
275
330
1F
100
AcDbEntity
  8
1
  6
Continuous
 62
    18
370
    18
100
AcDbCircle
 10
79.24555206298828
 20
30.5593376159668
 30
0.0
 40
0.0885826796293259
100
AcDbArc
 50
90.0
 51
270.0
  0
ARC
  5
276
330
1F
100
AcDbEntity
  8
1
  6
Continuous
 62
    18
370
    18
100
AcDbCircle
 10
79.24555206298828
 20
29.9343376159668
 30
0.0
 40
0.0885826796293259
100
AcDbArc
 50
270.0
 51
90.0
  0
ARC
  5
277
330
1F
100
AcDbEntity
  8
1
  6
Continuous
 62
    18
370
    18
100
AcDbCircle
 10
79.24555206298828
 20
29.9343376159668
 30
0.0
 40
0.0885826796293259
100
AcDbArc
 50
90.0
 51
270.0
  0
ARC
  5
278
330
1F
100
AcDbEntity
  8
1
  6
Continuous
 62
    18
370
    18
100
AcDbCircle
 10
79.24555206298828
 20
29.43433570861817
 30
0.0
 40
0.0885826796293259
100
AcDbArc
 50
270.0
 51
90.0
  0
ARC
  5
279
330
1F
100
AcDbEntity
  8
1
  6
Continuous
 62
    18
370
    18
100
AcDbCircle
 10
79.24555206298828
 20
29.43433570861817
 30
0.0
 40
0.0885826796293259
100
AcDbArc
 50
90.0
 51
270.0
  0
ARC
  5
27A
330
1F
100
AcDbEntity
  8
1
  6
Continuous
 62
    18
370
    18
100
AcDbCircle
 10
79.24555206298828
 20
28.80933570861817
 30
0.0
 40
0.0885826796293259
100
AcDbArc
 50
270.0
 51
90.0
  0
ARC
  5
27B
330
1F
100
AcDbEntity
  8
1
  6
Continuous
 62
    18
370
    18
100
AcDbCircle
 10
79.24555206298828
 20
28.80933570861817
 30
0.0
 40
0.0885826796293259
100
AcDbArc
 50
90.0
 51
270.0
  0
ARC
  5
27C
330
1F
100
AcDbEntity
  8
1
  6
Continuous
 62
    18
370
    18
100
AcDbCircle
 10
79.24555206298828
 20
28.18433570861817
 30
0.0
 40
0.0885826796293259
100
AcDbArc
 50
270.0
 51
90.0
  0
ARC
  5
27D
330
1F
100
AcDbEntity
  8
1
  6
Continuous
 62
    18
370
    18
100
AcDbCircle
 10
79.24555206298828
 20
28.18433570861817
 30
0.0
 40
0.0885826796293259
100
AcDbArc
 50
90.0
 51
270.0
  0
ARC
  5
27E
330
1F
100
AcDbEntity
  8
1
  6
Continuous
 62
    18
370
    18
100
AcDbCircle
 10
79.24555206298828
 20
27.68433570861816
 30
0.0
 40
0.0885826796293259
100
AcDbArc
 50
270.0
 51
90.0
  0
ARC
  5
27F
330
1F
100
AcDbEntity
  8
1
  6
Continuous
 62
    18
370
    18
100
AcDbCircle
 10
79.24555206298828
 20
27.68433570861816
 30
0.0
 40
0.0885826796293259
100
AcDbArc
 50
90.0
 51
270.0
  0
ARC
  5
280
330
1F
100
AcDbEntity
  8
1
  6
Continuous
 62
    18
370
    18
100
AcDbCircle
 10
79.24555206298828
 20
27.05933570861816
 30
0.0
 40
0.0885826796293259
100
AcDbArc
 50
270.0
 51
90.0
  0
ARC
  5
281
330
1F
100
AcDbEntity
  8
1
  6
Continuous
 62
    18
370
    18
100
AcDbCircle
 10
79.24555206298828
 20
27.05933570861816
 30
0.0
 40
0.0885826796293259
100
AcDbArc
 50
90.0
 51
270.0
  0
ARC
  5
282
330
1F
100
AcDbEntity
  8
1
  6
Continuous
 62
    18
370
    18
100
AcDbCircle
 10
79.24555206298828
 20
26.43433570861816
 30
0.0
 40
0.0885826796293259
100
AcDbArc
 50
270.0
 51
90.0
  0
ARC
  5
283
330
1F
100
AcDbEntity
  8
1
  6
Continuous
 62
    18
370
    18
100
AcDbCircle
 10
79.24555206298828
 20
26.43433570861816
 30
0.0
 40
0.0885826796293259
100
AcDbArc
 50
90.0
 51
270.0
  0
ARC
  5
284
330
1F
100
AcDbEntity
  8
1
  6
Continuous
 62
    18
370
    18
100
AcDbCircle
 10
79.24555206298828
 20
25.93433570861817
 30
0.0
 40
0.0885826796293259
100
AcDbArc
 50
270.0
 51
90.0
  0
ARC
  5
285
330
1F
100
AcDbEntity
  8
1
  6
Continuous
 62
    18
370
    18
100
AcDbCircle
 10
79.24555206298828
 20
25.93433570861817
 30
0.0
 40
0.0885826796293259
100
AcDbArc
 50
90.0
 51
270.0
  0
ARC
  5
286
330
1F
100
AcDbEntity
  8
1
  6
Continuous
 62
    18
370
    18
100
AcDbCircle
 10
79.24555206298828
 20
25.30933570861817
 30
0.0
 40
0.0885826796293259
100
AcDbArc
 50
270.0
 51
90.0
  0
ARC
  5
287
330
1F
100
AcDbEntity
  8
1
  6
Continuous
 62
    18
370
    18
100
AcDbCircle
 10
79.24555206298828
 20
25.30933570861817
 30
0.0
 40
0.0885826796293259
100
AcDbArc
 50
90.0
 51
270.0
  0
ARC
  5
288
330
1F
100
AcDbEntity
  8
1
  6
Continuous
 62
    18
370
    18
100
AcDbCircle
 10
79.24555206298828
 20
24.68433570861817
 30
0.0
 40
0.0885826796293259
100
AcDbArc
 50
270.0
 51
90.0
  0
ARC
  5
289
330
1F
100
AcDbEntity
  8
1
  6
Continuous
 62
    18
370
    18
100
AcDbCircle
 10
79.24555206298828
 20
24.68433570861817
 30
0.0
 40
0.0885826796293259
100
AcDbArc
 50
90.0
 51
270.0
  0
ARC
  5
28A
330
1F
100
AcDbEntity
  8
1
  6
Continuous
 62
    18
370
    18
100
AcDbCircle
 10
79.24555206298828
 20
24.18433570861817
 30
0.0
 40
0.0885826796293259
100
AcDbArc
 50
270.0
 51
90.0
  0
ARC
  5
28B
330
1F
100
AcDbEntity
  8
1
  6
Continuous
 62
    18
370
    18
100
AcDbCircle
 10
79.24555206298828
 20
24.18433570861817
 30
0.0
 40
0.0885826796293259
100
AcDbArc
 50
90.0
 51
270.0
  0
ARC
  5
28C
330
1F
100
AcDbEntity
  8
1
  6
Continuous
 62
    18
370
    18
100
AcDbCircle
 10
79.24555206298828
 20
23.55933570861816
 30
0.0
 40
0.0885826796293259
100
AcDbArc
 50
270.0
 51
90.0
  0
ARC
  5
28D
330
1F
100
AcDbEntity
  8
1
  6
Continuous
 62
    18
370
    18
100
AcDbCircle
 10
79.24555206298828
 20
23.55933570861816
 30
0.0
 40
0.0885826796293259
100
AcDbArc
 50
90.0
 51
270.0
  0
ARC
  5
28E
330
1F
100
AcDbEntity
  8
1
  6
Continuous
 62
    18
370
    18
100
AcDbCircle
 10
79.24555206298828
 20
22.93433570861816
 30
0.0
 40
0.0885826796293259
100
AcDbArc
 50
270.0
 51
90.0
  0
ARC
  5
28F
330
1F
100
AcDbEntity
  8
1
  6
Continuous
 62
    18
370
    18
100
AcDbCircle
 10
79.24555206298828
 20
22.93433570861816
 30
0.0
 40
0.0885826796293259
100
AcDbArc
 50
90.0
 51
270.0
  0
ARC
  5
290
330
1F
100
AcDbEntity
  8
1
  6
Continuous
 62
    18
370
    18
100
AcDbCircle
 10
79.24555206298828
 20
18.93433570861816
 30
0.0
 40
0.0885826796293259
100
AcDbArc
 50
270.0
 51
90.0
  0
ARC
  5
291
330
1F
100
AcDbEntity
  8
1
  6
Continuous
 62
    18
370
    18
100
AcDbCircle
 10
79.24555206298828
 20
18.93433570861816
 30
0.0
 40
0.0885826796293259
100
AcDbArc
 50
90.0
 51
270.0
  0
ARC
  5
292
330
1F
100
AcDbEntity
  8
1
  6
Continuous
 62
    18
370
    18
100
AcDbCircle
 10
79.24555206298828
 20
18.30933570861816
 30
0.0
 40
0.0885826796293259
100
AcDbArc
 50
270.0
 51
90.0
  0
ARC
  5
293
330
1F
100
AcDbEntity
  8
1
  6
Continuous
 62
    18
370
    18
100
AcDbCircle
 10
79.24555206298828
 20
18.30933570861816
 30
0.0
 40
0.0885826796293259
100
AcDbArc
 50
90.0
 51
270.0
  0
ARC
  5
294
330
1F
100
AcDbEntity
  8
1
  6
Continuous
 62
    18
370
    18
100
AcDbCircle
 10
79.24555206298828
 20
17.68433570861816
 30
0.0
 40
0.0885826796293259
100
AcDbArc
 50
270.0
 51
90.0
  0
ARC
  5
295
330
1F
100
AcDbEntity
  8
1
  6
Continuous
 62
    18
370
    18
100
AcDbCircle
 10
79.24555206298828
 20
17.68433570861816
 30
0.0
 40
0.0885826796293259
100
AcDbArc
 50
90.0
 51
270.0
  0
ARC
  5
296
330
1F
100
AcDbEntity
  8
1
  6
Continuous
 62
    18
370
    18
100
AcDbCircle
 10
79.24555206298828
 20
20.68433570861817
 30
0.0
 40
0.0885826796293259
100
AcDbArc
 50
270.0
 51
90.0
  0
ARC
  5
297
330
1F
100
AcDbEntity
  8
1
  6
Continuous
 62
    18
370
    18
100
AcDbCircle
 10
79.24555206298828
 20
20.68433570861817
 30
0.0
 40
0.0885826796293259
100
AcDbArc
 50
90.0
 51
270.0
  0
ARC
  5
298
330
1F
100
AcDbEntity
  8
1
  6
Continuous
 62
    18
370
    18
100
AcDbCircle
 10
79.24555206298828
 20
20.05933570861817
 30
0.0
 40
0.0885826796293259
100
AcDbArc
 50
270.0
 51
90.0
  0
ARC
  5
299
330
1F
100
AcDbEntity
  8
1
  6
Continuous
 62
    18
370
    18
100
AcDbCircle
 10
79.24555206298828
 20
20.05933570861817
 30
0.0
 40
0.0885826796293259
100
AcDbArc
 50
90.0
 51
270.0
  0
ARC
  5
29A
330
1F
100
AcDbEntity
  8
1
  6
Continuous
 62
    18
370
    18
100
AcDbCircle
 10
79.24555206298828
 20
19.43433570861816
 30
0.0
 40
0.0885826796293259
100
AcDbArc
 50
270.0
 51
90.0
  0
ARC
  5
29B
330
1F
100
AcDbEntity
  8
1
  6
Continuous
 62
    18
370
    18
100
AcDbCircle
 10
79.24555206298828
 20
19.43433570861816
 30
0.0
 40
0.0885826796293259
100
AcDbArc
 50
90.0
 51
270.0
  0
ARC
  5
29C
330
1F
100
AcDbEntity
  8
1
  6
Continuous
 62
    18
370
    18
100
AcDbCircle
 10
79.24555206298828
 20
22.43433570861816
 30
0.0
 40
0.0885826796293259
100
AcDbArc
 50
270.0
 51
90.0
  0
ARC
  5
29D
330
1F
100
AcDbEntity
  8
1
  6
Continuous
 62
    18
370
    18
100
AcDbCircle
 10
79.24555206298828
 20
22.43433570861816
 30
0.0
 40
0.0885826796293259
100
AcDbArc
 50
90.0
 51
270.0
  0
ARC
  5
29E
330
1F
100
AcDbEntity
  8
1
  6
Continuous
 62
    18
370
    18
100
AcDbCircle
 10
79.24555206298828
 20
21.80933570861816
 30
0.0
 40
0.0885826796293259
100
AcDbArc
 50
270.0
 51
90.0
  0
ARC
  5
29F
330
1F
100
AcDbEntity
  8
1
  6
Continuous
 62
    18
370
    18
100
AcDbCircle
 10
79.24555206298828
 20
21.80933570861816
 30
0.0
 40
0.0885826796293259
100
AcDbArc
 50
90.0
 51
270.0
  0
ARC
  5
2A0
330
1F
100
AcDbEntity
  8
1
  6
Continuous
 62
    18
370
    18
100
AcDbCircle
 10
79.24555206298828
 20
21.18433570861816
 30
0.0
 40
0.0885826796293259
100
AcDbArc
 50
270.0
 51
90.0
  0
ARC
  5
2A1
330
1F
100
AcDbEntity
  8
1
  6
Continuous
 62
    18
370
    18
100
AcDbCircle
 10
79.24555206298828
 20
21.18433570861816
 30
0.0
 40
0.0885826796293259
100
AcDbArc
 50
90.0
 51
270.0
  0
ARC
  5
2A2
330
1F
100
AcDbEntity
  8
1
  6
Continuous
 62
    18
370
    18
100
AcDbCircle
 10
79.24555206298828
 20
48.6843376159668
 30
0.0
 40
0.0885826796293259
100
AcDbArc
 50
270.0
 51
90.0
  0
ARC
  5
2A3
330
1F
100
AcDbEntity
  8
1
  6
Continuous
 62
    18
370
    18
100
AcDbCircle
 10
79.24555206298828
 20
48.6843376159668
 30
0.0
 40
0.0885826796293259
100
AcDbArc
 50
90.0
 51
270.0
  0
ARC
  5
2A4
330
1F
100
AcDbEntity
  8
1
  6
Continuous
 62
    18
370
    18
100
AcDbCircle
 10
79.24555206298828
 20
48.0593376159668
 30
0.0
 40
0.0885826796293259
100
AcDbArc
 50
270.0
 51
90.0
  0
ARC
  5
2A5
330
1F
100
AcDbEntity
  8
1
  6
Continuous
 62
    18
370
    18
100
AcDbCircle
 10
79.24555206298828
 20
48.0593376159668
 30
0.0
 40
0.0885826796293259
100
AcDbArc
 50
90.0
 51
270.0
  0
ARC
  5
2A6
330
1F
100
AcDbEntity
  8
1
  6
Continuous
 62
    18
370
    18
100
AcDbCircle
 10
79.24555206298828
 20
47.43433761596679
 30
0.0
 40
0.0885826796293259
100
AcDbArc
 50
270.0
 51
90.0
  0
ARC
  5
2A7
330
1F
100
AcDbEntity
  8
1
  6
Continuous
 62
    18
370
    18
100
AcDbCircle
 10
79.24555206298828
 20
47.43433761596679
 30
0.0
 40
0.0885826796293259
100
AcDbArc
 50
90.0
 51
270.0
  0
ARC
  5
2A8
330
1F
100
AcDbEntity
  8
1
  6
Continuous
 62
    18
370
    18
100
AcDbCircle
 10
79.24555206298828
 20
46.93433761596679
 30
0.0
 40
0.0885826796293259
100
AcDbArc
 50
270.0
 51
90.0
  0
ARC
  5
2A9
330
1F
100
AcDbEntity
  8
1
  6
Continuous
 62
    18
370
    18
100
AcDbCircle
 10
79.24555206298828
 20
46.93433761596679
 30
0.0
 40
0.0885826796293259
100
AcDbArc
 50
90.0
 51
270.0
  0
ARC
  5
2AA
330
1F
100
AcDbEntity
  8
1
  6
Continuous
 62
    18
370
    18
100
AcDbCircle
 10
79.24555206298828
 20
46.30933761596679
 30
0.0
 40
0.0885826796293259
100
AcDbArc
 50
270.0
 51
90.0
  0
ARC
  5
2AB
330
1F
100
AcDbEntity
  8
1
  6
Continuous
 62
    18
370
    18
100
AcDbCircle
 10
79.24555206298828
 20
46.30933761596679
 30
0.0
 40
0.0885826796293259
100
AcDbArc
 50
90.0
 51
270.0
  0
ARC
  5
2AC
330
1F
100
AcDbEntity
  8
1
  6
Continuous
 62
    18
370
    18
100
AcDbCircle
 10
79.24555206298828
 20
45.68433761596679
 30
0.0
 40
0.0885826796293259
100
AcDbArc
 50
270.0
 51
90.0
  0
ARC
  5
2AD
330
1F
100
AcDbEntity
  8
1
  6
Continuous
 62
    18
370
    18
100
AcDbCircle
 10
79.24555206298828
 20
45.68433761596679
 30
0.0
 40
0.0885826796293259
100
AcDbArc
 50
90.0
 51
270.0
  0
ARC
  5
2AE
330
1F
100
AcDbEntity
  8
1
  6
Continuous
 62
    18
370
    18
100
AcDbCircle
 10
79.24555206298828
 20
45.18433761596679
 30
0.0
 40
0.0885826796293259
100
AcDbArc
 50
270.0
 51
90.0
  0
ARC
  5
2AF
330
1F
100
AcDbEntity
  8
1
  6
Continuous
 62
    18
370
    18
100
AcDbCircle
 10
79.24555206298828
 20
45.18433761596679
 30
0.0
 40
0.0885826796293259
100
AcDbArc
 50
90.0
 51
270.0
  0
ARC
  5
2B0
330
1F
100
AcDbEntity
  8
1
  6
Continuous
 62
    18
370
    18
100
AcDbCircle
 10
79.24555206298828
 20
44.55933761596679
 30
0.0
 40
0.0885826796293259
100
AcDbArc
 50
270.0
 51
90.0
  0
ARC
  5
2B1
330
1F
100
AcDbEntity
  8
1
  6
Continuous
 62
    18
370
    18
100
AcDbCircle
 10
79.24555206298828
 20
44.55933761596679
 30
0.0
 40
0.0885826796293259
100
AcDbArc
 50
90.0
 51
270.0
  0
ARC
  5
2B2
330
1F
100
AcDbEntity
  8
1
  6
Continuous
 62
    18
370
    18
100
AcDbCircle
 10
79.24555206298828
 20
43.93433761596679
 30
0.0
 40
0.0885826796293259
100
AcDbArc
 50
270.0
 51
90.0
  0
ARC
  5
2B3
330
1F
100
AcDbEntity
  8
1
  6
Continuous
 62
    18
370
    18
100
AcDbCircle
 10
79.24555206298828
 20
43.93433761596679
 30
0.0
 40
0.0885826796293259
100
AcDbArc
 50
90.0
 51
270.0
  0
SPLINE
  5
2B4
330
1F
100
AcDbEntity
  8
1
  6
Continuous
 62
    18
370
    18
100
AcDbSpline
210
0.0
220
0.0
230
1.0
 70
    24
 71
     1
 72
     6
 73
     4
 74
     0
 42
0.000000001
 43
0.0000000001
 40
0.0
 40
0.0
 40
0.0761200971526019
 40
0.6173065991421633
 40
1.0
 40
1.0
 10
37.21949308874719
 20
48.97953894642615
 30
0.0
 10
37.20990324476498
 20
48.97953894642615
 30
0.0
 10
37.14172290457236
 20
48.97953894642615
 30
0.0
 10
37.09351001277992
 20
48.97953894642615
 30
0.0
  0
SPLINE
  5
2B5
330
1F
100
AcDbEntity
  8
1
  6
Continuous
 62
    18
370
    18
100
AcDbSpline
210
0.0
220
0.0
230
1.0
 70
    24
 71
     1
 72
     5
 73
     3
 74
     0
 42
0.000000001
 43
0.0000000001
 40
0.0
 40
0.0
 40
0.7071210790140045
 40
1.0
 40
1.0
 10
37.09351001277992
 20
17.38903199658557
 30
0.0
 10
37.1825953013954
 20
17.38903199658557
 30
0.0
 10
37.21949308874719
 20
17.38903199658557
 30
0.0
  0
SPLINE
  5
2B6
330
1F
100
AcDbEntity
  8
1
  6
Continuous
 62
    18
370
    18
100
AcDbSpline
210
0.0
220
0.0
230
1.0
 70
    24
 71
     1
 72
     6
 73
     4
 74
     0
 42
0.000000001
 43
0.0000000001
 40
0.0
 40
0.0
 40
0.3826835129059763
 40
0.9238818696225099
 40
1.0
 40
1.0
 10
29.94547924073641
 20
48.97953894642615
 30
0.0
 10
29.89726634894396
 20
48.97953894642615
 30
0.0
 10
29.82908275354294
 20
48.97953894642615
 30
0.0
 10
29.81949290956072
 20
48.97953894642615
 30
0.0
  0
SPLINE
  5
2B7
330
1F
100
AcDbEntity
  8
1
  6
Continuous
 62
    18
370
    18
100
AcDbSpline
210
0.0
220
0.0
230
1.0
 70
    24
 71
     1
 72
     5
 73
     3
 74
     0
 42
0.000000001
 43
0.0000000001
 40
0.0
 40
0.0
 40
0.2928971914321887
 40
1.0
 40
1.0
 10
29.81949290956072
 20
17.38903199658557
 30
0.0
 10
29.85639395212093
 20
17.38903199658557
 30
0.0
 10
29.94547924073641
 20
17.38903199658557
 30
0.0
  0
SPLINE
  5
2B8
330
1F
100
AcDbEntity
  8
1
  6
Continuous
 62
    18
370
    18
100
AcDbSpline
210
0.0
220
0.0
230
1.0
 70
    24
 71
     1
 72
     6
 73
     4
 74
     0
 42
0.000000001
 43
0.0000000001
 40
0.0
 40
0.0
 40
0.0761191137523416
 40
0.6173115431819651
 40
1.0
 40
1.0
 10
17.07579142910481
 20
48.97953894642615
 30
0.0
 10
17.0662015851226
 20
48.97953894642615
 30
0.0
 10
16.99801961732578
 20
48.97953894642615
 30
0.0
 10
16.94980672553333
 20
48.97953894642615
 30
0.0
  0
SPLINE
  5
2B9
330
1F
100
AcDbEntity
  8
1
  6
Continuous
 62
    18
370
    18
100
AcDbSpline
210
0.0
220
0.0
230
1.0
 70
    24
 71
     1
 72
     6
 73
     4
 74
     0
 42
0.000000001
 43
0.0000000001
 40
0.0
 40
0.0
 40
0.382688456818035
 40
0.9238808862476584
 40
1.0
 40
1.0
 10
16.94980672553333
 20
17.38903199658557
 30
0.0
 10
16.99801961732578
 20
17.38903199658557
 30
0.0
 10
17.0662015851226
 20
17.38903199658557
 30
0.0
 10
17.07579142910481
 20
17.38903199658557
 30
0.0
  0
SPLINE
  5
2BA
330
1F
100
AcDbEntity
  8
1
  6
Continuous
 62
    18
370
    18
100
AcDbSpline
210
0.0
220
0.0
230
1.0
 70
    24
 71
     1
 72
     6
 73
     4
 74
     0
 42
0.000000001
 43
0.0000000001
 40
0.0
 40
0.0
 40
0.1909809498610927
 40
0.4122073025532478
 40
1.0
 40
1.0
 10
35.91831467182328
 20
55.18420055500155
 30
0.0
 10
35.95590907377527
 20
55.18420055500155
 30
0.0
 10
35.9994572519131
 20
55.18420055500155
 30
0.0
 10
36.11516363492319
 20
55.18420055500155
 30
0.0
  0
SPLINE
  5
2BB
330
1F
100
AcDbEntity
  8
1
  6
Continuous
 62
    18
370
    18
100
AcDbSpline
210
0.0
220
0.0
230
1.0
 70
    24
 71
     1
 72
     6
 73
     4
 74
     0
 42
0.000000001
 43
0.0000000001
 40
0.0
 40
0.0
 40
0.5877926974467523
 40
0.8090190501389072
 40
1.0
 40
1.0
 10
36.11516363492319
 20
55.06608857297488
 30
0.0
 10
35.9994572519131
 20
55.06608857297488
 30
0.0
 10
35.95590907377527
 20
55.06608857297488
 30
0.0
 10
35.91831467182328
 20
55.06608857297488
 30
0.0
  0
SPLINE
  5
2BC
330
1F
100
AcDbEntity
  8
1
  6
Continuous
 62
    18
370
    18
100
AcDbSpline
210
0.0
220
0.0
230
1.0
 70
    24
 71
     1
 72
     6
 73
     4
 74
     0
 42
0.000000001
 43
0.0000000001
 40
0.0
 40
0.0
 40
0.5877761608678397
 40
0.8090355867178198
 40
1.0
 40
1.0
 10
37.10138436192892
 20
55.69807426536136
 30
0.0
 10
37.10138436192892
 20
55.81377739316303
 30
0.0
 10
37.10138436192892
 20
55.85733208171768
 30
0.0
 10
37.10138436192892
 20
55.89492322846126
 30
0.0
  0
SPLINE
  5
2BD
330
1F
100
AcDbEntity
  8
1
  6
Continuous
 62
    18
370
    18
100
AcDbSpline
210
0.0
220
0.0
230
1.0
 70
    24
 71
     1
 72
     6
 73
     4
 74
     0
 42
0.000000001
 43
0.0000000001
 40
0.0
 40
0.0
 40
0.1909644132821802
 40
0.4122238391321603
 40
1.0
 40
1.0
 10
37.21949308874719
 20
55.89492322846126
 30
0.0
 10
37.21949308874719
 20
55.85733208171768
 30
0.0
 10
37.21949308874719
 20
55.81377739316303
 30
0.0
 10
37.21949308874719
 20
55.69807426536136
 30
0.0
  0
SPLINE
  5
2BE
330
1F
100
AcDbEntity
  8
1
  6
Continuous
 62
    18
370
    18
100
AcDbSpline
210
0.0
220
0.0
230
1.0
 70
    24
 71
     1
 72
     6
 73
     4
 74
     0
 42
0.000000001
 43
0.0000000001
 40
0.0
 40
0.0
 40
0.1909644132821802
 40
0.4122238391321603
 40
1.0
 40
1.0
 10
29.9376048915874
 20
55.89492322846126
 30
0.0
 10
29.9376048915874
 20
55.85733208171768
 30
0.0
 10
29.9376048915874
 20
55.81377739316303
 30
0.0
 10
29.9376048915874
 20
55.69807426536136
 30
0.0
  0
SPLINE
  5
2BF
330
1F
100
AcDbEntity
  8
1
  6
Continuous
 62
    18
370
    18
100
AcDbSpline
210
0.0
220
0.0
230
1.0
 70
    24
 71
     1
 72
     6
 73
     4
 74
     0
 42
0.000000001
 43
0.0000000001
 40
0.0
 40
0.0
 40
0.5877761608678397
 40
0.8090355867178198
 40
1.0
 40
1.0
 10
29.81949290956072
 20
55.69807426536136
 30
0.0
 10
29.81949290956072
 20
55.81377739316303
 30
0.0
 10
29.81949290956072
 20
55.85733208171768
 30
0.0
 10
29.81949290956072
 20
55.89492322846126
 30
0.0
  0
SPLINE
  5
2C0
330
1F
100
AcDbEntity
  8
1
  6
Continuous
 62
    18
370
    18
100
AcDbSpline
210
0.0
220
0.0
230
1.0
 70
    24
 71
     1
 72
     6
 73
     4
 74
     0
 42
0.000000001
 43
0.0000000001
 40
0.0
 40
0.0
 40
0.1909809498610927
 40
0.6909809498610927
 40
1.0
 40
1.0
 10
31.12067458169304
 20
55.06608857297488
 30
0.0
 10
31.08308017974105
 20
55.06608857297488
 30
0.0
 10
30.98465569819109
 20
55.06608857297488
 30
0.0
 10
30.92382561859313
 20
55.06608857297488
 30
0.0
  0
SPLINE
  5
2C1
330
1F
100
AcDbEntity
  8
1
  6
Continuous
 62
    18
370
    18
100
AcDbSpline
210
0.0
220
0.0
230
1.0
 70
    24
 71
     1
 72
     6
 73
     4
 74
     0
 42
0.000000001
 43
0.0000000001
 40
0.0
 40
0.0
 40
0.5877926974467523
 40
0.8090190501389072
 40
1.0
 40
1.0
 10
30.92382561859313
 20
55.18420055500155
 30
0.0
 10
31.03953200160322
 20
55.18420055500155
 30
0.0
 10
31.08308017974105
 20
55.18420055500155
 30
0.0
 10
31.12067458169304
 20
55.18420055500155
 30
0.0
  0
SPLINE
  5
2C2
330
1F
100
AcDbEntity
  8
1
  6
Continuous
 62
    18
370
    18
100
AcDbSpline
210
0.0
220
0.0
230
1.0
 70
    24
 71
     1
 72
     6
 73
     4
 74
     0
 42
0.000000001
 43
0.0000000001
 40
0.0
 40
0.0
 40
0.1909809498610927
 40
0.4122073025532478
 40
1.0
 40
1.0
 10
35.91831467182328
 20
10.66803411248656
 30
0.0
 10
35.95590907377527
 20
10.66803411248656
 30
0.0
 10
35.9994572519131
 20
10.66803411248656
 30
0.0
 10
36.11516363492319
 20
10.66803411248656
 30
0.0
  0
SPLINE
  5
2C3
330
1F
100
AcDbEntity
  8
1
  6
Continuous
 62
    18
370
    18
100
AcDbSpline
210
0.0
220
0.0
230
1.0
 70
    24
 71
     1
 72
     6
 73
     4
 74
     0
 42
0.000000001
 43
0.0000000001
 40
0.0
 40
0.0
 40
0.5877926974467523
 40
0.8090190501389072
 40
1.0
 40
1.0
 10
36.11516363492319
 20
10.54992375806409
 30
0.0
 10
35.9994572519131
 20
10.54992375806409
 30
0.0
 10
35.95590907377527
 20
10.54992375806409
 30
0.0
 10
35.91831467182328
 20
10.54992375806409
 30
0.0
  0
SPLINE
  5
2C4
330
1F
100
AcDbEntity
  8
1
  6
Continuous
 62
    18
370
    18
100
AcDbSpline
210
0.0
220
0.0
230
1.0
 70
    24
 71
     1
 72
     6
 73
     4
 74
     0
 42
0.000000001
 43
0.0000000001
 40
0.0
 40
0.0
 40
0.309016495101079
 40
0.8090164951010789
 40
1.0
 40
1.0
 10
37.21949308874719
 20
10.0360516753085
 30
0.0
 10
37.21949308874719
 20
9.975221595710536
 30
0.0
 10
37.21949308874719
 20
9.876796300358478
 30
0.0
 10
37.21949308874719
 20
9.839201084604383
 30
0.0
  0
SPLINE
  5
2C5
330
1F
100
AcDbEntity
  8
1
  6
Continuous
 62
    18
370
    18
100
AcDbSpline
210
0.0
220
0.0
230
1.0
 70
    24
 71
     1
 72
     6
 73
     4
 74
     0
 42
0.000000001
 43
0.0000000001
 40
0.0
 40
0.0
 40
0.190983504898921
 40
0.4122162966637728
 40
1.0
 40
1.0
 10
37.10138436192892
 20
9.839201084604383
 30
0.0
 10
37.10138436192892
 20
9.876796300358478
 30
0.0
 10
37.10138436192892
 20
9.92034610610051
 30
0.0
 10
37.10138436192892
 20
10.0360516753085
 30
0.0
  0
SPLINE
  5
2C6
330
1F
100
AcDbEntity
  8
1
  6
Continuous
 62
    18
370
    18
100
AcDbSpline
210
0.0
220
0.0
230
1.0
 70
    24
 71
     1
 72
     6
 73
     4
 74
     0
 42
0.000000001
 43
0.0000000001
 40
0.0
 40
0.0
 40
0.1909809498610927
 40
0.4122073025532478
 40
1.0
 40
1.0
 10
31.12067458169304
 20
10.54992375806409
 30
0.0
 10
31.08308017974105
 20
10.54992375806409
 30
0.0
 10
31.03953200160322
 20
10.54992375806409
 30
0.0
 10
30.92382561859313
 20
10.54992375806409
 30
0.0
  0
SPLINE
  5
2C7
330
1F
100
AcDbEntity
  8
1
  6
Continuous
 62
    18
370
    18
100
AcDbSpline
210
0.0
220
0.0
230
1.0
 70
    24
 71
     1
 72
     6
 73
     4
 74
     0
 42
0.000000001
 43
0.0000000001
 40
0.0
 40
0.0
 40
0.5877926974467523
 40
0.8090190501389072
 40
1.0
 40
1.0
 10
30.92382561859313
 20
10.66803411248656
 30
0.0
 10
31.03953200160322
 20
10.66803411248656
 30
0.0
 10
31.08308017974105
 20
10.66803411248656
 30
0.0
 10
31.12067458169304
 20
10.66803411248656
 30
0.0
  0
SPLINE
  5
2C8
330
1F
100
AcDbEntity
  8
1
  6
Continuous
 62
    18
370
    18
100
AcDbSpline
210
0.0
220
0.0
230
1.0
 70
    24
 71
     1
 72
     6
 73
     4
 74
     0
 42
0.000000001
 43
0.0000000001
 40
0.0
 40
0.0
 40
0.190983504898921
 40
0.4122162966637728
 40
1.0
 40
1.0
 10
29.81949290956072
 20
9.839201084604383
 30
0.0
 10
29.81949290956072
 20
9.876796300358478
 30
0.0
 10
29.81949290956072
 20
9.92034610610051
 30
0.0
 10
29.81949290956072
 20
10.0360516753085
 30
0.0
  0
SPLINE
  5
2C9
330
1F
100
AcDbEntity
  8
1
  6
Continuous
 62
    18
370
    18
100
AcDbSpline
210
0.0
220
0.0
230
1.0
 70
    24
 71
     1
 72
     6
 73
     4
 74
     0
 42
0.000000001
 43
0.0000000001
 40
0.0
 40
0.0
 40
0.309016495101079
 40
0.8090164951010789
 40
1.0
 40
1.0
 10
29.9376048915874
 20
10.0360516753085
 30
0.0
 10
29.9376048915874
 20
9.975221595710536
 30
0.0
 10
29.9376048915874
 20
9.876796300358478
 30
0.0
 10
29.9376048915874
 20
9.839201084604383
 30
0.0
  0
SPLINE
  5
2CA
330
1F
100
AcDbEntity
  8
1
  6
Continuous
 62
    18
370
    18
100
AcDbSpline
210
0.0
220
0.0
230
1.0
 70
    24
 71
     1
 72
     6
 73
     4
 74
     0
 42
0.000000001
 43
0.0000000001
 40
0.0
 40
0.0
 40
0.0761200971526019
 40
0.6173065991421633
 40
1.0
 40
1.0
 10
52.77288539244636
 20
17.38903199658557
 30
0.0
 10
52.78247523642858
 20
17.38903199658557
 30
0.0
 10
52.85065557662119
 20
17.38903199658557
 30
0.0
 10
52.89886846841364
 20
17.38903199658557
 30
0.0
  0
SPLINE
  5
2CB
330
1F
100
AcDbEntity
  8
1
  6
Continuous
 62
    18
370
    18
100
AcDbSpline
210
0.0
220
0.0
230
1.0
 70
    24
 71
     1
 72
     5
 73
     3
 74
     0
 42
0.000000001
 43
0.0000000001
 40
0.0
 40
0.0
 40
0.7071210790140045
 40
1.0
 40
1.0
 10
52.89886846841364
 20
48.97953894642615
 30
0.0
 10
52.80978317979815
 20
48.97953894642615
 30
0.0
 10
52.77288539244636
 20
48.97953894642615
 30
0.0
  0
SPLINE
  5
2CC
330
1F
100
AcDbEntity
  8
1
  6
Continuous
 62
    18
370
    18
100
AcDbSpline
210
0.0
220
0.0
230
1.0
 70
    24
 71
     1
 72
     6
 73
     4
 74
     0
 42
0.000000001
 43
0.0000000001
 40
0.0
 40
0.0
 40
0.1909809498610927
 40
0.4122238391321603
 40
1.0
 40
1.0
 10
72.98925306947331
 20
48.97953894642615
 30
0.0
 10
72.98925306947331
 20
48.94194454447415
 30
0.0
 10
72.98925306947331
 20
48.89839311112791
 30
0.0
 10
72.98925306947331
 20
48.78268998332623
 30
0.0
  0
SPLINE
  5
2CD
330
1F
100
AcDbEntity
  8
1
  6
Continuous
 62
    18
370
    18
100
AcDbSpline
210
0.0
220
0.0
230
1.0
 70
    24
 71
     1
 72
     6
 73
     4
 74
     0
 42
0.000000001
 43
0.0000000001
 40
0.0
 40
0.0
 40
0.5877761608678397
 40
0.8090190501389072
 40
1.0
 40
1.0
 10
72.87114108744663
 20
48.78268998332623
 30
0.0
 10
72.87114108744663
 20
48.89839311112791
 30
0.0
 10
72.87114108744663
 20
48.94194454447415
 30
0.0
 10
72.87114108744663
 20
48.97953894642615
 30
0.0
  0
SPLINE
  5
2CE
330
1F
100
AcDbEntity
  8
1
  6
Continuous
 62
    18
370
    18
100
AcDbSpline
210
0.0
220
0.0
230
1.0
 70
    24
 71
     1
 72
     6
 73
     4
 74
     0
 42
0.000000001
 43
0.0000000001
 40
0.0
 40
0.0
 40
0.309016495101079
 40
0.8090206292116251
 40
1.0
 40
1.0
 10
72.98925306947331
 20
17.58588258728969
 30
0.0
 10
72.98925306947331
 20
17.52505250769172
 30
0.0
 10
72.98925306947331
 20
17.42662639853756
 30
0.0
 10
72.98925306947331
 20
17.38903199658557
 30
0.0
  0
SPLINE
  5
2CF
330
1F
100
AcDbEntity
  8
1
  6
Continuous
 62
    18
370
    18
100
AcDbSpline
210
0.0
220
0.0
230
1.0
 70
    24
 71
     1
 72
     6
 73
     4
 74
     0
 42
0.000000001
 43
0.0000000001
 40
0.0
 40
0.0
 40
0.0489396006449213
 40
0.4122121625532267
 40
1.0
 40
1.0
 10
72.87114108744663
 20
17.38903199658557
 30
0.0
 10
72.87114108744663
 20
17.39866578588135
 30
0.0
 10
72.87114108744663
 20
17.47017620427959
 30
0.0
 10
72.87114108744663
 20
17.58588258728969
 30
0.0
  0
SPLINE
  5
2D0
330
1F
100
AcDbEntity
  8
1
  6
Continuous
 62
    18
370
    18
100
AcDbSpline
210
0.0
220
0.0
230
1.0
 70
    24
 71
     1
 72
     4
 73
     2
 74
     0
 42
0.000000001
 43
0.0000000001
 40
0.0
 40
0.0
 40
1.0
 40
1.0
 10
72.99713067383073
 20
17.38903199658557
 30
0.0
 10
72.98925306947331
 20
17.38903199658557
 30
0.0
  0
SPLINE
  5
2D1
330
1F
100
AcDbEntity
  8
1
  6
Continuous
 62
    18
370
    18
100
AcDbSpline
210
0.0
220
0.0
230
1.0
 70
    24
 71
     1
 72
     4
 73
     2
 74
     0
 42
0.000000001
 43
0.0000000001
 40
0.0
 40
0.0
 40
1.0
 40
1.0
 10
72.98925306947331
 20
48.97953894642615
 30
0.0
 10
72.99713067383073
 20
48.97953894642615
 30
0.0
  0
SPLINE
  5
2D2
330
1F
100
AcDbEntity
  8
1
  6
Continuous
 62
    18
370
    18
100
AcDbSpline
210
0.0
220
0.0
230
1.0
 70
    24
 71
     1
 72
     6
 73
     4
 74
     0
 42
0.000000001
 43
0.0000000001
 40
0.0
 40
0.0
 40
0.1909809498610927
 40
0.4122238391321603
 40
1.0
 40
1.0
 10
80.2711412666331
 20
48.97953894642615
 30
0.0
 10
80.2711412666331
 20
48.94194454447415
 30
0.0
 10
80.2711412666331
 20
48.89839311112791
 30
0.0
 10
80.2711412666331
 20
48.78268998332623
 30
0.0
  0
SPLINE
  5
2D3
330
1F
100
AcDbEntity
  8
1
  6
Continuous
 62
    18
370
    18
100
AcDbSpline
210
0.0
220
0.0
230
1.0
 70
    24
 71
     1
 72
     6
 73
     4
 74
     0
 42
0.000000001
 43
0.0000000001
 40
0.0
 40
0.0
 40
0.5877761608678397
 40
0.8090190501389072
 40
1.0
 40
1.0
 10
80.15303579502324
 20
48.78268998332623
 30
0.0
 10
80.15303579502324
 20
48.89839311112791
 30
0.0
 10
80.15303579502324
 20
48.94194454447415
 30
0.0
 10
80.15303579502324
 20
48.97953894642615
 30
0.0
  0
SPLINE
  5
2D4
330
1F
100
AcDbEntity
  8
1
  6
Continuous
 62
    18
370
    18
100
AcDbSpline
210
0.0
220
0.0
230
1.0
 70
    24
 71
     1
 72
     6
 73
     4
 74
     0
 42
0.000000001
 43
0.0000000001
 40
0.0
 40
0.0
 40
0.309016495101079
 40
0.8090206292116251
 40
1.0
 40
1.0
 10
80.2711412666331
 20
17.58588258728969
 30
0.0
 10
80.2711412666331
 20
17.52505250769172
 30
0.0
 10
80.2711412666331
 20
17.42662639853756
 30
0.0
 10
80.2711412666331
 20
17.38903199658557
 30
0.0
  0
SPLINE
  5
2D5
330
1F
100
AcDbEntity
  8
1
  6
Continuous
 62
    18
370
    18
100
AcDbSpline
210
0.0
220
0.0
230
1.0
 70
    24
 71
     1
 72
     6
 73
     4
 74
     0
 42
0.000000001
 43
0.0000000001
 40
0.0
 40
0.0
 40
0.0489396006449213
 40
0.4122121625532267
 40
1.0
 40
1.0
 10
80.15303579502324
 20
17.38903199658557
 30
0.0
 10
80.15303579502324
 20
17.39866578588135
 30
0.0
 10
80.15303579502324
 20
17.47017620427959
 30
0.0
 10
80.15303579502324
 20
17.58588258728969
 30
0.0
  0
SPLINE
  5
2D6
330
1F
100
AcDbEntity
  8
1
  6
Continuous
 62
    18
370
    18
100
AcDbSpline
210
0.0
220
0.0
230
1.0
 70
    24
 71
     1
 72
     4
 73
     2
 74
     0
 42
0.000000001
 43
0.0000000001
 40
0.0
 40
0.0
 40
1.0
 40
1.0
 10
80.15303579502324
 20
17.38903199658557
 30
0.0
 10
80.14515819066582
 20
17.38903199658557
 30
0.0
  0
SPLINE
  5
2D7
330
1F
100
AcDbEntity
  8
1
  6
Continuous
 62
    18
370
    18
100
AcDbSpline
210
0.0
220
0.0
230
1.0
 70
    24
 71
     1
 72
     4
 73
     2
 74
     0
 42
0.000000001
 43
0.0000000001
 40
0.0
 40
0.0
 40
1.0
 40
1.0
 10
80.14515819066582
 20
48.97953894642615
 30
0.0
 10
80.15303579502324
 20
48.97953894642615
 30
0.0
  0
ENDSEC
  0
SECTION
  2
OBJECTS
  0
DICTIONARY
  5
C
330
0
100
AcDbDictionary
281
     1
  3
ACAD_BACKGROUND
350
34E
  3
ACAD_CIP_PREVIOUS_PRODUCT_INFO
350
34D
  3
ACAD_COLOR
350
347
  3
ACAD_DETAILVIEWSTYLE
350
344
  3
ACAD_GROUP
350
D
  3
ACAD_LAYOUT
350
1A
  3
ACAD_MATERIAL
350
43
  3
ACAD_MLEADERSTYLE
350
6B
  3
ACAD_MLINESTYLE
350
17
  3
ACAD_PLOTSETTINGS
350
19
  3
ACAD_PLOTSTYLENAME
350
E
  3
ACAD_SCALELIST
350
47
  3
ACAD_SECTIONVIEWSTYLE
350
345
  3
ACAD_TABLESTYLE
350
69
  3
ACAD_VISUALSTYLE
350
2A
  3
ACDB_RECOMPOSE_DATA
350
37C
  3
AcDbVariableDictionary
350
301
  0
DICTIONARY
  5
2FF
330
8
100
AcDbDictionary
280
     1
281
     1
  0
SUN
  5
6D
330
29
100
AcDbSun
 90
        1
290
     0
 63
     7
421
 16777215
 40
1.0
291
     1
 91
  2455826
 92
 54000000
292
     0
 70
     0
 71
   256
280
     1
  0
DICTIONARY
  5
36C
330
10
100
AcDbDictionary
280
     1
281
     1
  3
ADSK_XREC_LAYER_RECONCILED
360
36D
  0
DICTIONARY
  5
36E
330
78
100
AcDbDictionary
280
     1
281
     1
  3
ADSK_XREC_LAYER_RECONCILED
360
36F
  0
DICTIONARY
  5
34E
102
{ACAD_REACTORS
330
C
102
}
330
C
100
AcDbDictionary
281
     1
  0
XRECORD
  5
34D
102
{ACAD_REACTORS
330
C
102
}
330
C
100
AcDbXrecord
280
     1
300
ACD
300
2021
300

  0
DICTIONARY
  5
347
102
{ACAD_REACTORS
330
C
102
}
330
C
100
AcDbDictionary
281
     1
  0
DICTIONARY
  5
344
102
{ACAD_REACTORS
330
C
102
}
330
C
100
AcDbDictionary
281
     1
  3
Imperial24
350
349
  0
DICTIONARY
  5
D
102
{ACAD_REACTORS
330
C
102
}
330
C
100
AcDbDictionary
281
     1
  0
DICTIONARY
  5
1A
102
{ACAD_REACTORS
330
C
102
}
330
C
100
AcDbDictionary
281
     1
  3
Layout1
350
1E
  3
Layout2
350
26
  3
Model
350
22
  0
DICTIONARY
  5
43
102
{ACAD_REACTORS
330
C
102
}
330
C
100
AcDbDictionary
281
     1
  3
ByBlock
350
45
  3
ByLayer
350
44
  3
Global
350
46
  0
DICTIONARY
  5
6B
102
{ACAD_REACTORS
330
C
102
}
330
C
100
AcDbDictionary
281
     1
  3
Standard
350
6C
  0
DICTIONARY
  5
17
102
{ACAD_REACTORS
330
C
102
}
330
C
100
AcDbDictionary
281
     1
  3
Standard
350
18
  0
DICTIONARY
  5
19
102
{ACAD_REACTORS
330
C
102
}
330
C
100
AcDbDictionary
281
     1
  0
ACDBDICTIONARYWDFLT
  5
E
102
{ACAD_REACTORS
330
C
102
}
330
C
100
AcDbDictionary
281
     1
  3
Normal
350
F
100
AcDbDictionaryWithDefault
340
F
  0
DICTIONARY
  5
47
102
{ACAD_REACTORS
330
C
102
}
330
C
100
AcDbDictionary
281
     1
  3
A0
350
48
  3
A1
350
49
  3
A2
350
4A
  3
A3
350
4B
  3
A4
350
4C
  3
A5
350
4D
  3
A6
350
4E
  3
A7
350
4F
  3
A8
350
50
  3
A9
350
51
  3
B0
350
52
  3
B1
350
53
  3
B2
350
54
  3
B3
350
55
  3
B4
350
56
  3
B5
350
57
  3
B6
350
58
  3
B7
350
59
  3
B8
350
5A
  3
B9
350
5B
  3
C0
350
5C
  3
C1
350
5D
  3
C2
350
5E
  3
C3
350
5F
  3
C4
350
60
  3
C5
350
61
  3
C6
350
62
  3
C7
350
63
  3
C8
350
64
  3
C9
350
65
  3
D0
350
66
  3
D1
350
67
  3
D2
350
68
  0
DICTIONARY
  5
345
102
{ACAD_REACTORS
330
C
102
}
330
C
100
AcDbDictionary
281
     1
  3
Imperial24
350
348
  0
DICTIONARY
  5
69
102
{ACAD_REACTORS
330
C
102
}
330
C
100
AcDbDictionary
281
     1
  3
Standard
350
6A
  0
DICTIONARY
  5
2A
102
{ACAD_REACTORS
330
C
102
}
330
C
100
AcDbDictionary
281
     1
  3
2dWireframe
350
2F
  3
Basic
350
32
  3
Brighten
350
36
  3
ColorChange
350
3A
  3
Conceptual
350
34
  3
Dim
350
35
  3
EdgeColorOff
350
3D
  3
Facepattern
350
39
  3
Flat
350
2B
  3
FlatWithEdges
350
2C
  3
Gouraud
350
2D
  3
GouraudWithEdges
350
2E
  3
Hidden
350
31
  3
JitterOff
350
3B
  3
Linepattern
350
38
  3
OverhangOff
350
3C
  3
Realistic
350
33
  3
Shaded
350
42
  3
Shaded with edges
350
41
  3
Shades of Gray
350
3E
  3
Sketchy
350
3F
  3
Thicken
350
37
  3
Wireframe
350
30
  3
X-Ray
350
40
  0
XRECORD
  5
37C
102
{ACAD_REACTORS
330
C
102
}
330
C
100
AcDbXrecord
280
     1
 90
        1
330
6A
  0
DICTIONARY
  5
301
102
{ACAD_REACTORS
330
C
102
}
330
C
100
AcDbDictionary
281
     1
  3
CANNOSCALE
350
302
  3
CMLEADERSTYLE
350
343
  3
CTABLESTYLE
350
342
  3
CVIEWDETAILSTYLE
350
376
  3
CVIEWSECTIONSTYLE
350
377
  3
LAYEREVAL
350
379
  3
LAYERNOTIFY
350
37A
  3
LIGHTINGUNITS
350
378
  3
MSLTSCALE
350
303
  0
XRECORD
  5
36D
102
{ACAD_REACTORS
330
36C
102
}
330
36C
100
AcDbXrecord
280
     1
290
     1
  0
XRECORD
  5
36F
102
{ACAD_REACTORS
330
36E
102
}
330
36E
100
AcDbXrecord
280
     1
290
     1
  0
ACDBDETAILVIEWSTYLE
  5
349
102
{ACAD_REACTORS
330
344
102
}
330
344
100
AcDbModelDocViewStyle
 70
     0
  3
Imperial24
290
     1
300
Imperial24
 90
        0
100
AcDbDetailViewStyle
 70
     0
 71
     0
 90
        3
 71
     1
340
11
 62
   256
 40
0.24
340
0
 62
   256
 40
0.24
300

 40
0.36
280
     3
 71
     2
340
16
 90
       25
 62
   256
 71
     3
340
11
 62
   256
 40
0.24
 90
        1
 40
0.75
 90
        1
300
%<\AcVar ViewType \f "%tc1">% %<\AcVar ViewDetailId>%\PSCALE %<\AcVar ViewScale \f "%sn">%
 71
     4
340
16
 90
       25
 62
   256
340
16
 90
       25
 62
   256
280
     0
  0
LAYOUT
  5
1E
102
{ACAD_REACTORS
330
1A
102
}
330
1A
100
AcDbPlotSettings
  1

  2
none_device
  4

  6

 40
0.0
 41
0.0
 42
0.0
 43
0.0
 44
0.0
 45
0.0
 46
0.0
 47
0.0
 48
0.0
 49
0.0
140
0.0
141
0.0
142
1.0
143
1.0
 70
   688
 72
     0
 73
     0
 74
     5
  7

 75
    16
147
1.0
 76
     0
 77
     2
 78
   300
148
0.0
149
0.0
100
AcDbLayout
  1
Layout1
 70
     1
 71
     1
 10
-0.5
 20
-0.5
 11
5.0
 21
5.0
 12
0.0
 22
0.0
 32
0.0
 14
-0.5
 24
-0.5
 34
-0.5
 15
5.0
 25
5.0
 35
5.0
146
0.0
 13
0.0
 23
0.0
 33
0.0
 16
1.0
 26
0.0
 36
0.0
 17
0.0
 27
1.0
 37
0.0
 76
     0
330
1B
  0
LAYOUT
  5
26
102
{ACAD_REACTORS
330
1A
102
}
330
1A
100
AcDbPlotSettings
  1

  2
none_device
  4

  6

 40
0.0
 41
0.0
 42
0.0
 43
0.0
 44
0.0
 45
0.0
 46
0.0
 47
0.0
 48
0.0
 49
0.0
140
0.0
141
0.0
142
1.0
143
1.0
 70
   688
 72
     0
 73
     0
 74
     5
  7

 75
    16
147
1.0
 76
     0
 77
     2
 78
   300
148
0.0
149
0.0
100
AcDbLayout
  1
Layout2
 70
     1
 71
     2
 10
0.0
 20
0.0
 11
0.0
 21
0.0
 12
0.0
 22
0.0
 32
0.0
 14
0.0
 24
0.0
 34
0.0
 15
0.0
 25
0.0
 35
0.0
146
0.0
 13
0.0
 23
0.0
 33
0.0
 16
1.0
 26
0.0
 36
0.0
 17
0.0
 27
1.0
 37
0.0
 76
     0
330
23
  0
LAYOUT
  5
22
102
{ACAD_REACTORS
330
1A
102
}
330
1A
100
AcDbPlotSettings
  1

  2
none_device
  4
Letter_(8.50_x_11.00_Inches)
  6

 40
6.349999999999999
 41
6.349999999999999
 42
6.350005079999999
 43
6.350005079999999
 44
215.9
 45
279.4
 46
0.0
 47
0.0
 48
0.0
 49
0.0
140
0.0
141
0.0
142
1.0
143
1.0
 70
  1712
 72
     0
 73
     0
 74
     0
  7

 75
     0
147
1.0
 76
     0
 77
     2
 78
   300
148
0.0
149
0.0
100
AcDbLayout
  1
Model
 70
     1
 71
     0
 10
-0.5
 20
-0.5
 11
5.0
 21
5.0
 12
0.0
 22
0.0
 32
0.0
 14
-0.5
 24
-0.5
 34
-0.5
 15
5.0
 25
5.0
 35
5.0
146
0.0
 13
0.0
 23
0.0
 33
0.0
 16
1.0
 26
0.0
 36
0.0
 17
0.0
 27
1.0
 37
0.0
 76
     0
330
1F
331
29
  0
MATERIAL
  5
45
102
{ACAD_REACTORS
330
43
102
}
330
43
100
AcDbMaterial
  1
ByBlock
 73
     1
 78
     1
172
     1
176
     1
270
     1
274
     1
  0
MATERIAL
  5
44
102
{ACAD_REACTORS
330
43
102
}
330
43
100
AcDbMaterial
  1
ByLayer
 73
     1
 78
     1
172
     1
176
     1
270
     1
274
     1
  0
MATERIAL
  5
46
102
{ACAD_REACTORS
330
43
102
}
330
43
100
AcDbMaterial
  1
Global
 73
     1
 78
     1
172
     1
176
     1
270
     1
274
     1
  0
MLEADERSTYLE
  5
6C
102
{ACAD_REACTORS
330
6B
102
}
330
6B
100
AcDbMLeaderStyle
179
     2
170
     2
171
     1
172
     0
 90
        2
 40
0.0
 41
0.0
173
     1
 91
-1056964608
340
14
 92
       -2
290
     1
 42
0.09
291
     1
 43
0.36
  3
Standard
 44
0.18
300

342
11
174
     1
178
     6
175
     1
176
     0
 93
-1056964608
 45
0.18
292
     0
297
     0
 46
0.18
 94
-1056964608
 47
1.0
 49
1.0
140
1.0
293
     1
141
0.0
294
     1
177
     0
142
1.0
295
     0
296
     0
143
0.125
271
     0
272
     9
273
     9
298
     0
  0
MLINESTYLE
  5
18
102
{ACAD_REACTORS
330
17
102
}
330
17
100
AcDbMlineStyle
  2
STANDARD
 70
     0
  3

 62
   256
 51
90.0
 52
90.0
 71
     2
 49
0.5
 62
   256
  6
BYLAYER
 49
-0.5
 62
   256
  6
BYLAYER
  0
ACDBPLACEHOLDER
  5
F
102
{ACAD_REACTORS
330
E
102
}
330
E
  0
SCALE
  5
48
102
{ACAD_REACTORS
330
47
102
}
330
47
100
AcDbScale
 70
     0
300
1:1
140
1.0
141
1.0
290
     1
  0
SCALE
  5
49
102
{ACAD_REACTORS
330
47
102
}
330
47
100
AcDbScale
 70
     0
300
1:2
140
1.0
141
2.0
290
     0
  0
SCALE
  5
4A
102
{ACAD_REACTORS
330
47
102
}
330
47
100
AcDbScale
 70
     0
300
1:4
140
1.0
141
4.0
290
     0
  0
SCALE
  5
4B
102
{ACAD_REACTORS
330
47
102
}
330
47
100
AcDbScale
 70
     0
300
1:5
140
1.0
141
5.0
290
     0
  0
SCALE
  5
4C
102
{ACAD_REACTORS
330
47
102
}
330
47
100
AcDbScale
 70
     0
300
1:8
140
1.0
141
8.0
290
     0
  0
SCALE
  5
4D
102
{ACAD_REACTORS
330
47
102
}
330
47
100
AcDbScale
 70
     0
300
1:10
140
1.0
141
10.0
290
     0
  0
SCALE
  5
4E
102
{ACAD_REACTORS
330
47
102
}
330
47
100
AcDbScale
 70
     0
300
1:16
140
1.0
141
16.0
290
     0
  0
SCALE
  5
4F
102
{ACAD_REACTORS
330
47
102
}
330
47
100
AcDbScale
 70
     0
300
1:20
140
1.0
141
20.0
290
     0
  0
SCALE
  5
50
102
{ACAD_REACTORS
330
47
102
}
330
47
100
AcDbScale
 70
     0
300
1:30
140
1.0
141
30.0
290
     0
  0
SCALE
  5
51
102
{ACAD_REACTORS
330
47
102
}
330
47
100
AcDbScale
 70
     0
300
1:40
140
1.0
141
40.0
290
     0
  0
SCALE
  5
52
102
{ACAD_REACTORS
330
47
102
}
330
47
100
AcDbScale
 70
     0
300
1:50
140
1.0
141
50.0
290
     0
  0
SCALE
  5
53
102
{ACAD_REACTORS
330
47
102
}
330
47
100
AcDbScale
 70
     0
300
1:100
140
1.0
141
100.0
290
     0
  0
SCALE
  5
54
102
{ACAD_REACTORS
330
47
102
}
330
47
100
AcDbScale
 70
     0
300
2:1
140
2.0
141
1.0
290
     0
  0
SCALE
  5
55
102
{ACAD_REACTORS
330
47
102
}
330
47
100
AcDbScale
 70
     0
300
4:1
140
4.0
141
1.0
290
     0
  0
SCALE
  5
56
102
{ACAD_REACTORS
330
47
102
}
330
47
100
AcDbScale
 70
     0
300
8:1
140
8.0
141
1.0
290
     0
  0
SCALE
  5
57
102
{ACAD_REACTORS
330
47
102
}
330
47
100
AcDbScale
 70
     0
300
10:1
140
10.0
141
1.0
290
     0
  0
SCALE
  5
58
102
{ACAD_REACTORS
330
47
102
}
330
47
100
AcDbScale
 70
     0
300
100:1
140
100.0
141
1.0
290
     0
  0
SCALE
  5
59
102
{ACAD_REACTORS
330
47
102
}
330
47
100
AcDbScale
 70
     0
300
1/128" = 1'-0"
140
0.0078125
141
12.0
290
     0
  0
SCALE
  5
5A
102
{ACAD_REACTORS
330
47
102
}
330
47
100
AcDbScale
 70
     0
300
1/64" = 1'-0"
140
0.015625
141
12.0
290
     0
  0
SCALE
  5
5B
102
{ACAD_REACTORS
330
47
102
}
330
47
100
AcDbScale
 70
     0
300
1/32" = 1'-0"
140
0.03125
141
12.0
290
     0
  0
SCALE
  5
5C
102
{ACAD_REACTORS
330
47
102
}
330
47
100
AcDbScale
 70
     0
300
1/16" = 1'-0"
140
0.0625
141
12.0
290
     0
  0
SCALE
  5
5D
102
{ACAD_REACTORS
330
47
102
}
330
47
100
AcDbScale
 70
     0
300
3/32" = 1'-0"
140
0.09375
141
12.0
290
     0
  0
SCALE
  5
5E
102
{ACAD_REACTORS
330
47
102
}
330
47
100
AcDbScale
 70
     0
300
1/8" = 1'-0"
140
0.125
141
12.0
290
     0
  0
SCALE
  5
5F
102
{ACAD_REACTORS
330
47
102
}
330
47
100
AcDbScale
 70
     0
300
3/16" = 1'-0"
140
0.1875
141
12.0
290
     0
  0
SCALE
  5
60
102
{ACAD_REACTORS
330
47
102
}
330
47
100
AcDbScale
 70
     0
300
1/4" = 1'-0"
140
0.25
141
12.0
290
     0
  0
SCALE
  5
61
102
{ACAD_REACTORS
330
47
102
}
330
47
100
AcDbScale
 70
     0
300
3/8" = 1'-0"
140
0.375
141
12.0
290
     0
  0
SCALE
  5
62
102
{ACAD_REACTORS
330
47
102
}
330
47
100
AcDbScale
 70
     0
300
1/2" = 1'-0"
140
0.5
141
12.0
290
     0
  0
SCALE
  5
63
102
{ACAD_REACTORS
330
47
102
}
330
47
100
AcDbScale
 70
     0
300
3/4" = 1'-0"
140
0.75
141
12.0
290
     0
  0
SCALE
  5
64
102
{ACAD_REACTORS
330
47
102
}
330
47
100
AcDbScale
 70
     0
300
1" = 1'-0"
140
1.0
141
12.0
290
     0
  0
SCALE
  5
65
102
{ACAD_REACTORS
330
47
102
}
330
47
100
AcDbScale
 70
     0
300
1-1/2" = 1'-0"
140
1.5
141
12.0
290
     0
  0
SCALE
  5
66
102
{ACAD_REACTORS
330
47
102
}
330
47
100
AcDbScale
 70
     0
300
3" = 1'-0"
140
3.0
141
12.0
290
     0
  0
SCALE
  5
67
102
{ACAD_REACTORS
330
47
102
}
330
47
100
AcDbScale
 70
     0
300
6" = 1'-0"
140
6.0
141
12.0
290
     0
  0
SCALE
  5
68
102
{ACAD_REACTORS
330
47
102
}
330
47
100
AcDbScale
 70
     0
300
1'-0" = 1'-0"
140
12.0
141
12.0
290
     0
  0
ACDBSECTIONVIEWSTYLE
  5
348
102
{ACAD_REACTORS
330
345
102
}
330
345
100
AcDbModelDocViewStyle
 70
     0
  3
Imperial24
290
     1
300
Imperial24
 90
        0
100
AcDbSectionViewStyle
 70
     0
 71
     0
 90
       78
 71
     1
340
11
 62
   256
 40
0.24
340
0
340
0
 62
   256
 40
0.24
300
I, O, Q, S, X, Z
 40
0.48
 90
        3
 40
0.18
 90
        1
 71
     2
340
16
 90
       25
 62
   256
340
16
 90
       50
 62
   256
 40
0.24
 40
0.0
 40
0.24
 71
     3
340
11
 62
   256
 40
0.24
 90
        1
 40
0.75
 90
        1
300
%<\AcVar ViewType \f "%tc1">% %<\AcVar ViewSectionStartId>%-%<\AcVar ViewSectionEndId>%\PSCALE %<\AcVar ViewScale \f "%sn">%
 71
     4
 62
   256
 62
   257
300
ANSI31
 40
1.0
 90
        0
290
     0
290
     0
 90
        6
 40
0.0
 40
1.570796326794896
 40
0.2617993877991494
 40
1.308996938995747
 40
-0.2617993877991494
 40
1.832595714594046
  0
TABLESTYLE
  5
6A
102
{ACAD_XDICTIONARY
360
33B
102
}
102
{ACAD_REACTORS
330
69
102
}
330
69
100
AcDbTableStyle
280
     0
  3
Standard
 70
     0
 71
     0
 40
0.06
 41
0.06
280
     0
281
     0
  7
Standard
140
0.18
170
     2
 62
     0
 63
     7
283
     0
 90
        4
 91
        0
  1

274
    -2
284
     1
 64
     0
275
    -2
285
     1
 65
     0
276
    -2
286
     1
 66
     0
277
    -2
287
     1
 67
     0
278
    -2
288
     1
 68
     0
279
    -2
289
     1
 69
     0
  7
Standard
140
0.25
170
     5
 62
     0
 63
     7
283
     0
 90
        4
 91
        0
  1

274
    -2
284
     1
 64
     0
275
    -2
285
     1
 65
     0
276
    -2
286
     1
 66
     0
277
    -2
287
     1
 67
     0
278
    -2
288
     1
 68
     0
279
    -2
289
     1
 69
     0
  7
Standard
140
0.18
170
     5
 62
     0
 63
     7
283
     0
 90
        4
 91
        0
  1

274
    -2
284
     1
 64
     0
275
    -2
285
     1
 65
     0
276
    -2
286
     1
 66
     0
277
    -2
287
     1
 67
     0
278
    -2
288
     1
 68
     0
279
    -2
289
     1
 69
     0
  0
VISUALSTYLE
  5
2F
102
{ACAD_REACTORS
330
2A
102
}
330
2A
100
AcDbVisualStyle
  2
2dWireframe
 70
     4
177
     3
291
     0
 70
    58
 90
        0
176
     1
 90
        2
176
     1
 90
        0
176
     1
 90
        0
176
     1
 40
0.6
176
     1
 40
30.0
176
     1
 62
     7
420
 16777215
176
     1
 90
        1
176
     1
 90
        4
176
     1
 62
     7
176
     1
 62
   257
176
     1
 90
        1
176
     1
 90
        1
176
     1
 40
1.0
176
     1
 90
        0
176
     1
 62
   257
176
     1
 40
1.0
176
     1
 90
        1
176
     1
 90
        6
176
     1
 90
        2
176
     1
 62
     7
176
     1
 90
        5
176
     1
 90
        0
176
     1
 90
        0
176
     1
290
     0
176
     1
 90
        1
176
     1
 40
0.0
176
     1
 90
        0
176
     1
290
     1
176
     1
290
     1
176
     1
290
     0
176
     1
290
     0
176
     1
290
     0
176
     1
290
     0
176
     1
290
     0
176
     1
290
     0
176
     1
290
     0
176
     1
 90
       50
176
     1
 40
0.0
176
     1
 40
1.0
176
     1
 90
        0
176
     1
 62
    18
420
        0
176
     1
 90
       50
176
     1
 90
        3
176
     1
 62
     5
420
      255
176
     1
290
     0
176
     1
 90
       50
176
     1
 90
       50
176
     1
 90
       50
176
     1
290
     0
176
     1
 90
       50
176
     1
 62
   256
176
     0
 40
1.0
176
     0
 90
        2
176
     1
  1
strokes_ogs.tif
176
     1
290
     0
176
     1
 40
1.0
176
     1
 40
1.0
176
     1
  0
VISUALSTYLE
  5
32
102
{ACAD_REACTORS
330
2A
102
}
330
2A
100
AcDbVisualStyle
  2
Basic
 70
     7
177
     3
291
     1
 70
    58
 90
        1
176
     1
 90
        0
176
     1
 90
        1
176
     1
 90
        0
176
     1
 40
0.6
176
     1
 40
30.0
176
     1
 62
     7
420
 16777215
176
     1
 90
        0
176
     1
 90
        4
176
     1
 62
     7
176
     1
 62
   257
176
     1
 90
        1
176
     1
 90
        1
176
     1
 40
1.0
176
     1
 90
        8
176
     1
 62
     7
176
     1
 40
1.0
176
     1
 90
        1
176
     1
 90
        6
176
     1
 90
        2
176
     1
 62
     7
176
     1
 90
        5
176
     1
 90
        0
176
     1
 90
        0
176
     1
290
     0
176
     1
 90
        1
176
     1
 40
0.0
176
     1
 90
        0
176
     1
290
     0
176
     1
290
     1
176
     1
290
     1
176
     1
290
     0
176
     1
290
     0
176
     1
290
     0
176
     1
290
     0
176
     1
290
     0
176
     1
290
     0
176
     1
 90
       50
176
     1
 40
0.0
176
     1
 40
1.0
176
     1
 90
        0
176
     1
 62
    18
420
        0
176
     1
 90
       50
176
     1
 90
        3
176
     1
 62
     5
420
      255
176
     1
290
     0
176
     1
 90
       50
176
     1
 90
       50
176
     1
 90
       50
176
     1
290
     0
176
     1
 90
       50
176
     1
 62
   256
176
     0
 40
1.0
176
     0
 90
        2
176
     1
  1
strokes_ogs.tif
176
     1
290
     0
176
     1
 40
1.0
176
     1
 40
1.0
176
     1
  0
VISUALSTYLE
  5
36
102
{ACAD_REACTORS
330
2A
102
}
330
2A
100
AcDbVisualStyle
  2
Brighten
 70
    12
177
     3
291
     1
 70
    58
 90
        2
176
     1
 90
        2
176
     1
 90
        0
176
     1
 90
        0
176
     1
 40
0.6
176
     1
 40
30.0
176
     1
 62
     7
420
 16777215
176
     1
 90
        1
176
     1
 90
        4
176
     1
 62
     7
176
     1
 62
   257
176
     1
 90
        1
176
     1
 90
        1
176
     1
 40
1.0
176
     1
 90
        8
176
     1
 62
     7
176
     1
 40
1.0
176
     1
 90
        1
176
     1
 90
        6
176
     1
 90
        2
176
     1
 62
     7
176
     1
 90
        5
176
     1
 90
        0
176
     1
 90
        0
176
     1
290
     0
176
     1
 90
        1
176
     1
 40
50.0
176
     1
 90
        0
176
     1
290
     0
176
     1
290
     1
176
     1
290
     1
176
     1
290
     0
176
     1
290
     0
176
     1
290
     0
176
     1
290
     0
176
     1
290
     0
176
     1
290
     0
176
     1
 90
       50
176
     1
 40
0.0
176
     1
 40
1.0
176
     1
 90
        0
176
     1
 62
    18
420
        0
176
     1
 90
       50
176
     1
 90
        3
176
     1
 62
     5
420
      255
176
     1
290
     0
176
     1
 90
       50
176
     1
 90
       50
176
     1
 90
       50
176
     1
290
     0
176
     1
 90
       50
176
     1
 62
   256
176
     0
 40
1.0
176
     0
 90
        2
176
     1
  1
strokes_ogs.tif
176
     1
290
     0
176
     1
 40
1.0
176
     1
 40
1.0
176
     1
  0
VISUALSTYLE
  5
3A
102
{ACAD_REACTORS
330
2A
102
}
330
2A
100
AcDbVisualStyle
  2
ColorChange
 70
    16
177
     3
291
     1
 70
    58
 90
        2
176
     1
 90
        2
176
     1
 90
        3
176
     1
 90
        0
176
     1
 40
0.6
176
     1
 40
30.0
176
     1
 62
     8
420
  8421504
176
     1
 90
        1
176
     1
 90
        4
176
     1
 62
     7
176
     1
 62
   257
176
     1
 90
        1
176
     1
 90
        1
176
     1
 40
1.0
176
     1
 90
        8
176
     1
 62
     8
420
  8421504
176
     1
 40
1.0
176
     1
 90
        1
176
     1
 90
        6
176
     1
 90
        2
176
     1
 62
     7
176
     1
 90
        5
176
     1
 90
        0
176
     1
 90
        0
176
     1
290
     0
176
     1
 90
        1
176
     1
 40
0.0
176
     1
 90
        0
176
     1
290
     0
176
     1
290
     1
176
     1
290
     1
176
     1
290
     0
176
     1
290
     0
176
     1
290
     0
176
     1
290
     0
176
     1
290
     0
176
     1
290
     0
176
     1
 90
       50
176
     1
 40
0.0
176
     1
 40
1.0
176
     1
 90
        0
176
     1
 62
    18
420
        0
176
     1
 90
       50
176
     1
 90
        3
176
     1
 62
     5
420
      255
176
     1
290
     0
176
     1
 90
       50
176
     1
 90
       50
176
     1
 90
       50
176
     1
290
     0
176
     1
 90
       50
176
     1
 62
   256
176
     0
 40
1.0
176
     0
 90
        2
176
     1
  1
strokes_ogs.tif
176
     1
290
     0
176
     1
 40
1.0
176
     1
 40
1.0
176
     1
  0
VISUALSTYLE
  5
34
102
{ACAD_REACTORS
330
2A
102
}
330
2A
100
AcDbVisualStyle
  2
Conceptual
 70
     9
177
     3
291
     0
 70
    58
 90
        3
176
     1
 90
        2
176
     1
 90
        0
176
     1
 90
        0
176
     1
 40
0.6
176
     1
 40
30.0
176
     1
 62
     7
420
 16777215
176
     1
 90
        2
176
     1
 90
        2
176
     1
 62
     7
176
     1
 62
   257
176
     1
 90
        1
176
     1
 90
        1
176
     1
 40
179.0
176
     1
 90
        8
176
     1
 62
     7
176
     1
 40
1.0
176
     1
 90
        1
176
     1
 90
        6
176
     1
 90
        2
176
     1
 62
     7
176
     1
 90
        3
176
     1
 90
        0
176
     1
 90
        0
176
     1
290
     0
176
     1
 90
        1
176
     1
 40
0.0
176
     1
 90
        0
176
     1
290
     0
176
     1
290
     1
176
     1
290
     1
176
     1
290
     0
176
     1
290
     0
176
     1
290
     0
176
     1
290
     0
176
     1
290
     0
176
     1
290
     0
176
     1
 90
       50
176
     1
 40
0.0
176
     1
 40
1.0
176
     1
 90
        0
176
     1
 62
    18
420
        0
176
     1
 90
       50
176
     1
 90
        3
176
     1
 62
     5
420
      255
176
     1
290
     0
176
     1
 90
       50
176
     1
 90
       50
176
     1
 90
       50
176
     1
290
     0
176
     1
 90
       50
176
     1
 62
   256
176
     0
 40
1.0
176
     0
 90
        2
176
     1
  1
strokes_ogs.tif
176
     1
290
     0
176
     1
 40
1.0
176
     1
 40
1.0
176
     1
  0
VISUALSTYLE
  5
35
102
{ACAD_REACTORS
330
2A
102
}
330
2A
100
AcDbVisualStyle
  2
Dim
 70
    11
177
     3
291
     1
 70
    58
 90
        2
176
     1
 90
        2
176
     1
 90
        0
176
     1
 90
        0
176
     1
 40
0.6
176
     1
 40
30.0
176
     1
 62
     7
420
 16777215
176
     1
 90
        1
176
     1
 90
        4
176
     1
 62
     7
176
     1
 62
   257
176
     1
 90
        1
176
     1
 90
        1
176
     1
 40
1.0
176
     1
 90
        8
176
     1
 62
     7
176
     1
 40
1.0
176
     1
 90
        1
176
     1
 90
        6
176
     1
 90
        2
176
     1
 62
     7
176
     1
 90
        5
176
     1
 90
        0
176
     1
 90
        0
176
     1
290
     0
176
     1
 90
        1
176
     1
 40
-50.0
176
     1
 90
        0
176
     1
290
     0
176
     1
290
     1
176
     1
290
     1
176
     1
290
     0
176
     1
290
     0
176
     1
290
     0
176
     1
290
     0
176
     1
290
     0
176
     1
290
     0
176
     1
 90
       50
176
     1
 40
0.0
176
     1
 40
1.0
176
     1
 90
        0
176
     1
 62
    18
420
        0
176
     1
 90
       50
176
     1
 90
        3
176
     1
 62
     5
420
      255
176
     1
290
     0
176
     1
 90
       50
176
     1
 90
       50
176
     1
 90
       50
176
     1
290
     0
176
     1
 90
       50
176
     1
 62
   256
176
     0
 40
1.0
176
     0
 90
        2
176
     1
  1
strokes_ogs.tif
176
     1
290
     0
176
     1
 40
1.0
176
     1
 40
1.0
176
     1
  0
VISUALSTYLE
  5
3D
102
{ACAD_REACTORS
330
2A
102
}
330
2A
100
AcDbVisualStyle
  2
EdgeColorOff
 70
    22
177
     3
291
     1
 70
    58
 90
        2
176
     0
 90
        2
176
     0
 90
        0
176
     0
 90
        0
176
     0
 40
0.6
176
     0
 40
30.0
176
     0
 62
     7
420
 16777215
176
     0
 90
        1
176
     0
 90
        4
176
     0
 62
     7
176
     0
 62
   257
176
     0
 90
        1
176
     0
 90
        1
176
     0
 40
1.0
176
     0
 90
        8
176
     2
 62
     7
176
     0
 40
1.0
176
     0
 90
        1
176
     0
 90
        6
176
     0
 90
        2
176
     0
 62
     7
176
     0
 90
        5
176
     0
 90
        0
176
     0
 90
        0
176
     0
290
     0
176
     0
 90
        1
176
     0
 40
0.0
176
     0
 90
        0
176
     0
290
     0
176
     0
290
     1
176
     0
290
     1
176
     0
290
     0
176
     0
290
     0
176
     0
290
     0
176
     0
290
     0
176
     0
290
     0
176
     0
290
     0
176
     0
 90
       50
176
     0
 40
0.0
176
     0
 40
1.0
176
     0
 90
        0
176
     0
 62
    18
420
        0
176
     0
 90
       50
176
     0
 90
        3
176
     0
 62
     5
420
      255
176
     0
290
     0
176
     0
 90
       50
176
     0
 90
       50
176
     0
 90
       50
176
     0
290
     0
176
     0
 90
       50
176
     0
 62
   256
176
     0
 40
1.0
176
     0
 90
        2
176
     0
  1
strokes_ogs.tif
176
     0
290
     0
176
     0
 40
1.0
176
     0
 40
1.0
176
     0
  0
VISUALSTYLE
  5
39
102
{ACAD_REACTORS
330
2A
102
}
330
2A
100
AcDbVisualStyle
  2
Facepattern
 70
    15
177
     3
291
     1
 70
    58
 90
        2
176
     1
 90
        2
176
     1
 90
        0
176
     1
 90
        0
176
     1
 40
0.6
176
     1
 40
30.0
176
     1
 62
     7
420
 16777215
176
     1
 90
        1
176
     1
 90
        4
176
     1
 62
     7
176
     1
 62
   257
176
     1
 90
        1
176
     1
 90
        1
176
     1
 40
1.0
176
     1
 90
        8
176
     1
 62
     7
176
     1
 40
1.0
176
     1
 90
        1
176
     1
 90
        6
176
     1
 90
        2
176
     1
 62
     7
176
     1
 90
        5
176
     1
 90
        0
176
     1
 90
        0
176
     1
290
     0
176
     1
 90
        1
176
     1
 40
0.0
176
     1
 90
        0
176
     1
290
     0
176
     1
290
     1
176
     1
290
     1
176
     1
290
     0
176
     1
290
     0
176
     1
290
     0
176
     1
290
     0
176
     1
290
     0
176
     1
290
     0
176
     1
 90
       50
176
     1
 40
0.0
176
     1
 40
1.0
176
     1
 90
        0
176
     1
 62
    18
420
        0
176
     1
 90
       50
176
     1
 90
        3
176
     1
 62
     5
420
      255
176
     1
290
     0
176
     1
 90
       50
176
     1
 90
       50
176
     1
 90
       50
176
     1
290
     0
176
     1
 90
       50
176
     1
 62
   256
176
     0
 40
1.0
176
     0
 90
        2
176
     1
  1
strokes_ogs.tif
176
     1
290
     0
176
     1
 40
1.0
176
     1
 40
1.0
176
     1
  0
VISUALSTYLE
  5
2B
102
{ACAD_REACTORS
330
2A
102
}
330
2A
100
AcDbVisualStyle
  2
Flat
 70
     0
177
     3
291
     1
 70
    58
 90
        2
176
     1
 90
        1
176
     1
 90
        1
176
     1
 90
        2
176
     1
 40
0.6
176
     1
 40
30.0
176
     1
 62
     7
420
 16777215
176
     1
 90
        0
176
     1
 90
        0
176
     1
 62
     7
176
     1
 62
   257
176
     1
 90
        1
176
     1
 90
        1
176
     1
 40
1.0
176
     1
 90
        8
176
     1
 62
     7
176
     1
 40
1.0
176
     1
 90
        1
176
     1
 90
        6
176
     1
 90
        2
176
     1
 62
     7
176
     1
 90
        5
176
     1
 90
        0
176
     1
 90
        0
176
     1
290
     0
176
     1
 90
       13
176
     1
 40
0.0
176
     1
 90
        0
176
     1
290
     0
176
     1
290
     1
176
     1
290
     1
176
     1
290
     0
176
     1
290
     0
176
     1
290
     0
176
     1
290
     0
176
     1
290
     0
176
     1
290
     0
176
     1
 90
       50
176
     1
 40
0.0
176
     1
 40
1.0
176
     1
 90
        0
176
     1
 62
    18
420
        0
176
     1
 90
       50
176
     1
 90
        3
176
     1
 62
     5
420
      255
176
     1
290
     0
176
     1
 90
       50
176
     1
 90
       50
176
     1
 90
       50
176
     1
290
     0
176
     1
 90
       50
176
     1
 62
   256
176
     0
 40
1.0
176
     0
 90
        2
176
     1
  1
strokes_ogs.tif
176
     1
290
     0
176
     1
 40
1.0
176
     1
 40
1.0
176
     1
  0
VISUALSTYLE
  5
2C
102
{ACAD_REACTORS
330
2A
102
}
330
2A
100
AcDbVisualStyle
  2
FlatWithEdges
 70
     1
177
     3
291
     1
 70
    58
 90
        2
176
     1
 90
        1
176
     1
 90
        1
176
     1
 90
        2
176
     1
 40
0.6
176
     1
 40
30.0
176
     1
 62
     7
420
 16777215
176
     1
 90
        1
176
     1
 90
        0
176
     1
 62
     7
176
     1
 62
   257
176
     1
 90
        1
176
     1
 90
        1
176
     1
 40
1.0
176
     1
 90
        0
176
     1
 62
   257
176
     1
 40
1.0
176
     1
 90
        1
176
     1
 90
        6
176
     1
 90
        2
176
     1
 62
     7
176
     1
 90
        5
176
     1
 90
        0
176
     1
 90
        0
176
     1
290
     0
176
     1
 90
       13
176
     1
 40
0.0
176
     1
 90
        0
176
     1
290
     0
176
     1
290
     1
176
     1
290
     1
176
     1
290
     0
176
     1
290
     0
176
     1
290
     0
176
     1
290
     0
176
     1
290
     0
176
     1
290
     0
176
     1
 90
       50
176
     1
 40
0.0
176
     1
 40
1.0
176
     1
 90
        0
176
     1
 62
    18
420
        0
176
     1
 90
       50
176
     1
 90
        3
176
     1
 62
     5
420
      255
176
     1
290
     0
176
     1
 90
       50
176
     1
 90
       50
176
     1
 90
       50
176
     1
290
     0
176
     1
 90
       50
176
     1
 62
   256
176
     0
 40
1.0
176
     0
 90
        2
176
     1
  1
strokes_ogs.tif
176
     1
290
     0
176
     1
 40
1.0
176
     1
 40
1.0
176
     1
  0
VISUALSTYLE
  5
2D
102
{ACAD_REACTORS
330
2A
102
}
330
2A
100
AcDbVisualStyle
  2
Gouraud
 70
     2
177
     3
291
     1
 70
    58
 90
        2
176
     1
 90
        2
176
     1
 90
        1
176
     1
 90
        2
176
     1
 40
0.6
176
     1
 40
30.0
176
     1
 62
     7
420
 16777215
176
     1
 90
        0
176
     1
 90
        0
176
     1
 62
     7
176
     1
 62
   257
176
     1
 90
        1
176
     1
 90
        1
176
     1
 40
1.0
176
     1
 90
        0
176
     1
 62
     7
176
     1
 40
1.0
176
     1
 90
        1
176
     1
 90
        6
176
     1
 90
        2
176
     1
 62
     7
176
     1
 90
        5
176
     1
 90
        0
176
     1
 90
        0
176
     1
290
     0
176
     1
 90
       13
176
     1
 40
0.0
176
     1
 90
        0
176
     1
290
     0
176
     1
290
     1
176
     1
290
     1
176
     1
290
     0
176
     1
290
     0
176
     1
290
     0
176
     1
290
     0
176
     1
290
     0
176
     1
290
     0
176
     1
 90
       50
176
     1
 40
0.0
176
     1
 40
1.0
176
     1
 90
        0
176
     1
 62
    18
420
        0
176
     1
 90
       50
176
     1
 90
        3
176
     1
 62
     5
420
      255
176
     1
290
     0
176
     1
 90
       50
176
     1
 90
       50
176
     1
 90
       50
176
     1
290
     0
176
     1
 90
       50
176
     1
 62
   256
176
     0
 40
1.0
176
     0
 90
        2
176
     1
  1
strokes_ogs.tif
176
     1
290
     0
176
     1
 40
1.0
176
     1
 40
1.0
176
     1
  0
VISUALSTYLE
  5
2E
102
{ACAD_REACTORS
330
2A
102
}
330
2A
100
AcDbVisualStyle
  2
GouraudWithEdges
 70
     3
177
     3
291
     1
 70
    58
 90
        2
176
     1
 90
        2
176
     1
 90
        1
176
     1
 90
        2
176
     1
 40
0.6
176
     1
 40
30.0
176
     1
 62
     7
420
 16777215
176
     1
 90
        1
176
     1
 90
        0
176
     1
 62
     7
176
     1
 62
   257
176
     1
 90
        1
176
     1
 90
        1
176
     1
 40
1.0
176
     1
 90
        0
176
     1
 62
   257
176
     1
 40
1.0
176
     1
 90
        1
176
     1
 90
        6
176
     1
 90
        2
176
     1
 62
     7
176
     1
 90
        5
176
     1
 90
        0
176
     1
 90
        0
176
     1
290
     0
176
     1
 90
       13
176
     1
 40
0.0
176
     1
 90
        0
176
     1
290
     0
176
     1
290
     1
176
     1
290
     1
176
     1
290
     0
176
     1
290
     0
176
     1
290
     0
176
     1
290
     0
176
     1
290
     0
176
     1
290
     0
176
     1
 90
       50
176
     1
 40
0.0
176
     1
 40
1.0
176
     1
 90
        0
176
     1
 62
    18
420
        0
176
     1
 90
       50
176
     1
 90
        3
176
     1
 62
     5
420
      255
176
     1
290
     0
176
     1
 90
       50
176
     1
 90
       50
176
     1
 90
       50
176
     1
290
     0
176
     1
 90
       50
176
     1
 62
   256
176
     0
 40
1.0
176
     0
 90
        2
176
     1
  1
strokes_ogs.tif
176
     1
290
     0
176
     1
 40
1.0
176
     1
 40
1.0
176
     1
  0
VISUALSTYLE
  5
31
102
{ACAD_REACTORS
330
2A
102
}
330
2A
100
AcDbVisualStyle
  2
Hidden
 70
     6
177
     3
291
     0
 70
    58
 90
        1
176
     1
 90
        2
176
     1
 90
        2
176
     1
 90
        0
176
     1
 40
0.6
176
     1
 40
30.0
176
     1
 62
     7
420
 16777215
176
     1
 90
        2
176
     1
 90
        2
176
     1
 62
     7
176
     1
 62
   257
176
     1
 90
        2
176
     1
 90
        1
176
     1
 40
40.0
176
     1
 90
        0
176
     1
 62
   257
176
     1
 40
1.0
176
     1
 90
        1
176
     1
 90
        6
176
     1
 90
        2
176
     1
 62
     7
176
     1
 90
        3
176
     1
 90
        0
176
     1
 90
        0
176
     1
290
     0
176
     1
 90
        1
176
     1
 40
0.0
176
     1
 90
        0
176
     1
290
     0
176
     1
290
     1
176
     1
290
     1
176
     1
290
     0
176
     1
290
     0
176
     1
290
     0
176
     1
290
     0
176
     1
290
     0
176
     1
290
     0
176
     1
 90
       50
176
     1
 40
0.0
176
     1
 40
1.0
176
     1
 90
        0
176
     1
 62
    18
420
        0
176
     1
 90
       50
176
     1
 90
        3
176
     1
 62
     5
420
      255
176
     1
290
     0
176
     1
 90
       50
176
     1
 90
       50
176
     1
 90
       50
176
     1
290
     0
176
     1
 90
       50
176
     1
 62
   256
176
     0
 40
1.0
176
     0
 90
        2
176
     1
  1
strokes_ogs.tif
176
     1
290
     0
176
     1
 40
1.0
176
     1
 40
1.0
176
     1
  0
VISUALSTYLE
  5
3B
102
{ACAD_REACTORS
330
2A
102
}
330
2A
100
AcDbVisualStyle
  2
JitterOff
 70
    20
177
     3
291
     1
 70
    58
 90
        2
176
     0
 90
        2
176
     0
 90
        0
176
     0
 90
        0
176
     0
 40
0.6
176
     0
 40
30.0
176
     0
 62
     7
420
 16777215
176
     0
 90
        1
176
     0
 90
        4
176
     0
 62
     7
176
     0
 62
   257
176
     0
 90
        1
176
     0
 90
        1
176
     0
 40
1.0
176
     0
 90
       10
176
     2
 62
     7
176
     0
 40
1.0
176
     0
 90
        1
176
     0
 90
        6
176
     0
 90
        2
176
     0
 62
     7
176
     0
 90
        5
176
     0
 90
        0
176
     0
 90
        0
176
     0
290
     0
176
     0
 90
        1
176
     0
 40
0.0
176
     0
 90
        0
176
     0
290
     0
176
     0
290
     1
176
     0
290
     1
176
     0
290
     0
176
     0
290
     0
176
     0
290
     0
176
     0
290
     0
176
     0
290
     0
176
     0
290
     0
176
     0
 90
       50
176
     0
 40
0.0
176
     0
 40
1.0
176
     0
 90
        0
176
     0
 62
    18
420
        0
176
     0
 90
       50
176
     0
 90
        3
176
     0
 62
     5
420
      255
176
     0
290
     0
176
     0
 90
       50
176
     0
 90
       50
176
     0
 90
       50
176
     0
290
     0
176
     0
 90
       50
176
     0
 62
   256
176
     0
 40
1.0
176
     0
 90
        2
176
     0
  1
strokes_ogs.tif
176
     0
290
     0
176
     0
 40
1.0
176
     0
 40
1.0
176
     0
  0
VISUALSTYLE
  5
38
102
{ACAD_REACTORS
330
2A
102
}
330
2A
100
AcDbVisualStyle
  2
Linepattern
 70
    14
177
     3
291
     1
 70
    58
 90
        2
176
     1
 90
        2
176
     1
 90
        0
176
     1
 90
        0
176
     1
 40
0.6
176
     1
 40
30.0
176
     1
 62
     7
420
 16777215
176
     1
 90
        1
176
     1
 90
        4
176
     1
 62
     7
176
     1
 62
   257
176
     1
 90
        7
176
     1
 90
        7
176
     1
 40
1.0
176
     1
 90
        8
176
     1
 62
     7
176
     1
 40
1.0
176
     1
 90
        1
176
     1
 90
        6
176
     1
 90
        2
176
     1
 62
     7
176
     1
 90
        5
176
     1
 90
        0
176
     1
 90
        0
176
     1
290
     0
176
     1
 90
        1
176
     1
 40
0.0
176
     1
 90
        0
176
     1
290
     0
176
     1
290
     1
176
     1
290
     1
176
     1
290
     0
176
     1
290
     0
176
     1
290
     0
176
     1
290
     0
176
     1
290
     0
176
     1
290
     0
176
     1
 90
       50
176
     1
 40
0.0
176
     1
 40
1.0
176
     1
 90
        0
176
     1
 62
    18
420
        0
176
     1
 90
       50
176
     1
 90
        3
176
     1
 62
     5
420
      255
176
     1
290
     0
176
     1
 90
       50
176
     1
 90
       50
176
     1
 90
       50
176
     1
290
     0
176
     1
 90
       50
176
     1
 62
   256
176
     0
 40
1.0
176
     0
 90
        2
176
     1
  1
strokes_ogs.tif
176
     1
290
     0
176
     1
 40
1.0
176
     1
 40
1.0
176
     1
  0
VISUALSTYLE
  5
3C
102
{ACAD_REACTORS
330
2A
102
}
330
2A
100
AcDbVisualStyle
  2
OverhangOff
 70
    21
177
     3
291
     1
 70
    58
 90
        2
176
     0
 90
        2
176
     0
 90
        0
176
     0
 90
        0
176
     0
 40
0.6
176
     0
 40
30.0
176
     0
 62
     7
420
 16777215
176
     0
 90
        1
176
     0
 90
        4
176
     0
 62
     7
176
     0
 62
   257
176
     0
 90
        1
176
     0
 90
        1
176
     0
 40
1.0
176
     0
 90
        9
176
     2
 62
     7
176
     0
 40
1.0
176
     0
 90
        1
176
     0
 90
        6
176
     0
 90
        2
176
     0
 62
     7
176
     0
 90
        5
176
     0
 90
        0
176
     0
 90
        0
176
     0
290
     0
176
     0
 90
        1
176
     0
 40
0.0
176
     0
 90
        0
176
     0
290
     0
176
     0
290
     1
176
     0
290
     1
176
     0
290
     0
176
     0
290
     0
176
     0
290
     0
176
     0
290
     0
176
     0
290
     0
176
     0
290
     0
176
     0
 90
       50
176
     0
 40
0.0
176
     0
 40
1.0
176
     0
 90
        0
176
     0
 62
    18
420
        0
176
     0
 90
       50
176
     0
 90
        3
176
     0
 62
     5
420
      255
176
     0
290
     0
176
     0
 90
       50
176
     0
 90
       50
176
     0
 90
       50
176
     0
290
     0
176
     0
 90
       50
176
     0
 62
   256
176
     0
 40
1.0
176
     0
 90
        2
176
     0
  1
strokes_ogs.tif
176
     0
290
     0
176
     0
 40
1.0
176
     0
 40
1.0
176
     0
  0
VISUALSTYLE
  5
33
102
{ACAD_REACTORS
330
2A
102
}
330
2A
100
AcDbVisualStyle
  2
Realistic
 70
     8
177
     3
291
     0
 70
    58
 90
        2
176
     1
 90
        3
176
     1
 90
        0
176
     1
 90
        2
176
     1
 40
0.6
176
     1
 40
30.0
176
     1
 62
     7
420
 16777215
176
     1
 90
        0
176
     1
 90
        0
176
     1
 62
     7
176
     1
 62
   257
176
     1
 90
        1
176
     1
 90
        1
176
     1
 40
1.0
176
     1
 90
        8
176
     1
 62
   257
176
     1
 40
1.0
176
     1
 90
        1
176
     1
 90
        6
176
     1
 90
        2
176
     1
 62
     7
176
     1
 90
        3
176
     1
 90
        0
176
     1
 90
        0
176
     1
290
     0
176
     1
 90
       13
176
     1
 40
0.0
176
     1
 90
        0
176
     1
290
     0
176
     1
290
     1
176
     1
290
     1
176
     1
290
     0
176
     1
290
     0
176
     1
290
     0
176
     1
290
     0
176
     1
290
     0
176
     1
290
     0
176
     1
 90
       50
176
     1
 40
0.0
176
     1
 40
1.0
176
     1
 90
        0
176
     1
 62
    18
420
        0
176
     1
 90
       50
176
     1
 90
        3
176
     1
 62
     5
420
      255
176
     1
290
     0
176
     1
 90
       50
176
     1
 90
       50
176
     1
 90
       50
176
     1
290
     0
176
     1
 90
       50
176
     1
 62
   256
176
     0
 40
1.0
176
     0
 90
        2
176
     1
  1
strokes_ogs.tif
176
     1
290
     0
176
     1
 40
1.0
176
     1
 40
1.0
176
     1
  0
VISUALSTYLE
  5
42
102
{ACAD_REACTORS
330
2A
102
}
330
2A
100
AcDbVisualStyle
  2
Shaded
 70
    27
177
     3
291
     0
 70
    58
 90
        2
176
     1
 90
        2
176
     1
 90
        1
176
     1
 90
        2
176
     1
 40
0.6
176
     1
 40
30.0
176
     1
 62
     7
420
 16777215
176
     1
 90
        0
176
     1
 90
        4
176
     1
 62
     7
176
     1
 62
   257
176
     1
 90
        1
176
     1
 90
        1
176
     1
 40
1.0
176
     1
 90
        8
176
     1
 62
   257
176
     1
 40
1.0
176
     1
 90
        1
176
     1
 90
        6
176
     1
 90
        2
176
     1
 62
     8
420
  7895160
176
     1
 90
        3
176
     1
 90
        0
176
     1
 90
        0
176
     1
290
     0
176
     1
 90
        5
176
     1
 40
0.0
176
     1
 90
        0
176
     1
290
     0
176
     1
290
     1
176
     1
290
     1
176
     1
290
     0
176
     1
290
     0
176
     1
290
     0
176
     1
290
     0
176
     1
290
     0
176
     1
290
     0
176
     1
 90
       50
176
     1
 40
0.0
176
     1
 40
1.0
176
     1
 90
        0
176
     1
 62
    18
420
        0
176
     1
 90
       50
176
     1
 90
        3
176
     1
 62
     5
420
      255
176
     1
290
     0
176
     1
 90
       50
176
     1
 90
       50
176
     1
 90
       50
176
     1
290
     0
176
     1
 90
       50
176
     1
 62
   256
176
     0
 40
1.0
176
     0
 90
        2
176
     1
  1
strokes_ogs.tif
176
     1
290
     0
176
     1
 40
1.0
176
     1
 40
1.0
176
     1
  0
VISUALSTYLE
  5
41
102
{ACAD_REACTORS
330
2A
102
}
330
2A
100
AcDbVisualStyle
  2
Shaded with edges
 70
    26
177
     3
291
     0
 70
    58
 90
        2
176
     1
 90
        2
176
     1
 90
        1
176
     1
 90
        2
176
     1
 40
0.6
176
     1
 40
30.0
176
     1
 62
     7
420
 16777215
176
     1
 90
        1
176
     1
 90
        2
176
     1
 62
     7
176
     1
 62
   257
176
     1
 90
        2
176
     1
 90
        1
176
     1
 40
1.0
176
     1
 90
        8
176
     1
 62
   257
176
     1
 40
1.0
176
     1
 90
        1
176
     1
 90
        6
176
     1
 90
        2
176
     1
 62
     7
176
     1
 90
        3
176
     1
 90
        0
176
     1
 90
        0
176
     1
290
     0
176
     1
 90
        5
176
     1
 40
0.0
176
     1
 90
        0
176
     1
290
     0
176
     1
290
     1
176
     1
290
     1
176
     1
290
     0
176
     1
290
     0
176
     1
290
     0
176
     1
290
     0
176
     1
290
     0
176
     1
290
     0
176
     1
 90
       50
176
     1
 40
0.0
176
     1
 40
1.0
176
     1
 90
        0
176
     1
 62
    18
420
        0
176
     1
 90
       50
176
     1
 90
        3
176
     1
 62
     5
420
      255
176
     1
290
     0
176
     1
 90
       50
176
     1
 90
       50
176
     1
 90
       50
176
     1
290
     0
176
     1
 90
       50
176
     1
 62
   256
176
     0
 40
1.0
176
     0
 90
        2
176
     1
  1
strokes_ogs.tif
176
     1
290
     0
176
     1
 40
1.0
176
     1
 40
1.0
176
     1
  0
VISUALSTYLE
  5
3E
102
{ACAD_REACTORS
330
2A
102
}
330
2A
100
AcDbVisualStyle
  2
Shades of Gray
 70
    23
177
     3
291
     0
 70
    58
 90
        2
176
     1
 90
        2
176
     1
 90
        3
176
     1
 90
        0
176
     1
 40
0.6
176
     1
 40
30.0
176
     1
 62
     7
420
 16777215
176
     1
 90
        2
176
     1
 90
        2
176
     1
 62
     7
176
     1
 62
     7
176
     1
 90
        1
176
     1
 90
        1
176
     1
 40
40.0
176
     1
 90
        8
176
     1
 62
     7
176
     1
 40
1.0
176
     1
 90
        1
176
     1
 90
        6
176
     1
 90
        2
176
     1
 62
     7
176
     1
 90
        3
176
     1
 90
        0
176
     1
 90
        0
176
     1
290
     0
176
     1
 90
        1
176
     1
 40
0.0
176
     1
 90
        0
176
     1
290
     0
176
     1
290
     1
176
     1
290
     1
176
     1
290
     0
176
     1
290
     0
176
     1
290
     0
176
     1
290
     0
176
     1
290
     0
176
     1
290
     0
176
     1
 90
       50
176
     1
 40
0.0
176
     1
 40
1.0
176
     1
 90
        0
176
     1
 62
    18
420
        0
176
     1
 90
       50
176
     1
 90
        3
176
     1
 62
     5
420
      255
176
     1
290
     0
176
     1
 90
       50
176
     1
 90
       50
176
     1
 90
       50
176
     1
290
     0
176
     1
 90
       50
176
     1
 62
   256
176
     0
 40
1.0
176
     0
 90
        2
176
     1
  1
strokes_ogs.tif
176
     1
290
     0
176
     1
 40
1.0
176
     1
 40
1.0
176
     1
  0
VISUALSTYLE
  5
3F
102
{ACAD_REACTORS
330
2A
102
}
330
2A
100
AcDbVisualStyle
  2
Sketchy
 70
    24
177
     3
291
     0
 70
    58
 90
        1
176
     1
 90
        2
176
     1
 90
        2
176
     1
 90
        0
176
     1
 40
0.6
176
     1
 40
30.0
176
     1
 62
     7
420
 16777215
176
     1
 90
        2
176
     1
 90
        2
176
     1
 62
     7
176
     1
 62
     7
176
     1
 90
        1
176
     1
 90
        1
176
     1
 40
40.0
176
     1
 90
       11
176
     1
 62
     7
176
     1
 40
1.0
176
     1
 90
        1
176
     1
 90
        6
176
     1
 90
        2
176
     1
 62
     7
176
     1
 90
        6
176
     1
 90
        0
176
     1
 90
        0
176
     1
290
     0
176
     1
 90
        1
176
     1
 40
0.0
176
     1
 90
        0
176
     1
290
     0
176
     1
290
     1
176
     1
290
     1
176
     1
290
     0
176
     1
290
     0
176
     1
290
     0
176
     1
290
     0
176
     1
290
     0
176
     1
290
     0
176
     1
 90
       50
176
     1
 40
0.0
176
     1
 40
1.0
176
     1
 90
        0
176
     1
 62
    18
420
        0
176
     1
 90
       50
176
     1
 90
        3
176
     1
 62
     5
420
      255
176
     1
290
     0
176
     1
 90
       50
176
     1
 90
       50
176
     1
 90
       50
176
     1
290
     0
176
     1
 90
       50
176
     1
 62
   256
176
     0
 40
1.0
176
     0
 90
        2
176
     1
  1
strokes_ogs.tif
176
     1
290
     0
176
     1
 40
1.0
176
     1
 40
1.0
176
     1
  0
VISUALSTYLE
  5
37
102
{ACAD_REACTORS
330
2A
102
}
330
2A
100
AcDbVisualStyle
  2
Thicken
 70
    13
177
     3
291
     1
 70
    58
 90
        2
176
     1
 90
        2
176
     1
 90
        0
176
     1
 90
        0
176
     1
 40
0.6
176
     1
 40
30.0
176
     1
 62
     7
420
 16777215
176
     1
 90
        1
176
     1
 90
        4
176
     1
 62
     7
176
     1
 62
   257
176
     1
 90
        1
176
     1
 90
        1
176
     1
 40
1.0
176
     1
 90
       12
176
     1
 62
     7
176
     1
 40
1.0
176
     1
 90
        1
176
     1
 90
        6
176
     1
 90
        2
176
     1
 62
     7
176
     1
 90
        5
176
     1
 90
        0
176
     1
 90
        0
176
     1
290
     0
176
     1
 90
        1
176
     1
 40
0.0
176
     1
 90
        0
176
     1
290
     0
176
     1
290
     1
176
     1
290
     1
176
     1
290
     0
176
     1
290
     0
176
     1
290
     0
176
     1
290
     0
176
     1
290
     0
176
     1
290
     0
176
     1
 90
       50
176
     1
 40
0.0
176
     1
 40
1.0
176
     1
 90
        0
176
     1
 62
    18
420
        0
176
     1
 90
       50
176
     1
 90
        3
176
     1
 62
     5
420
      255
176
     1
290
     0
176
     1
 90
       50
176
     1
 90
       50
176
     1
 90
       50
176
     1
290
     0
176
     1
 90
       50
176
     1
 62
   256
176
     0
 40
1.0
176
     0
 90
        2
176
     1
  1
strokes_ogs.tif
176
     1
290
     0
176
     1
 40
1.0
176
     1
 40
1.0
176
     1
  0
VISUALSTYLE
  5
30
102
{ACAD_REACTORS
330
2A
102
}
330
2A
100
AcDbVisualStyle
  2
Wireframe
 70
     5
177
     3
291
     0
 70
    58
 90
        0
176
     1
 90
        2
176
     1
 90
        0
176
     1
 90
        0
176
     1
 40
0.6
176
     1
 40
30.0
176
     1
 62
     7
420
 16777215
176
     1
 90
        1
176
     1
 90
        4
176
     1
 62
     7
176
     1
 62
   257
176
     1
 90
        1
176
     1
 90
        1
176
     1
 40
1.0
176
     1
 90
        0
176
     1
 62
   257
176
     1
 40
1.0
176
     1
 90
        1
176
     1
 90
        6
176
     1
 90
        2
176
     1
 62
     7
176
     1
 90
        3
176
     1
 90
        0
176
     1
 90
        0
176
     1
290
     0
176
     1
 90
        1
176
     1
 40
0.0
176
     1
 90
        0
176
     1
290
     0
176
     1
290
     1
176
     1
290
     1
176
     1
290
     0
176
     1
290
     0
176
     1
290
     0
176
     1
290
     0
176
     1
290
     0
176
     1
290
     0
176
     1
 90
       50
176
     1
 40
0.0
176
     1
 40
1.0
176
     1
 90
        0
176
     1
 62
    18
420
        0
176
     1
 90
       50
176
     1
 90
        3
176
     1
 62
     5
420
      255
176
     1
290
     0
176
     1
 90
       50
176
     1
 90
       50
176
     1
 90
       50
176
     1
290
     0
176
     1
 90
       50
176
     1
 62
   256
176
     0
 40
1.0
176
     0
 90
        2
176
     1
  1
strokes_ogs.tif
176
     1
290
     0
176
     1
 40
1.0
176
     1
 40
1.0
176
     1
  0
VISUALSTYLE
  5
40
102
{ACAD_REACTORS
330
2A
102
}
330
2A
100
AcDbVisualStyle
  2
X-Ray
 70
    25
177
     3
291
     0
 70
    58
 90
        2
176
     1
 90
        2
176
     1
 90
        1
176
     1
 90
        1
176
     1
 40
0.5
176
     1
 40
30.0
176
     1
 62
     7
420
 16777215
176
     1
 90
        1
176
     1
 90
        0
176
     1
 62
     7
176
     1
 62
   257
176
     1
 90
        1
176
     1
 90
        1
176
     1
 40
1.0
176
     1
 90
        8
176
     1
 62
     7
176
     1
 40
1.0
176
     1
 90
        1
176
     1
 90
        6
176
     1
 90
        2
176
     1
 62
     7
176
     1
 90
        3
176
     1
 90
        0
176
     1
 90
        0
176
     1
290
     0
176
     1
 90
       13
176
     1
 40
0.0
176
     1
 90
        0
176
     1
290
     0
176
     1
290
     1
176
     1
290
     1
176
     1
290
     0
176
     1
290
     0
176
     1
290
     0
176
     1
290
     0
176
     1
290
     0
176
     1
290
     0
176
     1
 90
       50
176
     1
 40
0.0
176
     1
 40
1.0
176
     1
 90
        0
176
     1
 62
    18
420
        0
176
     1
 90
       50
176
     1
 90
        3
176
     1
 62
     5
420
      255
176
     1
290
     0
176
     1
 90
       50
176
     1
 90
       50
176
     1
 90
       50
176
     1
290
     0
176
     1
 90
       50
176
     1
 62
   256
176
     0
 40
1.0
176
     0
 90
        2
176
     1
  1
strokes_ogs.tif
176
     1
290
     0
176
     1
 40
1.0
176
     1
 40
1.0
176
     1
  0
DICTIONARYVAR
  5
302
102
{ACAD_REACTORS
330
301
102
}
330
301
100
DictionaryVariables
280
     0
  1
1:1
  0
DICTIONARYVAR
  5
343
102
{ACAD_REACTORS
330
301
102
}
330
301
100
DictionaryVariables
280
     0
  1
STANDARD
  0
DICTIONARYVAR
  5
342
102
{ACAD_REACTORS
330
301
102
}
330
301
100
DictionaryVariables
280
     0
  1
STANDARD
  0
DICTIONARYVAR
  5
376
102
{ACAD_REACTORS
330
301
102
}
330
301
100
DictionaryVariables
280
     0
  1
Imperial24
  0
DICTIONARYVAR
  5
377
102
{ACAD_REACTORS
330
301
102
}
330
301
100
DictionaryVariables
280
     0
  1
Imperial24
  0
DICTIONARYVAR
  5
379
102
{ACAD_REACTORS
330
301
102
}
330
301
100
DictionaryVariables
280
     0
  1
1
  0
DICTIONARYVAR
  5
37A
102
{ACAD_REACTORS
330
301
102
}
330
301
100
DictionaryVariables
280
     0
  1
15
  0
DICTIONARYVAR
  5
378
102
{ACAD_REACTORS
330
301
102
}
330
301
100
DictionaryVariables
280
     0
  1
0
  0
DICTIONARYVAR
  5
303
102
{ACAD_REACTORS
330
301
102
}
330
301
100
DictionaryVariables
280
     0
  1
1
  0
DICTIONARY
  5
33B
330
6A
100
AcDbDictionary
280
     1
281
     1
  3
ACAD_ROUNDTRIP_2008_TABLESTYLE_CELLSTYLEMAP
360
37B
  0
CELLSTYLEMAP
  5
37B
102
{ACAD_REACTORS
330
33B
102
}
330
33B
100
AcDbCellStyleMap
 90
        3
300
CELLSTYLE
  1
TABLEFORMAT_BEGIN
 90
        5
170
     1
 91
        0
 92
    32768
 62
   257
 93
        1
300
CONTENTFORMAT
  1
CONTENTFORMAT_BEGIN
 90
        0
 91
        0
 92
        4
 93
        0
300

 40
0.0
140
1.0
 94
        5
 62
     0
340
11
144
0.25
309
CONTENTFORMAT_END
171
     1
301
MARGIN
  1
CELLMARGIN_BEGIN
 40
0.06
 40
0.06
 40
0.06
 40
0.06
 40
0.06
 40
0.06
309
CELLMARGIN_END
 94
        6
 95
        1
302
GRIDFORMAT
  1
GRIDFORMAT_BEGIN
 90
        0
 91
        1
 62
     0
 92
       -2
340
14
 93
        0
 40
0.045
309
GRIDFORMAT_END
 95
        2
302
GRIDFORMAT
  1
GRIDFORMAT_BEGIN
 90
        0
 91
        1
 62
     0
 92
       -2
340
14
 93
        0
 40
0.045
309
GRIDFORMAT_END
 95
        4
302
GRIDFORMAT
  1
GRIDFORMAT_BEGIN
 90
        0
 91
        1
 62
     0
 92
       -2
340
14
 93
        0
 40
0.045
309
GRIDFORMAT_END
 95
        8
302
GRIDFORMAT
  1
GRIDFORMAT_BEGIN
 90
        0
 91
        1
 62
     0
 92
       -2
340
14
 93
        0
 40
0.045
309
GRIDFORMAT_END
 95
       16
302
GRIDFORMAT
  1
GRIDFORMAT_BEGIN
 90
        0
 91
        1
 62
     0
 92
       -2
340
14
 93
        0
 40
0.045
309
GRIDFORMAT_END
 95
       32
302
GRIDFORMAT
  1
GRIDFORMAT_BEGIN
 90
        0
 91
        1
 62
     0
 92
       -2
340
14
 93
        0
 40
0.045
309
GRIDFORMAT_END
309
TABLEFORMAT_END
  1
CELLSTYLE_BEGIN
 90
        1
 91
        1
300
_TITLE
309
CELLSTYLE_END
300
CELLSTYLE
  1
TABLEFORMAT_BEGIN
 90
        5
170
     1
 91
        0
 92
        0
 62
   257
 93
        1
300
CONTENTFORMAT
  1
CONTENTFORMAT_BEGIN
 90
        0
 91
        0
 92
        4
 93
        0
300

 40
0.0
140
1.0
 94
        5
 62
     0
340
11
144
0.18
309
CONTENTFORMAT_END
171
     1
301
MARGIN
  1
CELLMARGIN_BEGIN
 40
0.06
 40
0.06
 40
0.06
 40
0.06
 40
0.06
 40
0.06
309
CELLMARGIN_END
 94
        6
 95
        1
302
GRIDFORMAT
  1
GRIDFORMAT_BEGIN
 90
        0
 91
        1
 62
     0
 92
       -2
340
14
 93
        0
 40
0.045
309
GRIDFORMAT_END
 95
        2
302
GRIDFORMAT
  1
GRIDFORMAT_BEGIN
 90
        0
 91
        1
 62
     0
 92
       -2
340
14
 93
        0
 40
0.045
309
GRIDFORMAT_END
 95
        4
302
GRIDFORMAT
  1
GRIDFORMAT_BEGIN
 90
        0
 91
        1
 62
     0
 92
       -2
340
14
 93
        0
 40
0.045
309
GRIDFORMAT_END
 95
        8
302
GRIDFORMAT
  1
GRIDFORMAT_BEGIN
 90
        0
 91
        1
 62
     0
 92
       -2
340
14
 93
        0
 40
0.045
309
GRIDFORMAT_END
 95
       16
302
GRIDFORMAT
  1
GRIDFORMAT_BEGIN
 90
        0
 91
        1
 62
     0
 92
       -2
340
14
 93
        0
 40
0.045
309
GRIDFORMAT_END
 95
       32
302
GRIDFORMAT
  1
GRIDFORMAT_BEGIN
 90
        0
 91
        1
 62
     0
 92
       -2
340
14
 93
        0
 40
0.045
309
GRIDFORMAT_END
309
TABLEFORMAT_END
  1
CELLSTYLE_BEGIN
 90
        2
 91
        1
300
_HEADER
309
CELLSTYLE_END
300
CELLSTYLE
  1
TABLEFORMAT_BEGIN
 90
        5
170
     1
 91
        0
 92
        0
 62
   257
 93
        1
300
CONTENTFORMAT
  1
CONTENTFORMAT_BEGIN
 90
        0
 91
        0
 92
        4
 93
        0
300

 40
0.0
140
1.0
 94
        2
 62
     0
340
11
144
0.18
309
CONTENTFORMAT_END
171
     1
301
MARGIN
  1
CELLMARGIN_BEGIN
 40
0.06
 40
0.06
 40
0.06
 40
0.06
 40
0.06
 40
0.06
309
CELLMARGIN_END
 94
        6
 95
        1
302
GRIDFORMAT
  1
GRIDFORMAT_BEGIN
 90
        0
 91
        1
 62
     0
 92
       -2
340
14
 93
        0
 40
0.045
309
GRIDFORMAT_END
 95
        2
302
GRIDFORMAT
  1
GRIDFORMAT_BEGIN
 90
        0
 91
        1
 62
     0
 92
       -2
340
14
 93
        0
 40
0.045
309
GRIDFORMAT_END
 95
        4
302
GRIDFORMAT
  1
GRIDFORMAT_BEGIN
 90
        0
 91
        1
 62
     0
 92
       -2
340
14
 93
        0
 40
0.045
309
GRIDFORMAT_END
 95
        8
302
GRIDFORMAT
  1
GRIDFORMAT_BEGIN
 90
        0
 91
        1
 62
     0
 92
       -2
340
14
 93
        0
 40
0.045
309
GRIDFORMAT_END
 95
       16
302
GRIDFORMAT
  1
GRIDFORMAT_BEGIN
 90
        0
 91
        1
 62
     0
 92
       -2
340
14
 93
        0
 40
0.045
309
GRIDFORMAT_END
 95
       32
302
GRIDFORMAT
  1
GRIDFORMAT_BEGIN
 90
        0
 91
        1
 62
     0
 92
       -2
340
14
 93
        0
 40
0.045
309
GRIDFORMAT_END
309
TABLEFORMAT_END
  1
CELLSTYLE_BEGIN
 90
        3
 91
        2
300
_DATA
309
CELLSTYLE_END
  0
ENDSEC
  0
EOF
