  0
SECTION
  2
HEADER
  9
$ACADVER
  1
AC1006
  9
$EXTMIN
 10
-2.466307
 20
-4.935130
  9
$EXTMAX
 10
2.474000
 20
4.935000
  9
$LTSCALE
 40
0.000394
  9
$PDMODE
 70
    35
  9
$PDSIZE
 40
0.000315
  0
ENDSEC
  0
SECTION
  2
TABLES
  0
TABLE
  2
LTYPE
 70
     9
  0
LTYPE
  2
CONTINUOUS
 70
    64
  3
Solid line
 72
    65
 73
     0
 40
0.000000
  0
LTYPE
  2
DASHED
 70
    64
  3
__ __ __ __ __ __ __ __ __ __ __ __ __ __ __
 72
    65
 73
     2
 40
0.000003
 49
0.000002
 49
-0.000001
  0
LTYPE
  2
HIDDEN
 70
    64
  3
 _ _ _ _ _ _ _ _ _ _ _ _ _ _ _ _ _ _ _ _ _ _
 72
    65
 73
     2
 40
0.000001
 49
0.000001
 49
-0.000000
  0
LTYPE
  2
CENTER
 70
    64
  3
____ _ ____ _ ____ _ ____ _ ____ _ ____ _ ____
 72
    65
 73
     4
 40
0.000008
 49
0.000005
 49
-0.000001
 49
0.000001
 49
-0.000001
  0
LTYPE
  2
PHANTOM
 70
    64
  3
_____ _ _ _____ _ _ _____ _ _ _____ _ _ ____
 72
    65
 73
     6
 40
0.000010
 49
0.000005
 49
-0.000001
 49
0.000001
 49
-0.000001
 49
0.000001
 49
-0.000001
  0
LTYPE
  2
DOT
 70
    64
  3
...............................................
 72
    65
 73
     2
 40
0.000001
 49
0.000000
 49
-0.000001
  0
LTYPE
  2
DASHDOT
 70
    64
  3
__ . __ . __ . __ . __ . __ . __ . __ . __ . __
 72
    65
 73
     4
 40
0.000004
 49
0.000002
 49
-0.000001
 49
0.000000
 49
-0.000001
  0
LTYPE
  2
BORDER
 70
    64
  3
__ __ . __ __ . __ __ . __ __ . __ __ . __ __
 72
    65
 73
     6
 40
0.000007
 49
0.000002
 49
-0.000001
 49
0.000002
 49
-0.000001
 49
0.000000
 49
-0.000001
  0
LTYPE
  2
DIVIDE
 70
    64
  3
__ . . __ . . __ . . __ . . __ . . __ . . __
 72
    65
 73
     6
 40
0.000005
 49
0.000002
 49
-0.000001
 49
0.000000
 49
-0.000001
 49
0.000000
 49
-0.000001
  0
LTYPE
  2
DOTDOT
 70
    64
  3
 . .  . .  . .  . .  . .  . . 
 72
    65
 73
     5
 40
0.000002
 49
-0.000001
 49
0.000000
 49
-0.000001
 49
0.000000
 49
-0.000001
  0
ENDTAB
  0
TABLE
  2
STYLE
 70
     0
  0
ENDTAB
  0
TABLE
  2
LAYER
 70
     3
  0
LAYER
  2
FOREGROUND
 70
    64
 62
     7
  6
CONTINUOUS
  0
LAYER
  2
BACKGROUND
 70
    65
 62
    -7
  6
CONTINUOUS
  0
LAYER
  2
PLAN_1
 70
    64
 62
     7
  6
CONTINUOUS
  0
ENDTAB
  0
ENDSEC
  0
SECTION
  2
ENTITIES
  0
POLYLINE
  8
PLAN_1
  6
CONTINUOUS
 66
     1
 40
0.003000
 41
0.003000
  0
VERTEX
  8
PLAN_1
  6
CONTINUOUS
 10
0.375362
 20
-4.900583
  0
VERTEX
  8
PLAN_1
  6
CONTINUOUS
 10
0.342051
 20
-4.900583
  0
VERTEX
  8
PLAN_1
  6
CONTINUOUS
 10
0.288382
 20
-4.818539
  0
VERTEX
  8
PLAN_1
  6
CONTINUOUS
 10
0.232862
 20
-4.900583
  0
VERTEX
  8
PLAN_1
  6
CONTINUOUS
 10
0.200787
 20
-4.900583
  0
VERTEX
  8
PLAN_1
  6
CONTINUOUS
 10
0.271728
 20
-4.798181
  0
VERTEX
  8
PLAN_1
  6
CONTINUOUS
 10
0.205102
 20
-4.701331
  0
VERTEX
  8
PLAN_1
  6
CONTINUOUS
 10
0.239031
 20
-4.701331
  0
VERTEX
  8
PLAN_1
  6
CONTINUOUS
 10
0.289618
 20
-4.777209
  0
VERTEX
  8
PLAN_1
  6
CONTINUOUS
 10
0.340201
 20
-4.701331
  0
VERTEX
  8
PLAN_1
  6
CONTINUOUS
 10
0.372280
 20
-4.701331
  0
VERTEX
  8
PLAN_1
  6
CONTINUOUS
 10
0.305039
 20
-4.798181
  0
VERTEX
  8
PLAN_1
  6
CONTINUOUS
 10
0.375362
 20
-4.900583
  0
SEQEND
  8
0
  0
POLYLINE
  8
PLAN_1
  6
CONTINUOUS
 66
     1
 40
0.003000
 41
0.003000
  0
VERTEX
  8
PLAN_1
  6
CONTINUOUS
 10
0.541307
 20
-4.761169
  0
VERTEX
  8
PLAN_1
  6
CONTINUOUS
 10
0.540071
 20
-4.755000
  0
VERTEX
  8
PLAN_1
  6
CONTINUOUS
 10
0.537602
 20
-4.749449
  0
VERTEX
  8
PLAN_1
  6
CONTINUOUS
 10
0.535138
 20
-4.744512
  0
VERTEX
  8
PLAN_1
  6
CONTINUOUS
 10
0.532051
 20
-4.740193
  0
VERTEX
  8
PLAN_1
  6
CONTINUOUS
 10
0.528969
 20
-4.735878
  0
VERTEX
  8
PLAN_1
  6
CONTINUOUS
 10
0.525882
 20
-4.732791
  0
VERTEX
  8
PLAN_1
  6
CONTINUOUS
 10
0.522181
 20
-4.729709
  0
VERTEX
  8
PLAN_1
  6
CONTINUOUS
 10
0.517862
 20
-4.727240
  0
VERTEX
  8
PLAN_1
  6
CONTINUOUS
 10
0.514161
 20
-4.725390
  0
VERTEX
  8
PLAN_1
  6
CONTINUOUS
 10
0.509843
 20
-4.723539
  0
VERTEX
  8
PLAN_1
  6
CONTINUOUS
 10
0.505528
 20
-4.722307
  0
VERTEX
  8
PLAN_1
  6
CONTINUOUS
 10
0.501209
 20
-4.721071
  0
VERTEX
  8
PLAN_1
  6
CONTINUOUS
 10
0.493189
 20
-4.719839
  0
VERTEX
  8
PLAN_1
  6
CONTINUOUS
 10
0.485787
 20
-4.719839
  0
VERTEX
  8
PLAN_1
  6
CONTINUOUS
 10
0.479000
 20
-4.719839
  0
VERTEX
  8
PLAN_1
  6
CONTINUOUS
 10
0.472831
 20
-4.721071
  0
VERTEX
  8
PLAN_1
  6
CONTINUOUS
 10
0.466047
 20
-4.722307
  0
VERTEX
  8
PLAN_1
  6
CONTINUOUS
 10
0.460492
 20
-4.724772
  0
VERTEX
  8
PLAN_1
  6
CONTINUOUS
 10
0.454323
 20
-4.727858
  0
VERTEX
  8
PLAN_1
  6
CONTINUOUS
 10
0.449390
 20
-4.730941
  0
VERTEX
  8
PLAN_1
  6
CONTINUOUS
 10
0.444453
 20
-4.735260
  0
VERTEX
  8
PLAN_1
  6
CONTINUOUS
 10
0.439520
 20
-4.739579
  0
VERTEX
  8
PLAN_1
  6
CONTINUOUS
 10
0.435201
 20
-4.745130
  0
VERTEX
  8
PLAN_1
  6
CONTINUOUS
 10
0.431500
 20
-4.750681
  0
VERTEX
  8
PLAN_1
  6
CONTINUOUS
 10
0.428417
 20
-4.757469
  0
VERTEX
  8
PLAN_1
  6
CONTINUOUS
 10
0.425331
 20
-4.764252
  0
VERTEX
  8
PLAN_1
  6
CONTINUOUS
 10
0.423480
 20
-4.772272
  0
VERTEX
  8
PLAN_1
  6
CONTINUOUS
 10
0.421630
 20
-4.780291
  0
VERTEX
  8
PLAN_1
  6
CONTINUOUS
 10
0.421012
 20
-4.789547
  0
VERTEX
  8
PLAN_1
  6
CONTINUOUS
 10
0.420398
 20
-4.798799
  0
VERTEX
  8
PLAN_1
  6
CONTINUOUS
 10
0.420398
 20
-4.807437
  0
VERTEX
  8
PLAN_1
  6
CONTINUOUS
 10
0.421012
 20
-4.816071
  0
VERTEX
  8
PLAN_1
  6
CONTINUOUS
 10
0.422248
 20
-4.824091
  0
VERTEX
  8
PLAN_1
  6
CONTINUOUS
 10
0.424098
 20
-4.831492
  0
VERTEX
  8
PLAN_1
  6
CONTINUOUS
 10
0.425949
 20
-4.838898
  0
VERTEX
  8
PLAN_1
  6
CONTINUOUS
 10
0.428417
 20
-4.845681
  0
VERTEX
  8
PLAN_1
  6
CONTINUOUS
 10
0.431500
 20
-4.851850
  0
VERTEX
  8
PLAN_1
  6
CONTINUOUS
 10
0.435201
 20
-4.858020
  0
VERTEX
  8
PLAN_1
  6
CONTINUOUS
 10
0.438902
 20
-4.862953
  0
VERTEX
  8
PLAN_1
  6
CONTINUOUS
 10
0.443839
 20
-4.867890
  0
VERTEX
  8
PLAN_1
  6
CONTINUOUS
 10
0.449390
 20
-4.872209
  0
VERTEX
  8
PLAN_1
  6
CONTINUOUS
 10
0.455559
 20
-4.875291
  0
VERTEX
  8
PLAN_1
  6
CONTINUOUS
 10
0.462343
 20
-4.878378
  0
VERTEX
  8
PLAN_1
  6
CONTINUOUS
 10
0.469748
 20
-4.880228
  0
VERTEX
  8
PLAN_1
  6
CONTINUOUS
 10
0.477768
 20
-4.881461
  0
VERTEX
  8
PLAN_1
  6
CONTINUOUS
 10
0.486402
 20
-4.882079
  0
VERTEX
  8
PLAN_1
  6
CONTINUOUS
 10
0.493807
 20
-4.881461
  0
VERTEX
  8
PLAN_1
  6
CONTINUOUS
 10
0.501823
 20
-4.879610
  0
VERTEX
  8
PLAN_1
  6
CONTINUOUS
 10
0.505528
 20
-4.878378
  0
VERTEX
  8
PLAN_1
  6
CONTINUOUS
 10
0.509843
 20
-4.876528
  0
VERTEX
  8
PLAN_1
  6
CONTINUOUS
 10
0.514161
 20
-4.874677
  0
VERTEX
  8
PLAN_1
  6
CONTINUOUS
 10
0.517862
 20
-4.871591
  0
VERTEX
  8
PLAN_1
  6
CONTINUOUS
 10
0.522181
 20
-4.868508
  0
VERTEX
  8
PLAN_1
  6
CONTINUOUS
 10
0.525882
 20
-4.864807
  0
VERTEX
  8
PLAN_1
  6
CONTINUOUS
 10
0.529583
 20
-4.860488
  0
VERTEX
  8
PLAN_1
  6
CONTINUOUS
 10
0.533287
 20
-4.855551
  0
VERTEX
  8
PLAN_1
  6
CONTINUOUS
 10
0.536370
 20
-4.849382
  0
VERTEX
  8
PLAN_1
  6
CONTINUOUS
 10
0.538839
 20
-4.842598
  0
VERTEX
  8
PLAN_1
  6
CONTINUOUS
 10
0.541307
 20
-4.835193
  0
VERTEX
  8
PLAN_1
  6
CONTINUOUS
 10
0.543157
 20
-4.827177
  0
VERTEX
  8
PLAN_1
  6
CONTINUOUS
 10
0.569681
 20
-4.827177
  0
VERTEX
  8
PLAN_1
  6
CONTINUOUS
 10
0.568449
 20
-4.833961
  0
VERTEX
  8
PLAN_1
  6
CONTINUOUS
 10
0.566598
 20
-4.840748
  0
VERTEX
  8
PLAN_1
  6
CONTINUOUS
 10
0.565362
 20
-4.846299
  0
VERTEX
  8
PLAN_1
  6
CONTINUOUS
 10
0.563512
 20
-4.851850
  0
VERTEX
  8
PLAN_1
  6
CONTINUOUS
 10
0.561047
 20
-4.857402
  0
VERTEX
  8
PLAN_1
  6
CONTINUOUS
 10
0.558579
 20
-4.862339
  0
VERTEX
  8
PLAN_1
  6
CONTINUOUS
 10
0.556110
 20
-4.866657
  0
VERTEX
  8
PLAN_1
  6
CONTINUOUS
 10
0.553642
 20
-4.870972
  0
VERTEX
  8
PLAN_1
  6
CONTINUOUS
 10
0.547472
 20
-4.878992
  0
VERTEX
  8
PLAN_1
  6
CONTINUOUS
 10
0.541307
 20
-4.885161
  0
VERTEX
  8
PLAN_1
  6
CONTINUOUS
 10
0.534520
 20
-4.890098
  0
VERTEX
  8
PLAN_1
  6
CONTINUOUS
 10
0.527118
 20
-4.894417
  0
VERTEX
  8
PLAN_1
  6
CONTINUOUS
 10
0.520331
 20
-4.898118
  0
VERTEX
  8
PLAN_1
  6
CONTINUOUS
 10
0.513547
 20
-4.900583
  0
VERTEX
  8
PLAN_1
  6
CONTINUOUS
 10
0.506760
 20
-4.902437
  0
VERTEX
  8
PLAN_1
  6
CONTINUOUS
 10
0.500591
 20
-4.904287
  0
VERTEX
  8
PLAN_1
  6
CONTINUOUS
 10
0.490102
 20
-4.905520
  0
VERTEX
  8
PLAN_1
  6
CONTINUOUS
 10
0.482083
 20
-4.905520
  0
VERTEX
  8
PLAN_1
  6
CONTINUOUS
 10
0.474063
 20
-4.905520
  0
VERTEX
  8
PLAN_1
  6
CONTINUOUS
 10
0.465429
 20
-4.904287
  0
VERTEX
  8
PLAN_1
  6
CONTINUOUS
 10
0.457409
 20
-4.902437
  0
VERTEX
  8
PLAN_1
  6
CONTINUOUS
 10
0.449390
 20
-4.899969
  0
VERTEX
  8
PLAN_1
  6
CONTINUOUS
 10
0.441370
 20
-4.896268
  0
VERTEX
  8
PLAN_1
  6
CONTINUOUS
 10
0.433969
 20
-4.892563
  0
VERTEX
  8
PLAN_1
  6
CONTINUOUS
 10
0.427181
 20
-4.887630
  0
VERTEX
  8
PLAN_1
  6
CONTINUOUS
 10
0.420398
 20
-4.881461
  0
VERTEX
  8
PLAN_1
  6
CONTINUOUS
 10
0.414843
 20
-4.874677
  0
VERTEX
  8
PLAN_1
  6
CONTINUOUS
 10
0.409291
 20
-4.866657
  0
VERTEX
  8
PLAN_1
  6
CONTINUOUS
 10
0.404358
 20
-4.858020
  0
VERTEX
  8
PLAN_1
  6
CONTINUOUS
 10
0.400657
 20
-4.848768
  0
VERTEX
  8
PLAN_1
  6
CONTINUOUS
 10
0.396953
 20
-4.837661
  0
VERTEX
  8
PLAN_1
  6
CONTINUOUS
 10
0.394488
 20
-4.826559
  0
VERTEX
  8
PLAN_1
  6
CONTINUOUS
 10
0.393252
 20
-4.813602
  0
VERTEX
  8
PLAN_1
  6
CONTINUOUS
 10
0.392638
 20
-4.799417
  0
VERTEX
  8
PLAN_1
  6
CONTINUOUS
 10
0.393252
 20
-4.788311
  0
VERTEX
  8
PLAN_1
  6
CONTINUOUS
 10
0.394488
 20
-4.777823
  0
VERTEX
  8
PLAN_1
  6
CONTINUOUS
 10
0.396339
 20
-4.767339
  0
VERTEX
  8
PLAN_1
  6
CONTINUOUS
 10
0.398807
 20
-4.757469
  0
VERTEX
  8
PLAN_1
  6
CONTINUOUS
 10
0.402508
 20
-4.748213
  0
VERTEX
  8
PLAN_1
  6
CONTINUOUS
 10
0.406823
 20
-4.740193
  0
VERTEX
  8
PLAN_1
  6
CONTINUOUS
 10
0.411760
 20
-4.732177
  0
VERTEX
  8
PLAN_1
  6
CONTINUOUS
 10
0.417311
 20
-4.724772
  0
VERTEX
  8
PLAN_1
  6
CONTINUOUS
 10
0.424098
 20
-4.718602
  0
VERTEX
  8
PLAN_1
  6
CONTINUOUS
 10
0.430882
 20
-4.712437
  0
VERTEX
  8
PLAN_1
  6
CONTINUOUS
 10
0.438287
 20
-4.707500
  0
VERTEX
  8
PLAN_1
  6
CONTINUOUS
 10
0.446921
 20
-4.703799
  0
VERTEX
  8
PLAN_1
  6
CONTINUOUS
 10
0.455559
 20
-4.700098
  0
VERTEX
  8
PLAN_1
  6
CONTINUOUS
 10
0.464811
 20
-4.697630
  0
VERTEX
  8
PLAN_1
  6
CONTINUOUS
 10
0.475299
 20
-4.696398
  0
VERTEX
  8
PLAN_1
  6
CONTINUOUS
 10
0.485787
 20
-4.695780
  0
VERTEX
  8
PLAN_1
  6
CONTINUOUS
 10
0.495039
 20
-4.696398
  0
VERTEX
  8
PLAN_1
  6
CONTINUOUS
 10
0.503677
 20
-4.697630
  0
VERTEX
  8
PLAN_1
  6
CONTINUOUS
 10
0.511693
 20
-4.698862
  0
VERTEX
  8
PLAN_1
  6
CONTINUOUS
 10
0.519713
 20
-4.701331
  0
VERTEX
  8
PLAN_1
  6
CONTINUOUS
 10
0.526500
 20
-4.704417
  0
VERTEX
  8
PLAN_1
  6
CONTINUOUS
 10
0.533287
 20
-4.707500
  0
VERTEX
  8
PLAN_1
  6
CONTINUOUS
 10
0.538839
 20
-4.711819
  0
VERTEX
  8
PLAN_1
  6
CONTINUOUS
 10
0.544390
 20
-4.716138
  0
VERTEX
  8
PLAN_1
  6
CONTINUOUS
 10
0.549323
 20
-4.721071
  0
VERTEX
  8
PLAN_1
  6
CONTINUOUS
 10
0.553642
 20
-4.726008
  0
VERTEX
  8
PLAN_1
  6
CONTINUOUS
 10
0.557343
 20
-4.730941
  0
VERTEX
  8
PLAN_1
  6
CONTINUOUS
 10
0.560429
 20
-4.737110
  0
VERTEX
  8
PLAN_1
  6
CONTINUOUS
 10
0.562898
 20
-4.742661
  0
VERTEX
  8
PLAN_1
  6
CONTINUOUS
 10
0.565362
 20
-4.748831
  0
VERTEX
  8
PLAN_1
  6
CONTINUOUS
 10
0.566598
 20
-4.755000
  0
VERTEX
  8
PLAN_1
  6
CONTINUOUS
 10
0.567831
 20
-4.761169
  0
VERTEX
  8
PLAN_1
  6
CONTINUOUS
 10
0.541307
 20
-4.761169
  0
SEQEND
  8
0
  0
POLYLINE
  8
PLAN_1
  6
CONTINUOUS
 66
     1
 40
0.003000
 41
0.003000
  0
VERTEX
  8
PLAN_1
  6
CONTINUOUS
 10
0.632602
 20
-4.900583
  0
VERTEX
  8
PLAN_1
  6
CONTINUOUS
 10
0.605461
 20
-4.900583
  0
VERTEX
  8
PLAN_1
  6
CONTINUOUS
 10
0.605461
 20
-4.701331
  0
VERTEX
  8
PLAN_1
  6
CONTINUOUS
 10
0.697378
 20
-4.701331
  0
VERTEX
  8
PLAN_1
  6
CONTINUOUS
 10
0.703547
 20
-4.701331
  0
VERTEX
  8
PLAN_1
  6
CONTINUOUS
 10
0.709713
 20
-4.701949
  0
VERTEX
  8
PLAN_1
  6
CONTINUOUS
 10
0.715882
 20
-4.702563
  0
VERTEX
  8
PLAN_1
  6
CONTINUOUS
 10
0.721437
 20
-4.703799
  0
VERTEX
  8
PLAN_1
  6
CONTINUOUS
 10
0.726988
 20
-4.705031
  0
VERTEX
  8
PLAN_1
  6
CONTINUOUS
 10
0.732539
 20
-4.706882
  0
VERTEX
  8
PLAN_1
  6
CONTINUOUS
 10
0.738091
 20
-4.709350
  0
VERTEX
  8
PLAN_1
  6
CONTINUOUS
 10
0.742409
 20
-4.712437
  0
VERTEX
  8
PLAN_1
  6
CONTINUOUS
 10
0.746728
 20
-4.715520
  0
VERTEX
  8
PLAN_1
  6
CONTINUOUS
 10
0.751047
 20
-4.719220
  0
VERTEX
  8
PLAN_1
  6
CONTINUOUS
 10
0.754748
 20
-4.723539
  0
VERTEX
  8
PLAN_1
  6
CONTINUOUS
 10
0.757213
 20
-4.728472
  0
VERTEX
  8
PLAN_1
  6
CONTINUOUS
 10
0.759681
 20
-4.734028
  0
VERTEX
  8
PLAN_1
  6
CONTINUOUS
 10
0.761531
 20
-4.740193
  0
VERTEX
  8
PLAN_1
  6
CONTINUOUS
 10
0.762768
 20
-4.746980
  0
VERTEX
  8
PLAN_1
  6
CONTINUOUS
 10
0.762768
 20
-4.755000
  0
VERTEX
  8
PLAN_1
  6
CONTINUOUS
 10
0.762768
 20
-4.759937
  0
VERTEX
  8
PLAN_1
  6
CONTINUOUS
 10
0.762150
 20
-4.764870
  0
VERTEX
  8
PLAN_1
  6
CONTINUOUS
 10
0.761531
 20
-4.769189
  0
VERTEX
  8
PLAN_1
  6
CONTINUOUS
 10
0.760299
 20
-4.773508
  0
VERTEX
  8
PLAN_1
  6
CONTINUOUS
 10
0.759063
 20
-4.777209
  0
VERTEX
  8
PLAN_1
  6
CONTINUOUS
 10
0.757831
 20
-4.780909
  0
VERTEX
  8
PLAN_1
  6
CONTINUOUS
 10
0.755980
 20
-4.783992
  0
VERTEX
  8
PLAN_1
  6
CONTINUOUS
 10
0.754130
 20
-4.787079
  0
VERTEX
  8
PLAN_1
  6
CONTINUOUS
 10
0.749811
 20
-4.792012
  0
VERTEX
  8
PLAN_1
  6
CONTINUOUS
 10
0.744878
 20
-4.795713
  0
VERTEX
  8
PLAN_1
  6
CONTINUOUS
 10
0.739941
 20
-4.799417
  0
VERTEX
  8
PLAN_1
  6
CONTINUOUS
 10
0.735008
 20
-4.802500
  0
VERTEX
  8
PLAN_1
  6
CONTINUOUS
 10
0.739323
 20
-4.804350
  0
VERTEX
  8
PLAN_1
  6
CONTINUOUS
 10
0.743642
 20
-4.806201
  0
VERTEX
  8
PLAN_1
  6
CONTINUOUS
 10
0.747343
 20
-4.809287
  0
VERTEX
  8
PLAN_1
  6
CONTINUOUS
 10
0.751047
 20
-4.812370
  0
VERTEX
  8
PLAN_1
  6
CONTINUOUS
 10
0.754130
 20
-4.817307
  0
VERTEX
  8
PLAN_1
  6
CONTINUOUS
 10
0.756598
 20
-4.822858
  0
VERTEX
  8
PLAN_1
  6
CONTINUOUS
 10
0.758449
 20
-4.830260
  0
VERTEX
  8
PLAN_1
  6
CONTINUOUS
 10
0.759063
 20
-4.840130
  0
VERTEX
  8
PLAN_1
  6
CONTINUOUS
 10
0.760917
 20
-4.875909
  0
VERTEX
  8
PLAN_1
  6
CONTINUOUS
 10
0.760917
 20
-4.879610
  0
VERTEX
  8
PLAN_1
  6
CONTINUOUS
 10
0.761531
 20
-4.883311
  0
VERTEX
  8
PLAN_1
  6
CONTINUOUS
 10
0.762150
 20
-4.885780
  0
VERTEX
  8
PLAN_1
  6
CONTINUOUS
 10
0.762768
 20
-4.888248
  0
VERTEX
  8
PLAN_1
  6
CONTINUOUS
 10
0.764000
 20
-4.890713
  0
VERTEX
  8
PLAN_1
  6
CONTINUOUS
 10
0.765850
 20
-4.892563
  0
VERTEX
  8
PLAN_1
  6
CONTINUOUS
 10
0.768319
 20
-4.894417
  0
VERTEX
  8
PLAN_1
  6
CONTINUOUS
 10
0.770787
 20
-4.896268
  0
VERTEX
  8
PLAN_1
  6
CONTINUOUS
 10
0.770787
 20
-4.900583
  0
VERTEX
  8
PLAN_1
  6
CONTINUOUS
 10
0.738091
 20
-4.900583
  0
VERTEX
  8
PLAN_1
  6
CONTINUOUS
 10
0.736240
 20
-4.895031
  0
VERTEX
  8
PLAN_1
  6
CONTINUOUS
 10
0.735622
 20
-4.888248
  0
VERTEX
  8
PLAN_1
  6
CONTINUOUS
 10
0.734390
 20
-4.881461
  0
VERTEX
  8
PLAN_1
  6
CONTINUOUS
 10
0.733772
 20
-4.873441
  0
VERTEX
  8
PLAN_1
  6
CONTINUOUS
 10
0.733772
 20
-4.866657
  0
VERTEX
  8
PLAN_1
  6
CONTINUOUS
 10
0.733157
 20
-4.859870
  0
VERTEX
  8
PLAN_1
  6
CONTINUOUS
 10
0.733157
 20
-4.854319
  0
VERTEX
  8
PLAN_1
  6
CONTINUOUS
 10
0.733157
 20
-4.850618
  0
VERTEX
  8
PLAN_1
  6
CONTINUOUS
 10
0.733157
 20
-4.844449
  0
VERTEX
  8
PLAN_1
  6
CONTINUOUS
 10
0.731921
 20
-4.838280
  0
VERTEX
  8
PLAN_1
  6
CONTINUOUS
 10
0.731307
 20
-4.835193
  0
VERTEX
  8
PLAN_1
  6
CONTINUOUS
 10
0.730071
 20
-4.832110
  0
VERTEX
  8
PLAN_1
  6
CONTINUOUS
 10
0.728839
 20
-4.829028
  0
VERTEX
  8
PLAN_1
  6
CONTINUOUS
 10
0.727602
 20
-4.826559
  0
VERTEX
  8
PLAN_1
  6
CONTINUOUS
 10
0.725138
 20
-4.824091
  0
VERTEX
  8
PLAN_1
  6
CONTINUOUS
 10
0.722669
 20
-4.821622
  0
VERTEX
  8
PLAN_1
  6
CONTINUOUS
 10
0.720201
 20
-4.819772
  0
VERTEX
  8
PLAN_1
  6
CONTINUOUS
 10
0.716500
 20
-4.817921
  0
VERTEX
  8
PLAN_1
  6
CONTINUOUS
 10
0.712799
 20
-4.816689
  0
VERTEX
  8
PLAN_1
  6
CONTINUOUS
 10
0.708480
 20
-4.816071
  0
VERTEX
  8
PLAN_1
  6
CONTINUOUS
 10
0.703547
 20
-4.815453
  0
VERTEX
  8
PLAN_1
  6
CONTINUOUS
 10
0.697378
 20
-4.814839
  0
VERTEX
  8
PLAN_1
  6
CONTINUOUS
 10
0.632602
 20
-4.814839
  0
VERTEX
  8
PLAN_1
  6
CONTINUOUS
 10
0.632602
 20
-4.900583
  0
SEQEND
  8
0
  0
POLYLINE
  8
PLAN_1
  6
CONTINUOUS
 66
     1
 40
0.003000
 41
0.003000
  0
VERTEX
  8
PLAN_1
  6
CONTINUOUS
 10
0.632602
 20
-4.792012
  0
VERTEX
  8
PLAN_1
  6
CONTINUOUS
 10
0.694909
 20
-4.792012
  0
VERTEX
  8
PLAN_1
  6
CONTINUOUS
 10
0.702311
 20
-4.791398
  0
VERTEX
  8
PLAN_1
  6
CONTINUOUS
 10
0.709713
 20
-4.790780
  0
VERTEX
  8
PLAN_1
  6
CONTINUOUS
 10
0.712799
 20
-4.790161
  0
VERTEX
  8
PLAN_1
  6
CONTINUOUS
 10
0.716500
 20
-4.788929
  0
VERTEX
  8
PLAN_1
  6
CONTINUOUS
 10
0.719583
 20
-4.787693
  0
VERTEX
  8
PLAN_1
  6
CONTINUOUS
 10
0.722669
 20
-4.785843
  0
VERTEX
  8
PLAN_1
  6
CONTINUOUS
 10
0.725138
 20
-4.783992
  0
VERTEX
  8
PLAN_1
  6
CONTINUOUS
 10
0.727602
 20
-4.781528
  0
VERTEX
  8
PLAN_1
  6
CONTINUOUS
 10
0.730071
 20
-4.778441
  0
VERTEX
  8
PLAN_1
  6
CONTINUOUS
 10
0.731921
 20
-4.775358
  0
VERTEX
  8
PLAN_1
  6
CONTINUOUS
 10
0.733157
 20
-4.771657
  0
VERTEX
  8
PLAN_1
  6
CONTINUOUS
 10
0.734390
 20
-4.767339
  0
VERTEX
  8
PLAN_1
  6
CONTINUOUS
 10
0.735008
 20
-4.763020
  0
VERTEX
  8
PLAN_1
  6
CONTINUOUS
 10
0.735008
 20
-4.757469
  0
VERTEX
  8
PLAN_1
  6
CONTINUOUS
 10
0.735008
 20
-4.751917
  0
VERTEX
  8
PLAN_1
  6
CONTINUOUS
 10
0.734390
 20
-4.746980
  0
VERTEX
  8
PLAN_1
  6
CONTINUOUS
 10
0.733157
 20
-4.743280
  0
VERTEX
  8
PLAN_1
  6
CONTINUOUS
 10
0.731307
 20
-4.739579
  0
VERTEX
  8
PLAN_1
  6
CONTINUOUS
 10
0.729453
 20
-4.735878
  0
VERTEX
  8
PLAN_1
  6
CONTINUOUS
 10
0.727602
 20
-4.733409
  0
VERTEX
  8
PLAN_1
  6
CONTINUOUS
 10
0.725138
 20
-4.730941
  0
VERTEX
  8
PLAN_1
  6
CONTINUOUS
 10
0.722669
 20
-4.729091
  0
VERTEX
  8
PLAN_1
  6
CONTINUOUS
 10
0.716500
 20
-4.726622
  0
VERTEX
  8
PLAN_1
  6
CONTINUOUS
 10
0.710949
 20
-4.724772
  0
VERTEX
  8
PLAN_1
  6
CONTINUOUS
 10
0.704780
 20
-4.724157
  0
VERTEX
  8
PLAN_1
  6
CONTINUOUS
 10
0.699228
 20
-4.724157
  0
VERTEX
  8
PLAN_1
  6
CONTINUOUS
 10
0.632602
 20
-4.724157
  0
VERTEX
  8
PLAN_1
  6
CONTINUOUS
 10
0.632602
 20
-4.792012
  0
SEQEND
  8
0
  0
POLYLINE
  8
PLAN_1
  6
CONTINUOUS
 66
     1
 40
0.003000
 41
0.003000
  0
VERTEX
  8
PLAN_1
  6
CONTINUOUS
 10
0.965102
 20
-4.746362
  0
VERTEX
  8
PLAN_1
  6
CONTINUOUS
 10
0.984228
 20
-4.746362
  0
VERTEX
  8
PLAN_1
  6
CONTINUOUS
 10
0.979909
 20
-4.761169
  0
VERTEX
  8
PLAN_1
  6
CONTINUOUS
 10
0.975591
 20
-4.775358
  0
VERTEX
  8
PLAN_1
  6
CONTINUOUS
 10
0.971272
 20
-4.790161
  0
VERTEX
  8
PLAN_1
  6
CONTINUOUS
 10
0.967571
 20
-4.803118
  0
VERTEX
  8
PLAN_1
  6
CONTINUOUS
 10
0.964488
 20
-4.814839
  0
VERTEX
  8
PLAN_1
  6
CONTINUOUS
 10
0.961402
 20
-4.824709
  0
VERTEX
  8
PLAN_1
  6
CONTINUOUS
 10
0.959551
 20
-4.832110
  0
VERTEX
  8
PLAN_1
  6
CONTINUOUS
 10
0.958937
 20
-4.836429
  0
VERTEX
  8
PLAN_1
  6
CONTINUOUS
 10
0.958937
 20
-4.838280
  0
VERTEX
  8
PLAN_1
  6
CONTINUOUS
 10
0.959551
 20
-4.840130
  0
VERTEX
  8
PLAN_1
  6
CONTINUOUS
 10
0.959551
 20
-4.841362
  0
VERTEX
  8
PLAN_1
  6
CONTINUOUS
 10
0.960169
 20
-4.842598
  0
VERTEX
  8
PLAN_1
  6
CONTINUOUS
 10
0.961402
 20
-4.843213
  0
VERTEX
  8
PLAN_1
  6
CONTINUOUS
 10
0.962020
 20
-4.844449
  0
VERTEX
  8
PLAN_1
  6
CONTINUOUS
 10
0.963252
 20
-4.844449
  0
VERTEX
  8
PLAN_1
  6
CONTINUOUS
 10
0.965102
 20
-4.844449
  0
VERTEX
  8
PLAN_1
  6
CONTINUOUS
 10
0.968189
 20
-4.844449
  0
VERTEX
  8
PLAN_1
  6
CONTINUOUS
 10
0.971890
 20
-4.843213
  0
VERTEX
  8
PLAN_1
  6
CONTINUOUS
 10
0.975591
 20
-4.841980
  0
VERTEX
  8
PLAN_1
  6
CONTINUOUS
 10
0.979291
 20
-4.839512
  0
VERTEX
  8
PLAN_1
  6
CONTINUOUS
 10
0.982378
 20
-4.837047
  0
VERTEX
  8
PLAN_1
  6
CONTINUOUS
 10
0.985461
 20
-4.833343
  0
VERTEX
  8
PLAN_1
  6
CONTINUOUS
 10
0.988547
 20
-4.829642
  0
VERTEX
  8
PLAN_1
  6
CONTINUOUS
 10
0.991630
 20
-4.825941
  0
VERTEX
  8
PLAN_1
  6
CONTINUOUS
 10
0.994098
 20
-4.821622
  0
VERTEX
  8
PLAN_1
  6
CONTINUOUS
 10
0.996563
 20
-4.816689
  0
VERTEX
  8
PLAN_1
  6
CONTINUOUS
 10
0.999031
 20
-4.811752
  0
VERTEX
  8
PLAN_1
  6
CONTINUOUS
 10
1.000882
 20
-4.806819
  0
VERTEX
  8
PLAN_1
  6
CONTINUOUS
 10
1.002118
 20
-4.801268
  0
VERTEX
  8
PLAN_1
  6
CONTINUOUS
 10
1.003350
 20
-4.795713
  0
VERTEX
  8
PLAN_1
  6
CONTINUOUS
 10
1.003969
 20
-4.790161
  0
VERTEX
  8
PLAN_1
  6
CONTINUOUS
 10
1.004583
 20
-4.784610
  0
VERTEX
  8
PLAN_1
  6
CONTINUOUS
 10
1.003969
 20
-4.776591
  0
VERTEX
  8
PLAN_1
  6
CONTINUOUS
 10
1.002732
 20
-4.769189
  0
VERTEX
  8
PLAN_1
  6
CONTINUOUS
 10
1.000882
 20
-4.761787
  0
VERTEX
  8
PLAN_1
  6
CONTINUOUS
 10
0.998417
 20
-4.755000
  0
VERTEX
  8
PLAN_1
  6
CONTINUOUS
 10
0.994713
 20
-4.748213
  0
VERTEX
  8
PLAN_1
  6
CONTINUOUS
 10
0.991012
 20
-4.742661
  0
VERTEX
  8
PLAN_1
  6
CONTINUOUS
 10
0.986079
 20
-4.737110
  0
VERTEX
  8
PLAN_1
  6
CONTINUOUS
 10
0.981142
 20
-4.732177
  0
VERTEX
  8
PLAN_1
  6
CONTINUOUS
 10
0.975591
 20
-4.727858
  0
VERTEX
  8
PLAN_1
  6
CONTINUOUS
 10
0.970039
 20
-4.724157
  0
VERTEX
  8
PLAN_1
  6
CONTINUOUS
 10
0.963252
 20
-4.721071
  0
VERTEX
  8
PLAN_1
  6
CONTINUOUS
 10
0.956469
 20
-4.717988
  0
VERTEX
  8
PLAN_1
  6
CONTINUOUS
 10
0.949681
 20
-4.716138
  0
VERTEX
  8
PLAN_1
  6
CONTINUOUS
 10
0.942280
 20
-4.714287
  0
VERTEX
  8
PLAN_1
  6
CONTINUOUS
 10
0.934878
 20
-4.713669
  0
VERTEX
  8
PLAN_1
  6
CONTINUOUS
 10
0.926858
 20
-4.713051
  0
VERTEX
  8
PLAN_1
  6
CONTINUOUS
 10
0.917602
 20
-4.713669
  0
VERTEX
  8
PLAN_1
  6
CONTINUOUS
 10
0.908969
 20
-4.714902
  0
VERTEX
  8
PLAN_1
  6
CONTINUOUS
 10
0.900949
 20
-4.717370
  0
VERTEX
  8
PLAN_1
  6
CONTINUOUS
 10
0.892929
 20
-4.719839
  0
VERTEX
  8
PLAN_1
  6
CONTINUOUS
 10
0.885528
 20
-4.723539
  0
VERTEX
  8
PLAN_1
  6
CONTINUOUS
 10
0.878740
 20
-4.728472
  0
VERTEX
  8
PLAN_1
  6
CONTINUOUS
 10
0.871953
 20
-4.733409
  0
VERTEX
  8
PLAN_1
  6
CONTINUOUS
 10
0.866402
 20
-4.738961
  0
VERTEX
  8
PLAN_1
  6
CONTINUOUS
 10
0.860850
 20
-4.745130
  0
VERTEX
  8
PLAN_1
  6
CONTINUOUS
 10
0.855917
 20
-4.752531
  0
VERTEX
  8
PLAN_1
  6
CONTINUOUS
 10
0.852213
 20
-4.759319
  0
VERTEX
  8
PLAN_1
  6
CONTINUOUS
 10
0.848512
 20
-4.767339
  0
VERTEX
  8
PLAN_1
  6
CONTINUOUS
 10
0.846047
 20
-4.775358
  0
VERTEX
  8
PLAN_1
  6
CONTINUOUS
 10
0.844193
 20
-4.783992
  0
VERTEX
  8
PLAN_1
  6
CONTINUOUS
 10
0.842961
 20
-4.792630
  0
VERTEX
  8
PLAN_1
  6
CONTINUOUS
 10
0.842343
 20
-4.801882
  0
VERTEX
  8
PLAN_1
  6
CONTINUOUS
 10
0.842961
 20
-4.811138
  0
VERTEX
  8
PLAN_1
  6
CONTINUOUS
 10
0.844193
 20
-4.819772
  0
VERTEX
  8
PLAN_1
  6
CONTINUOUS
 10
0.846047
 20
-4.828409
  0
VERTEX
  8
PLAN_1
  6
CONTINUOUS
 10
0.849130
 20
-4.836429
  0
VERTEX
  8
PLAN_1
  6
CONTINUOUS
 10
0.852831
 20
-4.843831
  0
VERTEX
  8
PLAN_1
  6
CONTINUOUS
 10
0.857150
 20
-4.850618
  0
VERTEX
  8
PLAN_1
  6
CONTINUOUS
 10
0.862083
 20
-4.857402
  0
VERTEX
  8
PLAN_1
  6
CONTINUOUS
 10
0.867638
 20
-4.863571
  0
VERTEX
  8
PLAN_1
  6
CONTINUOUS
 10
0.873807
 20
-4.869122
  0
VERTEX
  8
PLAN_1
  6
CONTINUOUS
 10
0.879972
 20
-4.874059
  0
VERTEX
  8
PLAN_1
  6
CONTINUOUS
 10
0.887378
 20
-4.878378
  0
VERTEX
  8
PLAN_1
  6
CONTINUOUS
 10
0.894780
 20
-4.882079
  0
VERTEX
  8
PLAN_1
  6
CONTINUOUS
 10
0.902799
 20
-4.884547
  0
VERTEX
  8
PLAN_1
  6
CONTINUOUS
 10
0.911437
 20
-4.887012
  0
VERTEX
  8
PLAN_1
  6
CONTINUOUS
 10
0.920071
 20
-4.888248
  0
VERTEX
  8
PLAN_1
  6
CONTINUOUS
 10
0.928709
 20
-4.888248
  0
VERTEX
  8
PLAN_1
  6
CONTINUOUS
 10
0.938579
 20
-4.888248
  0
VERTEX
  8
PLAN_1
  6
CONTINUOUS
 10
0.947831
 20
-4.886398
  0
VERTEX
  8
PLAN_1
  6
CONTINUOUS
 10
0.957083
 20
-4.883929
  0
VERTEX
  8
PLAN_1
  6
CONTINUOUS
 10
0.966339
 20
-4.880228
  0
VERTEX
  8
PLAN_1
  6
CONTINUOUS
 10
0.974972
 20
-4.875291
  0
VERTEX
  8
PLAN_1
  6
CONTINUOUS
 10
0.982992
 20
-4.869740
  0
VERTEX
  8
PLAN_1
  6
CONTINUOUS
 10
0.989780
 20
-4.863571
  0
VERTEX
  8
PLAN_1
  6
CONTINUOUS
 10
0.996563
 20
-4.856787
  0
VERTEX
  8
PLAN_1
  6
CONTINUOUS
 10
1.015071
 20
-4.856787
  0
VERTEX
  8
PLAN_1
  6
CONTINUOUS
 10
1.011370
 20
-4.862339
  0
VERTEX
  8
PLAN_1
  6
CONTINUOUS
 10
1.007669
 20
-4.867890
  0
VERTEX
  8
PLAN_1
  6
CONTINUOUS
 10
1.003350
 20
-4.872823
  0
VERTEX
  8
PLAN_1
  6
CONTINUOUS
 10
0.999031
 20
-4.877142
  0
VERTEX
  8
PLAN_1
  6
CONTINUOUS
 10
0.994098
 20
-4.881461
  0
VERTEX
  8
PLAN_1
  6
CONTINUOUS
 10
0.989161
 20
-4.885780
  0
VERTEX
  8
PLAN_1
  6
CONTINUOUS
 10
0.983610
 20
-4.889480
  0
VERTEX
  8
PLAN_1
  6
CONTINUOUS
 10
0.978059
 20
-4.892563
  0
VERTEX
  8
PLAN_1
  6
CONTINUOUS
 10
0.972508
 20
-4.895650
  0
VERTEX
  8
PLAN_1
  6
CONTINUOUS
 10
0.966339
 20
-4.898118
  0
VERTEX
  8
PLAN_1
  6
CONTINUOUS
 10
0.960169
 20
-4.900583
  0
VERTEX
  8
PLAN_1
  6
CONTINUOUS
 10
0.954000
 20
-4.902437
  0
VERTEX
  8
PLAN_1
  6
CONTINUOUS
 10
0.947831
 20
-4.903669
  0
VERTEX
  8
PLAN_1
  6
CONTINUOUS
 10
0.941661
 20
-4.904902
  0
VERTEX
  8
PLAN_1
  6
CONTINUOUS
 10
0.934878
 20
-4.905520
  0
VERTEX
  8
PLAN_1
  6
CONTINUOUS
 10
0.928091
 20
-4.905520
  0
VERTEX
  8
PLAN_1
  6
CONTINUOUS
 10
0.917602
 20
-4.904902
  0
VERTEX
  8
PLAN_1
  6
CONTINUOUS
 10
0.906500
 20
-4.903669
  0
VERTEX
  8
PLAN_1
  6
CONTINUOUS
 10
0.896630
 20
-4.901201
  0
VERTEX
  8
PLAN_1
  6
CONTINUOUS
 10
0.886760
 20
-4.897500
  0
VERTEX
  8
PLAN_1
  6
CONTINUOUS
 10
0.877508
 20
-4.893181
  0
VERTEX
  8
PLAN_1
  6
CONTINUOUS
 10
0.868870
 20
-4.887630
  0
VERTEX
  8
PLAN_1
  6
CONTINUOUS
 10
0.860232
 20
-4.882079
  0
VERTEX
  8
PLAN_1
  6
CONTINUOUS
 10
0.852831
 20
-4.875291
  0
VERTEX
  8
PLAN_1
  6
CONTINUOUS
 10
0.846047
 20
-4.867890
  0
VERTEX
  8
PLAN_1
  6
CONTINUOUS
 10
0.839878
 20
-4.859870
  0
VERTEX
  8
PLAN_1
  6
CONTINUOUS
 10
0.834941
 20
-4.850618
  0
VERTEX
  8
PLAN_1
  6
CONTINUOUS
 10
0.830622
 20
-4.841980
  0
VERTEX
  8
PLAN_1
  6
CONTINUOUS
 10
0.826921
 20
-4.832110
  0
VERTEX
  8
PLAN_1
  6
CONTINUOUS
 10
0.824453
 20
-4.821622
  0
VERTEX
  8
PLAN_1
  6
CONTINUOUS
 10
0.822602
 20
-4.811138
  0
VERTEX
  8
PLAN_1
  6
CONTINUOUS
 10
0.821988
 20
-4.800031
  0
VERTEX
  8
PLAN_1
  6
CONTINUOUS
 10
0.822602
 20
-4.789547
  0
VERTEX
  8
PLAN_1
  6
CONTINUOUS
 10
0.824453
 20
-4.779059
  0
VERTEX
  8
PLAN_1
  6
CONTINUOUS
 10
0.826921
 20
-4.769189
  0
VERTEX
  8
PLAN_1
  6
CONTINUOUS
 10
0.830622
 20
-4.759319
  0
VERTEX
  8
PLAN_1
  6
CONTINUOUS
 10
0.834941
 20
-4.750063
  0
VERTEX
  8
PLAN_1
  6
CONTINUOUS
 10
0.840492
 20
-4.742047
  0
VERTEX
  8
PLAN_1
  6
CONTINUOUS
 10
0.846661
 20
-4.734028
  0
VERTEX
  8
PLAN_1
  6
CONTINUOUS
 10
0.853449
 20
-4.726622
  0
VERTEX
  8
PLAN_1
  6
CONTINUOUS
 10
0.860850
 20
-4.719839
  0
VERTEX
  8
PLAN_1
  6
CONTINUOUS
 10
0.868870
 20
-4.713669
  0
VERTEX
  8
PLAN_1
  6
CONTINUOUS
 10
0.877508
 20
-4.708732
  0
VERTEX
  8
PLAN_1
  6
CONTINUOUS
 10
0.886142
 20
-4.703799
  0
VERTEX
  8
PLAN_1
  6
CONTINUOUS
 10
0.896012
 20
-4.700713
  0
VERTEX
  8
PLAN_1
  6
CONTINUOUS
 10
0.905882
 20
-4.698248
  0
VERTEX
  8
PLAN_1
  6
CONTINUOUS
 10
0.916370
 20
-4.696398
  0
VERTEX
  8
PLAN_1
  6
CONTINUOUS
 10
0.926858
 20
-4.695780
  0
VERTEX
  8
PLAN_1
  6
CONTINUOUS
 10
0.936728
 20
-4.696398
  0
VERTEX
  8
PLAN_1
  6
CONTINUOUS
 10
0.945980
 20
-4.697630
  0
VERTEX
  8
PLAN_1
  6
CONTINUOUS
 10
0.954618
 20
-4.699480
  0
VERTEX
  8
PLAN_1
  6
CONTINUOUS
 10
0.963252
 20
-4.702563
  0
VERTEX
  8
PLAN_1
  6
CONTINUOUS
 10
0.971890
 20
-4.705650
  0
VERTEX
  8
PLAN_1
  6
CONTINUOUS
 10
0.979909
 20
-4.709969
  0
VERTEX
  8
PLAN_1
  6
CONTINUOUS
 10
0.987311
 20
-4.714902
  0
VERTEX
  8
PLAN_1
  6
CONTINUOUS
 10
0.994098
 20
-4.720453
  0
VERTEX
  8
PLAN_1
  6
CONTINUOUS
 10
1.000268
 20
-4.726008
  0
VERTEX
  8
PLAN_1
  6
CONTINUOUS
 10
1.005819
 20
-4.732791
  0
VERTEX
  8
PLAN_1
  6
CONTINUOUS
 10
1.010752
 20
-4.740193
  0
VERTEX
  8
PLAN_1
  6
CONTINUOUS
 10
1.014453
 20
-4.747598
  0
VERTEX
  8
PLAN_1
  6
CONTINUOUS
 10
1.018157
 20
-4.755618
  0
VERTEX
  8
PLAN_1
  6
CONTINUOUS
 10
1.020622
 20
-4.764252
  0
VERTEX
  8
PLAN_1
  6
CONTINUOUS
 10
1.021858
 20
-4.773508
  0
VERTEX
  8
PLAN_1
  6
CONTINUOUS
 10
1.022472
 20
-4.782760
  0
VERTEX
  8
PLAN_1
  6
CONTINUOUS
 10
1.021858
 20
-4.791398
  0
VERTEX
  8
PLAN_1
  6
CONTINUOUS
 10
1.020622
 20
-4.800650
  0
VERTEX
  8
PLAN_1
  6
CONTINUOUS
 10
1.018157
 20
-4.808669
  0
VERTEX
  8
PLAN_1
  6
CONTINUOUS
 10
1.015689
 20
-4.816071
  0
VERTEX
  8
PLAN_1
  6
CONTINUOUS
 10
1.011988
 20
-4.823472
  0
VERTEX
  8
PLAN_1
  6
CONTINUOUS
 10
1.007669
 20
-4.830260
  0
VERTEX
  8
PLAN_1
  6
CONTINUOUS
 10
1.003350
 20
-4.835811
  0
VERTEX
  8
PLAN_1
  6
CONTINUOUS
 10
0.998417
 20
-4.841362
  0
VERTEX
  8
PLAN_1
  6
CONTINUOUS
 10
0.993480
 20
-4.846299
  0
VERTEX
  8
PLAN_1
  6
CONTINUOUS
 10
0.987929
 20
-4.850618
  0
VERTEX
  8
PLAN_1
  6
CONTINUOUS
 10
0.982378
 20
-4.854319
  0
VERTEX
  8
PLAN_1
  6
CONTINUOUS
 10
0.976823
 20
-4.857402
  0
VERTEX
  8
PLAN_1
  6
CONTINUOUS
 10
0.971272
 20
-4.859870
  0
VERTEX
  8
PLAN_1
  6
CONTINUOUS
 10
0.965720
 20
-4.861102
  0
VERTEX
  8
PLAN_1
  6
CONTINUOUS
 10
0.960787
 20
-4.862339
  0
VERTEX
  8
PLAN_1
  6
CONTINUOUS
 10
0.955850
 20
-4.862953
  0
VERTEX
  8
PLAN_1
  6
CONTINUOUS
 10
0.952768
 20
-4.862339
  0
VERTEX
  8
PLAN_1
  6
CONTINUOUS
 10
0.949063
 20
-4.861720
  0
VERTEX
  8
PLAN_1
  6
CONTINUOUS
 10
0.946598
 20
-4.860488
  0
VERTEX
  8
PLAN_1
  6
CONTINUOUS
 10
0.944130
 20
-4.858638
  0
VERTEX
  8
PLAN_1
  6
CONTINUOUS
 10
0.941661
 20
-4.856169
  0
VERTEX
  8
PLAN_1
  6
CONTINUOUS
 10
0.939811
 20
-4.853083
  0
VERTEX
  8
PLAN_1
  6
CONTINUOUS
 10
0.938579
 20
-4.849382
  0
VERTEX
  8
PLAN_1
  6
CONTINUOUS
 10
0.938579
 20
-4.845063
  0
VERTEX
  8
PLAN_1
  6
CONTINUOUS
 10
0.937961
 20
-4.845681
  0
VERTEX
  8
PLAN_1
  6
CONTINUOUS
 10
0.934260
 20
-4.848768
  0
VERTEX
  8
PLAN_1
  6
CONTINUOUS
 10
0.931177
 20
-4.851850
  0
VERTEX
  8
PLAN_1
  6
CONTINUOUS
 10
0.926858
 20
-4.854937
  0
VERTEX
  8
PLAN_1
  6
CONTINUOUS
 10
0.923157
 20
-4.857402
  0
VERTEX
  8
PLAN_1
  6
CONTINUOUS
 10
0.918839
 20
-4.859252
  0
VERTEX
  8
PLAN_1
  6
CONTINUOUS
 10
0.913902
 20
-4.861102
  0
VERTEX
  8
PLAN_1
  6
CONTINUOUS
 10
0.908969
 20
-4.862339
  0
VERTEX
  8
PLAN_1
  6
CONTINUOUS
 10
0.904650
 20
-4.862953
  0
VERTEX
  8
PLAN_1
  6
CONTINUOUS
 10
0.900331
 20
-4.862339
  0
VERTEX
  8
PLAN_1
  6
CONTINUOUS
 10
0.896012
 20
-4.861720
  0
VERTEX
  8
PLAN_1
  6
CONTINUOUS
 10
0.891693
 20
-4.860488
  0
VERTEX
  8
PLAN_1
  6
CONTINUOUS
 10
0.887992
 20
-4.859252
  0
VERTEX
  8
PLAN_1
  6
CONTINUOUS
 10
0.884291
 20
-4.857402
  0
VERTEX
  8
PLAN_1
  6
CONTINUOUS
 10
0.881209
 20
-4.854937
  0
VERTEX
  8
PLAN_1
  6
CONTINUOUS
 10
0.878122
 20
-4.852469
  0
VERTEX
  8
PLAN_1
  6
CONTINUOUS
 10
0.875039
 20
-4.849382
  0
VERTEX
  8
PLAN_1
  6
CONTINUOUS
 10
0.872571
 20
-4.846299
  0
VERTEX
  8
PLAN_1
  6
CONTINUOUS
 10
0.870102
 20
-4.843213
  0
VERTEX
  8
PLAN_1
  6
CONTINUOUS
 10
0.868252
 20
-4.839512
  0
VERTEX
  8
PLAN_1
  6
CONTINUOUS
 10
0.866402
 20
-4.835193
  0
VERTEX
  8
PLAN_1
  6
CONTINUOUS
 10
0.865169
 20
-4.831492
  0
VERTEX
  8
PLAN_1
  6
CONTINUOUS
 10
0.864551
 20
-4.827177
  0
VERTEX
  8
PLAN_1
  6
CONTINUOUS
 10
0.863937
 20
-4.822858
  0
VERTEX
  8
PLAN_1
  6
CONTINUOUS
 10
0.863319
 20
-4.818539
  0
VERTEX
  8
PLAN_1
  6
CONTINUOUS
 10
0.863937
 20
-4.811138
  0
VERTEX
  8
PLAN_1
  6
CONTINUOUS
 10
0.864551
 20
-4.804350
  0
VERTEX
  8
PLAN_1
  6
CONTINUOUS
 10
0.866402
 20
-4.797563
  0
VERTEX
  8
PLAN_1
  6
CONTINUOUS
 10
0.868252
 20
-4.790780
  0
VERTEX
  8
PLAN_1
  6
CONTINUOUS
 10
0.870720
 20
-4.783992
  0
VERTEX
  8
PLAN_1
  6
CONTINUOUS
 10
0.873807
 20
-4.777823
  0
VERTEX
  8
PLAN_1
  6
CONTINUOUS
 10
0.877508
 20
-4.771657
  0
VERTEX
  8
PLAN_1
  6
CONTINUOUS
 10
0.881209
 20
-4.766102
  0
VERTEX
  8
PLAN_1
  6
CONTINUOUS
 10
0.885528
 20
-4.760551
  0
VERTEX
  8
PLAN_1
  6
CONTINUOUS
 10
0.890461
 20
-4.756232
  0
VERTEX
  8
PLAN_1
  6
CONTINUOUS
 10
0.896012
 20
-4.751917
  0
VERTEX
  8
PLAN_1
  6
CONTINUOUS
 10
0.901563
 20
-4.748213
  0
VERTEX
  8
PLAN_1
  6
CONTINUOUS
 10
0.907732
 20
-4.745748
  0
VERTEX
  8
PLAN_1
  6
CONTINUOUS
 10
0.913902
 20
-4.743280
  0
VERTEX
  8
PLAN_1
  6
CONTINUOUS
 10
0.920689
 20
-4.742047
  0
VERTEX
  8
PLAN_1
  6
CONTINUOUS
 10
0.927472
 20
-4.741429
  0
VERTEX
  8
PLAN_1
  6
CONTINUOUS
 10
0.932409
 20
-4.742047
  0
VERTEX
  8
PLAN_1
  6
CONTINUOUS
 10
0.937343
 20
-4.742661
  0
VERTEX
  8
PLAN_1
  6
CONTINUOUS
 10
0.941661
 20
-4.744512
  0
VERTEX
  8
PLAN_1
  6
CONTINUOUS
 10
0.945980
 20
-4.746980
  0
VERTEX
  8
PLAN_1
  6
CONTINUOUS
 10
0.949681
 20
-4.749449
  0
VERTEX
  8
PLAN_1
  6
CONTINUOUS
 10
0.953382
 20
-4.753150
  0
VERTEX
  8
PLAN_1
  6
CONTINUOUS
 10
0.956469
 20
-4.758083
  0
VERTEX
  8
PLAN_1
  6
CONTINUOUS
 10
0.959551
 20
-4.763638
  0
VERTEX
  8
PLAN_1
  6
CONTINUOUS
 10
0.965102
 20
-4.746362
  0
SEQEND
  8
0
  0
POLYLINE
  8
PLAN_1
  6
CONTINUOUS
 66
     1
 40
0.003000
 41
0.003000
  0
VERTEX
  8
PLAN_1
  6
CONTINUOUS
 10
0.928091
 20
-4.761787
  0
VERTEX
  8
PLAN_1
  6
CONTINUOUS
 10
0.923772
 20
-4.761787
  0
VERTEX
  8
PLAN_1
  6
CONTINUOUS
 10
0.919453
 20
-4.763020
  0
VERTEX
  8
PLAN_1
  6
CONTINUOUS
 10
0.915138
 20
-4.764870
  0
VERTEX
  8
PLAN_1
  6
CONTINUOUS
 10
0.911437
 20
-4.766720
  0
VERTEX
  8
PLAN_1
  6
CONTINUOUS
 10
0.907732
 20
-4.769807
  0
VERTEX
  8
PLAN_1
  6
CONTINUOUS
 10
0.904031
 20
-4.772890
  0
VERTEX
  8
PLAN_1
  6
CONTINUOUS
 10
0.900949
 20
-4.775972
  0
VERTEX
  8
PLAN_1
  6
CONTINUOUS
 10
0.897862
 20
-4.780291
  0
VERTEX
  8
PLAN_1
  6
CONTINUOUS
 10
0.895398
 20
-4.783992
  0
VERTEX
  8
PLAN_1
  6
CONTINUOUS
 10
0.892929
 20
-4.788311
  0
VERTEX
  8
PLAN_1
  6
CONTINUOUS
 10
0.891079
 20
-4.793248
  0
VERTEX
  8
PLAN_1
  6
CONTINUOUS
 10
0.889228
 20
-4.797563
  0
VERTEX
  8
PLAN_1
  6
CONTINUOUS
 10
0.887992
 20
-4.802500
  0
VERTEX
  8
PLAN_1
  6
CONTINUOUS
 10
0.887378
 20
-4.806819
  0
VERTEX
  8
PLAN_1
  6
CONTINUOUS
 10
0.886760
 20
-4.811138
  0
VERTEX
  8
PLAN_1
  6
CONTINUOUS
 10
0.886142
 20
-4.816071
  0
VERTEX
  8
PLAN_1
  6
CONTINUOUS
 10
0.886760
 20
-4.821622
  0
VERTEX
  8
PLAN_1
  6
CONTINUOUS
 10
0.887992
 20
-4.826559
  0
VERTEX
  8
PLAN_1
  6
CONTINUOUS
 10
0.889843
 20
-4.831492
  0
VERTEX
  8
PLAN_1
  6
CONTINUOUS
 10
0.892929
 20
-4.835193
  0
VERTEX
  8
PLAN_1
  6
CONTINUOUS
 10
0.896012
 20
-4.838280
  0
VERTEX
  8
PLAN_1
  6
CONTINUOUS
 10
0.900331
 20
-4.840748
  0
VERTEX
  8
PLAN_1
  6
CONTINUOUS
 10
0.904650
 20
-4.841980
  0
VERTEX
  8
PLAN_1
  6
CONTINUOUS
 10
0.909583
 20
-4.842598
  0
VERTEX
  8
PLAN_1
  6
CONTINUOUS
 10
0.913902
 20
-4.842598
  0
VERTEX
  8
PLAN_1
  6
CONTINUOUS
 10
0.918220
 20
-4.841362
  0
VERTEX
  8
PLAN_1
  6
CONTINUOUS
 10
0.922539
 20
-4.839512
  0
VERTEX
  8
PLAN_1
  6
CONTINUOUS
 10
0.926240
 20
-4.837047
  0
VERTEX
  8
PLAN_1
  6
CONTINUOUS
 10
0.929941
 20
-4.834579
  0
VERTEX
  8
PLAN_1
  6
CONTINUOUS
 10
0.933028
 20
-4.830878
  0
VERTEX
  8
PLAN_1
  6
CONTINUOUS
 10
0.936110
 20
-4.827177
  0
VERTEX
  8
PLAN_1
  6
CONTINUOUS
 10
0.939193
 20
-4.823472
  0
VERTEX
  8
PLAN_1
  6
CONTINUOUS
 10
0.941661
 20
-4.819157
  0
VERTEX
  8
PLAN_1
  6
CONTINUOUS
 10
0.944130
 20
-4.814839
  0
VERTEX
  8
PLAN_1
  6
CONTINUOUS
 10
0.945980
 20
-4.809902
  0
VERTEX
  8
PLAN_1
  6
CONTINUOUS
 10
0.947831
 20
-4.804969
  0
VERTEX
  8
PLAN_1
  6
CONTINUOUS
 10
0.949063
 20
-4.800650
  0
VERTEX
  8
PLAN_1
  6
CONTINUOUS
 10
0.950299
 20
-4.795713
  0
VERTEX
  8
PLAN_1
  6
CONTINUOUS
 10
0.950917
 20
-4.791398
  0
VERTEX
  8
PLAN_1
  6
CONTINUOUS
 10
0.950917
 20
-4.787079
  0
VERTEX
  8
PLAN_1
  6
CONTINUOUS
 10
0.950299
 20
-4.782142
  0
VERTEX
  8
PLAN_1
  6
CONTINUOUS
 10
0.949063
 20
-4.777209
  0
VERTEX
  8
PLAN_1
  6
CONTINUOUS
 10
0.947213
 20
-4.772890
  0
VERTEX
  8
PLAN_1
  6
CONTINUOUS
 10
0.944130
 20
-4.769189
  0
VERTEX
  8
PLAN_1
  6
CONTINUOUS
 10
0.941047
 20
-4.766102
  0
VERTEX
  8
PLAN_1
  6
CONTINUOUS
 10
0.936728
 20
-4.763638
  0
VERTEX
  8
PLAN_1
  6
CONTINUOUS
 10
0.933028
 20
-4.762402
  0
VERTEX
  8
PLAN_1
  6
CONTINUOUS
 10
0.928091
 20
-4.761787
  0
SEQEND
  8
0
  0
POLYLINE
  8
PLAN_1
  6
CONTINUOUS
 66
     1
 40
0.003000
 41
0.003000
  0
VERTEX
  8
PLAN_1
  6
CONTINUOUS
 10
1.247020
 20
-4.746362
  0
VERTEX
  8
PLAN_1
  6
CONTINUOUS
 10
1.266142
 20
-4.746362
  0
VERTEX
  8
PLAN_1
  6
CONTINUOUS
 10
1.261823
 20
-4.761169
  0
VERTEX
  8
PLAN_1
  6
CONTINUOUS
 10
1.257508
 20
-4.775358
  0
VERTEX
  8
PLAN_1
  6
CONTINUOUS
 10
1.253189
 20
-4.790161
  0
VERTEX
  8
PLAN_1
  6
CONTINUOUS
 10
1.249488
 20
-4.803118
  0
VERTEX
  8
PLAN_1
  6
CONTINUOUS
 10
1.245787
 20
-4.814839
  0
VERTEX
  8
PLAN_1
  6
CONTINUOUS
 10
1.243319
 20
-4.824709
  0
VERTEX
  8
PLAN_1
  6
CONTINUOUS
 10
1.241469
 20
-4.832110
  0
VERTEX
  8
PLAN_1
  6
CONTINUOUS
 10
1.240850
 20
-4.836429
  0
VERTEX
  8
PLAN_1
  6
CONTINUOUS
 10
1.240850
 20
-4.838280
  0
VERTEX
  8
PLAN_1
  6
CONTINUOUS
 10
1.241469
 20
-4.840130
  0
VERTEX
  8
PLAN_1
  6
CONTINUOUS
 10
1.241469
 20
-4.841362
  0
VERTEX
  8
PLAN_1
  6
CONTINUOUS
 10
1.242083
 20
-4.842598
  0
VERTEX
  8
PLAN_1
  6
CONTINUOUS
 10
1.242701
 20
-4.843213
  0
VERTEX
  8
PLAN_1
  6
CONTINUOUS
 10
1.243937
 20
-4.844449
  0
VERTEX
  8
PLAN_1
  6
CONTINUOUS
 10
1.245169
 20
-4.844449
  0
VERTEX
  8
PLAN_1
  6
CONTINUOUS
 10
1.247020
 20
-4.844449
  0
VERTEX
  8
PLAN_1
  6
CONTINUOUS
 10
1.250102
 20
-4.844449
  0
VERTEX
  8
PLAN_1
  6
CONTINUOUS
 10
1.253807
 20
-4.843213
  0
VERTEX
  8
PLAN_1
  6
CONTINUOUS
 10
1.257508
 20
-4.841980
  0
VERTEX
  8
PLAN_1
  6
CONTINUOUS
 10
1.260591
 20
-4.839512
  0
VERTEX
  8
PLAN_1
  6
CONTINUOUS
 10
1.264291
 20
-4.837047
  0
VERTEX
  8
PLAN_1
  6
CONTINUOUS
 10
1.267378
 20
-4.833343
  0
VERTEX
  8
PLAN_1
  6
CONTINUOUS
 10
1.270461
 20
-4.829642
  0
VERTEX
  8
PLAN_1
  6
CONTINUOUS
 10
1.273547
 20
-4.825941
  0
VERTEX
  8
PLAN_1
  6
CONTINUOUS
 10
1.276012
 20
-4.821622
  0
VERTEX
  8
PLAN_1
  6
CONTINUOUS
 10
1.278480
 20
-4.816689
  0
VERTEX
  8
PLAN_1
  6
CONTINUOUS
 10
1.280949
 20
-4.811752
  0
VERTEX
  8
PLAN_1
  6
CONTINUOUS
 10
1.282799
 20
-4.806819
  0
VERTEX
  8
PLAN_1
  6
CONTINUOUS
 10
1.284031
 20
-4.801268
  0
VERTEX
  8
PLAN_1
  6
CONTINUOUS
 10
1.285268
 20
-4.795713
  0
VERTEX
  8
PLAN_1
  6
CONTINUOUS
 10
1.285882
 20
-4.790161
  0
VERTEX
  8
PLAN_1
  6
CONTINUOUS
 10
1.285882
 20
-4.784610
  0
VERTEX
  8
PLAN_1
  6
CONTINUOUS
 10
1.285882
 20
-4.776591
  0
VERTEX
  8
PLAN_1
  6
CONTINUOUS
 10
1.284650
 20
-4.769189
  0
VERTEX
  8
PLAN_1
  6
CONTINUOUS
 10
1.282799
 20
-4.761787
  0
VERTEX
  8
PLAN_1
  6
CONTINUOUS
 10
1.279713
 20
-4.755000
  0
VERTEX
  8
PLAN_1
  6
CONTINUOUS
 10
1.276630
 20
-4.748213
  0
VERTEX
  8
PLAN_1
  6
CONTINUOUS
 10
1.272929
 20
-4.742661
  0
VERTEX
  8
PLAN_1
  6
CONTINUOUS
 10
1.267992
 20
-4.737110
  0
VERTEX
  8
PLAN_1
  6
CONTINUOUS
 10
1.263059
 20
-4.732177
  0
VERTEX
  8
PLAN_1
  6
CONTINUOUS
 10
1.257508
 20
-4.727858
  0
VERTEX
  8
PLAN_1
  6
CONTINUOUS
 10
1.251339
 20
-4.724157
  0
VERTEX
  8
PLAN_1
  6
CONTINUOUS
 10
1.245169
 20
-4.721071
  0
VERTEX
  8
PLAN_1
  6
CONTINUOUS
 10
1.238382
 20
-4.717988
  0
VERTEX
  8
PLAN_1
  6
CONTINUOUS
 10
1.231598
 20
-4.716138
  0
VERTEX
  8
PLAN_1
  6
CONTINUOUS
 10
1.224193
 20
-4.714287
  0
VERTEX
  8
PLAN_1
  6
CONTINUOUS
 10
1.216791
 20
-4.713669
  0
VERTEX
  8
PLAN_1
  6
CONTINUOUS
 10
1.208772
 20
-4.713051
  0
VERTEX
  8
PLAN_1
  6
CONTINUOUS
 10
1.199520
 20
-4.713669
  0
VERTEX
  8
PLAN_1
  6
CONTINUOUS
 10
1.190882
 20
-4.714902
  0
VERTEX
  8
PLAN_1
  6
CONTINUOUS
 10
1.182862
 20
-4.717370
  0
VERTEX
  8
PLAN_1
  6
CONTINUOUS
 10
1.174843
 20
-4.719839
  0
VERTEX
  8
PLAN_1
  6
CONTINUOUS
 10
1.167441
 20
-4.723539
  0
VERTEX
  8
PLAN_1
  6
CONTINUOUS
 10
1.160039
 20
-4.728472
  0
VERTEX
  8
PLAN_1
  6
CONTINUOUS
 10
1.153870
 20
-4.733409
  0
VERTEX
  8
PLAN_1
  6
CONTINUOUS
 10
1.148319
 20
-4.738961
  0
VERTEX
  8
PLAN_1
  6
CONTINUOUS
 10
1.142768
 20
-4.745130
  0
VERTEX
  8
PLAN_1
  6
CONTINUOUS
 10
1.137831
 20
-4.752531
  0
VERTEX
  8
PLAN_1
  6
CONTINUOUS
 10
1.134130
 20
-4.759319
  0
VERTEX
  8
PLAN_1
  6
CONTINUOUS
 10
1.130429
 20
-4.767339
  0
VERTEX
  8
PLAN_1
  6
CONTINUOUS
 10
1.127961
 20
-4.775358
  0
VERTEX
  8
PLAN_1
  6
CONTINUOUS
 10
1.126110
 20
-4.783992
  0
VERTEX
  8
PLAN_1
  6
CONTINUOUS
 10
1.124878
 20
-4.792630
  0
VERTEX
  8
PLAN_1
  6
CONTINUOUS
 10
1.124260
 20
-4.801882
  0
VERTEX
  8
PLAN_1
  6
CONTINUOUS
 10
1.124878
 20
-4.811138
  0
VERTEX
  8
PLAN_1
  6
CONTINUOUS
 10
1.126110
 20
-4.819772
  0
VERTEX
  8
PLAN_1
  6
CONTINUOUS
 10
1.127961
 20
-4.828409
  0
VERTEX
  8
PLAN_1
  6
CONTINUOUS
 10
1.131047
 20
-4.836429
  0
VERTEX
  8
PLAN_1
  6
CONTINUOUS
 10
1.134748
 20
-4.843831
  0
VERTEX
  8
PLAN_1
  6
CONTINUOUS
 10
1.139063
 20
-4.850618
  0
VERTEX
  8
PLAN_1
  6
CONTINUOUS
 10
1.144000
 20
-4.857402
  0
VERTEX
  8
PLAN_1
  6
CONTINUOUS
 10
1.149551
 20
-4.863571
  0
VERTEX
  8
PLAN_1
  6
CONTINUOUS
 10
1.155102
 20
-4.869122
  0
VERTEX
  8
PLAN_1
  6
CONTINUOUS
 10
1.161890
 20
-4.874059
  0
VERTEX
  8
PLAN_1
  6
CONTINUOUS
 10
1.169291
 20
-4.878378
  0
VERTEX
  8
PLAN_1
  6
CONTINUOUS
 10
1.176693
 20
-4.882079
  0
VERTEX
  8
PLAN_1
  6
CONTINUOUS
 10
1.184713
 20
-4.884547
  0
VERTEX
  8
PLAN_1
  6
CONTINUOUS
 10
1.192732
 20
-4.887012
  0
VERTEX
  8
PLAN_1
  6
CONTINUOUS
 10
1.201988
 20
-4.888248
  0
VERTEX
  8
PLAN_1
  6
CONTINUOUS
 10
1.210622
 20
-4.888248
  0
VERTEX
  8
PLAN_1
  6
CONTINUOUS
 10
1.220492
 20
-4.888248
  0
VERTEX
  8
PLAN_1
  6
CONTINUOUS
 10
1.229748
 20
-4.886398
  0
VERTEX
  8
PLAN_1
  6
CONTINUOUS
 10
1.239000
 20
-4.883929
  0
VERTEX
  8
PLAN_1
  6
CONTINUOUS
 10
1.248252
 20
-4.880228
  0
VERTEX
  8
PLAN_1
  6
CONTINUOUS
 10
1.256890
 20
-4.875291
  0
VERTEX
  8
PLAN_1
  6
CONTINUOUS
 10
1.264291
 20
-4.869740
  0
VERTEX
  8
PLAN_1
  6
CONTINUOUS
 10
1.271693
 20
-4.863571
  0
VERTEX
  8
PLAN_1
  6
CONTINUOUS
 10
1.277862
 20
-4.856787
  0
VERTEX
  8
PLAN_1
  6
CONTINUOUS
 10
1.296988
 20
-4.856787
  0
VERTEX
  8
PLAN_1
  6
CONTINUOUS
 10
1.293287
 20
-4.862339
  0
VERTEX
  8
PLAN_1
  6
CONTINUOUS
 10
1.288969
 20
-4.867890
  0
VERTEX
  8
PLAN_1
  6
CONTINUOUS
 10
1.285268
 20
-4.872823
  0
VERTEX
  8
PLAN_1
  6
CONTINUOUS
 10
1.280331
 20
-4.877142
  0
VERTEX
  8
PLAN_1
  6
CONTINUOUS
 10
1.276012
 20
-4.881461
  0
VERTEX
  8
PLAN_1
  6
CONTINUOUS
 10
1.270461
 20
-4.885780
  0
VERTEX
  8
PLAN_1
  6
CONTINUOUS
 10
1.265528
 20
-4.889480
  0
VERTEX
  8
PLAN_1
  6
CONTINUOUS
 10
1.259972
 20
-4.892563
  0
VERTEX
  8
PLAN_1
  6
CONTINUOUS
 10
1.254421
 20
-4.895650
  0
VERTEX
  8
PLAN_1
  6
CONTINUOUS
 10
1.248252
 20
-4.898118
  0
VERTEX
  8
PLAN_1
  6
CONTINUOUS
 10
1.242083
 20
-4.900583
  0
VERTEX
  8
PLAN_1
  6
CONTINUOUS
 10
1.235917
 20
-4.902437
  0
VERTEX
  8
PLAN_1
  6
CONTINUOUS
 10
1.229748
 20
-4.903669
  0
VERTEX
  8
PLAN_1
  6
CONTINUOUS
 10
1.223579
 20
-4.904902
  0
VERTEX
  8
PLAN_1
  6
CONTINUOUS
 10
1.216791
 20
-4.905520
  0
VERTEX
  8
PLAN_1
  6
CONTINUOUS
 10
1.210008
 20
-4.905520
  0
VERTEX
  8
PLAN_1
  6
CONTINUOUS
 10
1.198902
 20
-4.904902
  0
VERTEX
  8
PLAN_1
  6
CONTINUOUS
 10
1.188417
 20
-4.903669
  0
VERTEX
  8
PLAN_1
  6
CONTINUOUS
 10
1.178547
 20
-4.901201
  0
VERTEX
  8
PLAN_1
  6
CONTINUOUS
 10
1.168677
 20
-4.897500
  0
VERTEX
  8
PLAN_1
  6
CONTINUOUS
 10
1.159421
 20
-4.893181
  0
VERTEX
  8
PLAN_1
  6
CONTINUOUS
 10
1.150169
 20
-4.887630
  0
VERTEX
  8
PLAN_1
  6
CONTINUOUS
 10
1.142150
 20
-4.882079
  0
VERTEX
  8
PLAN_1
  6
CONTINUOUS
 10
1.134748
 20
-4.875291
  0
VERTEX
  8
PLAN_1
  6
CONTINUOUS
 10
1.127961
 20
-4.867890
  0
VERTEX
  8
PLAN_1
  6
CONTINUOUS
 10
1.121791
 20
-4.859870
  0
VERTEX
  8
PLAN_1
  6
CONTINUOUS
 10
1.116858
 20
-4.850618
  0
VERTEX
  8
PLAN_1
  6
CONTINUOUS
 10
1.112539
 20
-4.841980
  0
VERTEX
  8
PLAN_1
  6
CONTINUOUS
 10
1.108839
 20
-4.832110
  0
VERTEX
  8
PLAN_1
  6
CONTINUOUS
 10
1.106370
 20
-4.821622
  0
VERTEX
  8
PLAN_1
  6
CONTINUOUS
 10
1.104520
 20
-4.811138
  0
VERTEX
  8
PLAN_1
  6
CONTINUOUS
 10
1.103902
 20
-4.800031
  0
VERTEX
  8
PLAN_1
  6
CONTINUOUS
 10
1.104520
 20
-4.789547
  0
VERTEX
  8
PLAN_1
  6
CONTINUOUS
 10
1.106370
 20
-4.779059
  0
VERTEX
  8
PLAN_1
  6
CONTINUOUS
 10
1.108839
 20
-4.769189
  0
VERTEX
  8
PLAN_1
  6
CONTINUOUS
 10
1.112539
 20
-4.759319
  0
VERTEX
  8
PLAN_1
  6
CONTINUOUS
 10
1.116858
 20
-4.750063
  0
VERTEX
  8
PLAN_1
  6
CONTINUOUS
 10
1.122409
 20
-4.742047
  0
VERTEX
  8
PLAN_1
  6
CONTINUOUS
 10
1.127961
 20
-4.734028
  0
VERTEX
  8
PLAN_1
  6
CONTINUOUS
 10
1.134748
 20
-4.726622
  0
VERTEX
  8
PLAN_1
  6
CONTINUOUS
 10
1.142150
 20
-4.719839
  0
VERTEX
  8
PLAN_1
  6
CONTINUOUS
 10
1.150787
 20
-4.713669
  0
VERTEX
  8
PLAN_1
  6
CONTINUOUS
 10
1.159421
 20
-4.708732
  0
VERTEX
  8
PLAN_1
  6
CONTINUOUS
 10
1.168059
 20
-4.703799
  0
VERTEX
  8
PLAN_1
  6
CONTINUOUS
 10
1.177929
 20
-4.700713
  0
VERTEX
  8
PLAN_1
  6
CONTINUOUS
 10
1.187799
 20
-4.698248
  0
VERTEX
  8
PLAN_1
  6
CONTINUOUS
 10
1.198287
 20
-4.696398
  0
VERTEX
  8
PLAN_1
  6
CONTINUOUS
 10
1.208772
 20
-4.695780
  0
VERTEX
  8
PLAN_1
  6
CONTINUOUS
 10
1.218028
 20
-4.696398
  0
VERTEX
  8
PLAN_1
  6
CONTINUOUS
 10
1.227280
 20
-4.697630
  0
VERTEX
  8
PLAN_1
  6
CONTINUOUS
 10
1.236531
 20
-4.699480
  0
VERTEX
  8
PLAN_1
  6
CONTINUOUS
 10
1.245169
 20
-4.702563
  0
VERTEX
  8
PLAN_1
  6
CONTINUOUS
 10
1.253807
 20
-4.705650
  0
VERTEX
  8
PLAN_1
  6
CONTINUOUS
 10
1.261209
 20
-4.709969
  0
VERTEX
  8
PLAN_1
  6
CONTINUOUS
 10
1.268610
 20
-4.714902
  0
VERTEX
  8
PLAN_1
  6
CONTINUOUS
 10
1.276012
 20
-4.720453
  0
VERTEX
  8
PLAN_1
  6
CONTINUOUS
 10
1.282181
 20
-4.726008
  0
VERTEX
  8
PLAN_1
  6
CONTINUOUS
 10
1.287732
 20
-4.732791
  0
VERTEX
  8
PLAN_1
  6
CONTINUOUS
 10
1.292669
 20
-4.740193
  0
VERTEX
  8
PLAN_1
  6
CONTINUOUS
 10
1.296370
 20
-4.747598
  0
VERTEX
  8
PLAN_1
  6
CONTINUOUS
 10
1.300071
 20
-4.755618
  0
VERTEX
  8
PLAN_1
  6
CONTINUOUS
 10
1.301921
 20
-4.764252
  0
VERTEX
  8
PLAN_1
  6
CONTINUOUS
 10
1.303772
 20
-4.773508
  0
VERTEX
  8
PLAN_1
  6
CONTINUOUS
 10
1.304390
 20
-4.782760
  0
VERTEX
  8
PLAN_1
  6
CONTINUOUS
 10
1.303772
 20
-4.791398
  0
VERTEX
  8
PLAN_1
  6
CONTINUOUS
 10
1.302539
 20
-4.800650
  0
VERTEX
  8
PLAN_1
  6
CONTINUOUS
 10
1.300071
 20
-4.808669
  0
VERTEX
  8
PLAN_1
  6
CONTINUOUS
 10
1.297602
 20
-4.816071
  0
VERTEX
  8
PLAN_1
  6
CONTINUOUS
 10
1.293902
 20
-4.823472
  0
VERTEX
  8
PLAN_1
  6
CONTINUOUS
 10
1.289583
 20
-4.830260
  0
VERTEX
  8
PLAN_1
  6
CONTINUOUS
 10
1.285268
 20
-4.835811
  0
VERTEX
  8
PLAN_1
  6
CONTINUOUS
 10
1.280331
 20
-4.841362
  0
VERTEX
  8
PLAN_1
  6
CONTINUOUS
 10
1.275398
 20
-4.846299
  0
VERTEX
  8
PLAN_1
  6
CONTINUOUS
 10
1.269843
 20
-4.850618
  0
VERTEX
  8
PLAN_1
  6
CONTINUOUS
 10
1.264291
 20
-4.854319
  0
VERTEX
  8
PLAN_1
  6
CONTINUOUS
 10
1.258740
 20
-4.857402
  0
VERTEX
  8
PLAN_1
  6
CONTINUOUS
 10
1.253189
 20
-4.859870
  0
VERTEX
  8
PLAN_1
  6
CONTINUOUS
 10
1.247638
 20
-4.861102
  0
VERTEX
  8
PLAN_1
  6
CONTINUOUS
 10
1.242701
 20
-4.862339
  0
VERTEX
  8
PLAN_1
  6
CONTINUOUS
 10
1.237768
 20
-4.862953
  0
VERTEX
  8
PLAN_1
  6
CONTINUOUS
 10
1.234681
 20
-4.862339
  0
VERTEX
  8
PLAN_1
  6
CONTINUOUS
 10
1.230980
 20
-4.861720
  0
VERTEX
  8
PLAN_1
  6
CONTINUOUS
 10
1.228512
 20
-4.860488
  0
VERTEX
  8
PLAN_1
  6
CONTINUOUS
 10
1.225429
 20
-4.858638
  0
VERTEX
  8
PLAN_1
  6
CONTINUOUS
 10
1.223579
 20
-4.856169
  0
VERTEX
  8
PLAN_1
  6
CONTINUOUS
 10
1.221728
 20
-4.853083
  0
VERTEX
  8
PLAN_1
  6
CONTINUOUS
 10
1.220492
 20
-4.849382
  0
VERTEX
  8
PLAN_1
  6
CONTINUOUS
 10
1.219878
 20
-4.845063
  0
VERTEX
  8
PLAN_1
  6
CONTINUOUS
 10
1.219260
 20
-4.845681
  0
VERTEX
  8
PLAN_1
  6
CONTINUOUS
 10
1.216177
 20
-4.848768
  0
VERTEX
  8
PLAN_1
  6
CONTINUOUS
 10
1.213091
 20
-4.851850
  0
VERTEX
  8
PLAN_1
  6
CONTINUOUS
 10
1.208772
 20
-4.854937
  0
VERTEX
  8
PLAN_1
  6
CONTINUOUS
 10
1.205071
 20
-4.857402
  0
VERTEX
  8
PLAN_1
  6
CONTINUOUS
 10
1.200138
 20
-4.859252
  0
VERTEX
  8
PLAN_1
  6
CONTINUOUS
 10
1.195819
 20
-4.861102
  0
VERTEX
  8
PLAN_1
  6
CONTINUOUS
 10
1.190882
 20
-4.862339
  0
VERTEX
  8
PLAN_1
  6
CONTINUOUS
 10
1.185949
 20
-4.862953
  0
VERTEX
  8
PLAN_1
  6
CONTINUOUS
 10
1.181630
 20
-4.862339
  0
VERTEX
  8
PLAN_1
  6
CONTINUOUS
 10
1.177929
 20
-4.861720
  0
VERTEX
  8
PLAN_1
  6
CONTINUOUS
 10
1.173610
 20
-4.860488
  0
VERTEX
  8
PLAN_1
  6
CONTINUOUS
 10
1.169909
 20
-4.859252
  0
VERTEX
  8
PLAN_1
  6
CONTINUOUS
 10
1.166209
 20
-4.857402
  0
VERTEX
  8
PLAN_1
  6
CONTINUOUS
 10
1.163122
 20
-4.854937
  0
VERTEX
  8
PLAN_1
  6
CONTINUOUS
 10
1.160039
 20
-4.852469
  0
VERTEX
  8
PLAN_1
  6
CONTINUOUS
 10
1.156953
 20
-4.849382
  0
VERTEX
  8
PLAN_1
  6
CONTINUOUS
 10
1.154488
 20
-4.846299
  0
VERTEX
  8
PLAN_1
  6
CONTINUOUS
 10
1.152020
 20
-4.843213
  0
VERTEX
  8
PLAN_1
  6
CONTINUOUS
 10
1.150169
 20
-4.839512
  0
VERTEX
  8
PLAN_1
  6
CONTINUOUS
 10
1.148319
 20
-4.835193
  0
VERTEX
  8
PLAN_1
  6
CONTINUOUS
 10
1.147083
 20
-4.831492
  0
VERTEX
  8
PLAN_1
  6
CONTINUOUS
 10
1.146469
 20
-4.827177
  0
VERTEX
  8
PLAN_1
  6
CONTINUOUS
 10
1.145850
 20
-4.822858
  0
VERTEX
  8
PLAN_1
  6
CONTINUOUS
 10
1.145232
 20
-4.818539
  0
VERTEX
  8
PLAN_1
  6
CONTINUOUS
 10
1.145850
 20
-4.811138
  0
VERTEX
  8
PLAN_1
  6
CONTINUOUS
 10
1.146469
 20
-4.804350
  0
VERTEX
  8
PLAN_1
  6
CONTINUOUS
 10
1.148319
 20
-4.797563
  0
VERTEX
  8
PLAN_1
  6
CONTINUOUS
 10
1.150169
 20
-4.790780
  0
VERTEX
  8
PLAN_1
  6
CONTINUOUS
 10
1.152638
 20
-4.783992
  0
VERTEX
  8
PLAN_1
  6
CONTINUOUS
 10
1.155720
 20
-4.777823
  0
VERTEX
  8
PLAN_1
  6
CONTINUOUS
 10
1.158807
 20
-4.771657
  0
VERTEX
  8
PLAN_1
  6
CONTINUOUS
 10
1.163122
 20
-4.766102
  0
VERTEX
  8
PLAN_1
  6
CONTINUOUS
 10
1.167441
 20
-4.760551
  0
VERTEX
  8
PLAN_1
  6
CONTINUOUS
 10
1.172378
 20
-4.756232
  0
VERTEX
  8
PLAN_1
  6
CONTINUOUS
 10
1.177311
 20
-4.751917
  0
VERTEX
  8
PLAN_1
  6
CONTINUOUS
 10
1.183480
 20
-4.748213
  0
VERTEX
  8
PLAN_1
  6
CONTINUOUS
 10
1.189031
 20
-4.745748
  0
VERTEX
  8
PLAN_1
  6
CONTINUOUS
 10
1.195819
 20
-4.743280
  0
VERTEX
  8
PLAN_1
  6
CONTINUOUS
 10
1.202602
 20
-4.742047
  0
VERTEX
  8
PLAN_1
  6
CONTINUOUS
 10
1.209390
 20
-4.741429
  0
VERTEX
  8
PLAN_1
  6
CONTINUOUS
 10
1.214323
 20
-4.742047
  0
VERTEX
  8
PLAN_1
  6
CONTINUOUS
 10
1.219260
 20
-4.742661
  0
VERTEX
  8
PLAN_1
  6
CONTINUOUS
 10
1.223579
 20
-4.744512
  0
VERTEX
  8
PLAN_1
  6
CONTINUOUS
 10
1.227898
 20
-4.746980
  0
VERTEX
  8
PLAN_1
  6
CONTINUOUS
 10
1.231598
 20
-4.749449
  0
VERTEX
  8
PLAN_1
  6
CONTINUOUS
 10
1.235299
 20
-4.753150
  0
VERTEX
  8
PLAN_1
  6
CONTINUOUS
 10
1.238382
 20
-4.758083
  0
VERTEX
  8
PLAN_1
  6
CONTINUOUS
 10
1.241469
 20
-4.763638
  0
VERTEX
  8
PLAN_1
  6
CONTINUOUS
 10
1.247020
 20
-4.746362
  0
SEQEND
  8
0
  0
POLYLINE
  8
PLAN_1
  6
CONTINUOUS
 66
     1
 40
0.003000
 41
0.003000
  0
VERTEX
  8
PLAN_1
  6
CONTINUOUS
 10
1.210008
 20
-4.761787
  0
VERTEX
  8
PLAN_1
  6
CONTINUOUS
 10
1.205689
 20
-4.761787
  0
VERTEX
  8
PLAN_1
  6
CONTINUOUS
 10
1.201370
 20
-4.763020
  0
VERTEX
  8
PLAN_1
  6
CONTINUOUS
 10
1.197051
 20
-4.764870
  0
VERTEX
  8
PLAN_1
  6
CONTINUOUS
 10
1.193350
 20
-4.766720
  0
VERTEX
  8
PLAN_1
  6
CONTINUOUS
 10
1.189650
 20
-4.769807
  0
VERTEX
  8
PLAN_1
  6
CONTINUOUS
 10
1.185949
 20
-4.772890
  0
VERTEX
  8
PLAN_1
  6
CONTINUOUS
 10
1.182862
 20
-4.775972
  0
VERTEX
  8
PLAN_1
  6
CONTINUOUS
 10
1.179780
 20
-4.780291
  0
VERTEX
  8
PLAN_1
  6
CONTINUOUS
 10
1.177311
 20
-4.783992
  0
VERTEX
  8
PLAN_1
  6
CONTINUOUS
 10
1.174843
 20
-4.788311
  0
VERTEX
  8
PLAN_1
  6
CONTINUOUS
 10
1.172992
 20
-4.793248
  0
VERTEX
  8
PLAN_1
  6
CONTINUOUS
 10
1.171142
 20
-4.797563
  0
VERTEX
  8
PLAN_1
  6
CONTINUOUS
 10
1.169909
 20
-4.802500
  0
VERTEX
  8
PLAN_1
  6
CONTINUOUS
 10
1.169291
 20
-4.806819
  0
VERTEX
  8
PLAN_1
  6
CONTINUOUS
 10
1.168677
 20
-4.811138
  0
VERTEX
  8
PLAN_1
  6
CONTINUOUS
 10
1.168059
 20
-4.816071
  0
VERTEX
  8
PLAN_1
  6
CONTINUOUS
 10
1.168677
 20
-4.821622
  0
VERTEX
  8
PLAN_1
  6
CONTINUOUS
 10
1.169909
 20
-4.826559
  0
VERTEX
  8
PLAN_1
  6
CONTINUOUS
 10
1.171760
 20
-4.831492
  0
VERTEX
  8
PLAN_1
  6
CONTINUOUS
 10
1.174843
 20
-4.835193
  0
VERTEX
  8
PLAN_1
  6
CONTINUOUS
 10
1.177929
 20
-4.838280
  0
VERTEX
  8
PLAN_1
  6
CONTINUOUS
 10
1.182248
 20
-4.840748
  0
VERTEX
  8
PLAN_1
  6
CONTINUOUS
 10
1.186563
 20
-4.841980
  0
VERTEX
  8
PLAN_1
  6
CONTINUOUS
 10
1.191500
 20
-4.842598
  0
VERTEX
  8
PLAN_1
  6
CONTINUOUS
 10
1.195819
 20
-4.842598
  0
VERTEX
  8
PLAN_1
  6
CONTINUOUS
 10
1.200138
 20
-4.841362
  0
VERTEX
  8
PLAN_1
  6
CONTINUOUS
 10
1.203839
 20
-4.839512
  0
VERTEX
  8
PLAN_1
  6
CONTINUOUS
 10
1.208157
 20
-4.837047
  0
VERTEX
  8
PLAN_1
  6
CONTINUOUS
 10
1.211858
 20
-4.834579
  0
VERTEX
  8
PLAN_1
  6
CONTINUOUS
 10
1.214941
 20
-4.830878
  0
VERTEX
  8
PLAN_1
  6
CONTINUOUS
 10
1.218028
 20
-4.827177
  0
VERTEX
  8
PLAN_1
  6
CONTINUOUS
 10
1.221110
 20
-4.823472
  0
VERTEX
  8
PLAN_1
  6
CONTINUOUS
 10
1.223579
 20
-4.819157
  0
VERTEX
  8
PLAN_1
  6
CONTINUOUS
 10
1.226047
 20
-4.814839
  0
VERTEX
  8
PLAN_1
  6
CONTINUOUS
 10
1.227898
 20
-4.809902
  0
VERTEX
  8
PLAN_1
  6
CONTINUOUS
 10
1.229748
 20
-4.804969
  0
VERTEX
  8
PLAN_1
  6
CONTINUOUS
 10
1.230980
 20
-4.800650
  0
VERTEX
  8
PLAN_1
  6
CONTINUOUS
 10
1.232213
 20
-4.795713
  0
VERTEX
  8
PLAN_1
  6
CONTINUOUS
 10
1.232831
 20
-4.791398
  0
VERTEX
  8
PLAN_1
  6
CONTINUOUS
 10
1.232831
 20
-4.787079
  0
VERTEX
  8
PLAN_1
  6
CONTINUOUS
 10
1.232213
 20
-4.782142
  0
VERTEX
  8
PLAN_1
  6
CONTINUOUS
 10
1.230980
 20
-4.777209
  0
VERTEX
  8
PLAN_1
  6
CONTINUOUS
 10
1.229130
 20
-4.772890
  0
VERTEX
  8
PLAN_1
  6
CONTINUOUS
 10
1.226047
 20
-4.769189
  0
VERTEX
  8
PLAN_1
  6
CONTINUOUS
 10
1.222961
 20
-4.766102
  0
VERTEX
  8
PLAN_1
  6
CONTINUOUS
 10
1.218642
 20
-4.763638
  0
VERTEX
  8
PLAN_1
  6
CONTINUOUS
 10
1.214323
 20
-4.762402
  0
VERTEX
  8
PLAN_1
  6
CONTINUOUS
 10
1.210008
 20
-4.761787
  0
SEQEND
  8
0
  0
POLYLINE
  8
PLAN_1
  6
CONTINUOUS
 66
     1
 40
0.003000
 41
0.003000
  0
VERTEX
  8
PLAN_1
  6
CONTINUOUS
 10
1.456760
 20
-4.796949
  0
VERTEX
  8
PLAN_1
  6
CONTINUOUS
 10
1.461693
 20
-4.798799
  0
VERTEX
  8
PLAN_1
  6
CONTINUOUS
 10
1.465398
 20
-4.801268
  0
VERTEX
  8
PLAN_1
  6
CONTINUOUS
 10
1.469713
 20
-4.803732
  0
VERTEX
  8
PLAN_1
  6
CONTINUOUS
 10
1.472799
 20
-4.806819
  0
VERTEX
  8
PLAN_1
  6
CONTINUOUS
 10
1.475882
 20
-4.809902
  0
VERTEX
  8
PLAN_1
  6
CONTINUOUS
 10
1.478350
 20
-4.812370
  0
VERTEX
  8
PLAN_1
  6
CONTINUOUS
 10
1.480819
 20
-4.816071
  0
VERTEX
  8
PLAN_1
  6
CONTINUOUS
 10
1.482669
 20
-4.819157
  0
VERTEX
  8
PLAN_1
  6
CONTINUOUS
 10
1.485752
 20
-4.825323
  0
VERTEX
  8
PLAN_1
  6
CONTINUOUS
 10
1.487602
 20
-4.832110
  0
VERTEX
  8
PLAN_1
  6
CONTINUOUS
 10
1.488220
 20
-4.838280
  0
VERTEX
  8
PLAN_1
  6
CONTINUOUS
 10
1.488839
 20
-4.843831
  0
VERTEX
  8
PLAN_1
  6
CONTINUOUS
 10
1.488220
 20
-4.850000
  0
VERTEX
  8
PLAN_1
  6
CONTINUOUS
 10
1.487602
 20
-4.855551
  0
VERTEX
  8
PLAN_1
  6
CONTINUOUS
 10
1.486370
 20
-4.861720
  0
VERTEX
  8
PLAN_1
  6
CONTINUOUS
 10
1.484520
 20
-4.866657
  0
VERTEX
  8
PLAN_1
  6
CONTINUOUS
 10
1.482669
 20
-4.872209
  0
VERTEX
  8
PLAN_1
  6
CONTINUOUS
 10
1.479583
 20
-4.877142
  0
VERTEX
  8
PLAN_1
  6
CONTINUOUS
 10
1.476500
 20
-4.882079
  0
VERTEX
  8
PLAN_1
  6
CONTINUOUS
 10
1.472799
 20
-4.886398
  0
VERTEX
  8
PLAN_1
  6
CONTINUOUS
 10
1.468480
 20
-4.890713
  0
VERTEX
  8
PLAN_1
  6
CONTINUOUS
 10
1.463547
 20
-4.894417
  0
VERTEX
  8
PLAN_1
  6
CONTINUOUS
 10
1.457992
 20
-4.897500
  0
VERTEX
  8
PLAN_1
  6
CONTINUOUS
 10
1.452441
 20
-4.900583
  0
VERTEX
  8
PLAN_1
  6
CONTINUOUS
 10
1.445657
 20
-4.902437
  0
VERTEX
  8
PLAN_1
  6
CONTINUOUS
 10
1.438870
 20
-4.904287
  0
VERTEX
  8
PLAN_1
  6
CONTINUOUS
 10
1.430850
 20
-4.905520
  0
VERTEX
  8
PLAN_1
  6
CONTINUOUS
 10
1.422831
 20
-4.905520
  0
VERTEX
  8
PLAN_1
  6
CONTINUOUS
 10
1.417898
 20
-4.905520
  0
VERTEX
  8
PLAN_1
  6
CONTINUOUS
 10
1.412961
 20
-4.904902
  0
VERTEX
  8
PLAN_1
  6
CONTINUOUS
 10
1.406791
 20
-4.904287
  0
VERTEX
  8
PLAN_1
  6
CONTINUOUS
 10
1.400622
 20
-4.903051
  0
VERTEX
  8
PLAN_1
  6
CONTINUOUS
 10
1.394453
 20
-4.900583
  0
VERTEX
  8
PLAN_1
  6
CONTINUOUS
 10
1.388287
 20
-4.898118
  0
VERTEX
  8
PLAN_1
  6
CONTINUOUS
 10
1.381500
 20
-4.895031
  0
VERTEX
  8
PLAN_1
  6
CONTINUOUS
 10
1.375949
 20
-4.890713
  0
VERTEX
  8
PLAN_1
  6
CONTINUOUS
 10
1.372248
 20
-4.887630
  0
VERTEX
  8
PLAN_1
  6
CONTINUOUS
 10
1.369161
 20
-4.884547
  0
VERTEX
  8
PLAN_1
  6
CONTINUOUS
 10
1.366079
 20
-4.881461
  0
VERTEX
  8
PLAN_1
  6
CONTINUOUS
 10
1.364228
 20
-4.878378
  0
VERTEX
  8
PLAN_1
  6
CONTINUOUS
 10
1.360528
 20
-4.871591
  0
VERTEX
  8
PLAN_1
  6
CONTINUOUS
 10
1.358059
 20
-4.865421
  0
VERTEX
  8
PLAN_1
  6
CONTINUOUS
 10
1.356823
 20
-4.859252
  0
VERTEX
  8
PLAN_1
  6
CONTINUOUS
 10
1.356209
 20
-4.853083
  0
VERTEX
  8
PLAN_1
  6
CONTINUOUS
 10
1.355591
 20
-4.848150
  0
VERTEX
  8
PLAN_1
  6
CONTINUOUS
 10
1.355591
 20
-4.844449
  0
VERTEX
  8
PLAN_1
  6
CONTINUOUS
 10
1.356209
 20
-4.835811
  0
VERTEX
  8
PLAN_1
  6
CONTINUOUS
 10
1.358059
 20
-4.827791
  0
VERTEX
  8
PLAN_1
  6
CONTINUOUS
 10
1.359291
 20
-4.824709
  0
VERTEX
  8
PLAN_1
  6
CONTINUOUS
 10
1.360528
 20
-4.821008
  0
VERTEX
  8
PLAN_1
  6
CONTINUOUS
 10
1.362378
 20
-4.817921
  0
VERTEX
  8
PLAN_1
  6
CONTINUOUS
 10
1.364228
 20
-4.814839
  0
VERTEX
  8
PLAN_1
  6
CONTINUOUS
 10
1.369161
 20
-4.809287
  0
VERTEX
  8
PLAN_1
  6
CONTINUOUS
 10
1.374713
 20
-4.804350
  0
VERTEX
  8
PLAN_1
  6
CONTINUOUS
 10
1.381500
 20
-4.800650
  0
VERTEX
  8
PLAN_1
  6
CONTINUOUS
 10
1.388902
 20
-4.796949
  0
VERTEX
  8
PLAN_1
  6
CONTINUOUS
 10
1.382732
 20
-4.794480
  0
VERTEX
  8
PLAN_1
  6
CONTINUOUS
 10
1.377799
 20
-4.790780
  0
VERTEX
  8
PLAN_1
  6
CONTINUOUS
 10
1.372862
 20
-4.787079
  0
VERTEX
  8
PLAN_1
  6
CONTINUOUS
 10
1.369161
 20
-4.782142
  0
VERTEX
  8
PLAN_1
  6
CONTINUOUS
 10
1.366079
 20
-4.777209
  0
VERTEX
  8
PLAN_1
  6
CONTINUOUS
 10
1.364228
 20
-4.771657
  0
VERTEX
  8
PLAN_1
  6
CONTINUOUS
 10
1.362992
 20
-4.765488
  0
VERTEX
  8
PLAN_1
  6
CONTINUOUS
 10
1.362378
 20
-4.758701
  0
VERTEX
  8
PLAN_1
  6
CONTINUOUS
 10
1.362378
 20
-4.755000
  0
VERTEX
  8
PLAN_1
  6
CONTINUOUS
 10
1.362992
 20
-4.750681
  0
VERTEX
  8
PLAN_1
  6
CONTINUOUS
 10
1.363610
 20
-4.746362
  0
VERTEX
  8
PLAN_1
  6
CONTINUOUS
 10
1.364843
 20
-4.742047
  0
VERTEX
  8
PLAN_1
  6
CONTINUOUS
 10
1.366693
 20
-4.737728
  0
VERTEX
  8
PLAN_1
  6
CONTINUOUS
 10
1.368547
 20
-4.732791
  0
VERTEX
  8
PLAN_1
  6
CONTINUOUS
 10
1.371012
 20
-4.728472
  0
VERTEX
  8
PLAN_1
  6
CONTINUOUS
 10
1.374098
 20
-4.724772
  0
VERTEX
  8
PLAN_1
  6
CONTINUOUS
 10
1.377799
 20
-4.720453
  0
VERTEX
  8
PLAN_1
  6
CONTINUOUS
 10
1.382118
 20
-4.716752
  0
VERTEX
  8
PLAN_1
  6
CONTINUOUS
 10
1.387051
 20
-4.713669
  0
VERTEX
  8
PLAN_1
  6
CONTINUOUS
 10
1.392602
 20
-4.710583
  0
VERTEX
  8
PLAN_1
  6
CONTINUOUS
 10
1.398772
 20
-4.708732
  0
VERTEX
  8
PLAN_1
  6
CONTINUOUS
 10
1.405559
 20
-4.706882
  0
VERTEX
  8
PLAN_1
  6
CONTINUOUS
 10
1.412961
 20
-4.705650
  0
VERTEX
  8
PLAN_1
  6
CONTINUOUS
 10
1.421598
 20
-4.705031
  0
VERTEX
  8
PLAN_1
  6
CONTINUOUS
 10
1.429000
 20
-4.705650
  0
VERTEX
  8
PLAN_1
  6
CONTINUOUS
 10
1.436402
 20
-4.706268
  0
VERTEX
  8
PLAN_1
  6
CONTINUOUS
 10
1.443189
 20
-4.708118
  0
VERTEX
  8
PLAN_1
  6
CONTINUOUS
 10
1.449358
 20
-4.709969
  0
VERTEX
  8
PLAN_1
  6
CONTINUOUS
 10
1.454291
 20
-4.712437
  0
VERTEX
  8
PLAN_1
  6
CONTINUOUS
 10
1.459228
 20
-4.715520
  0
VERTEX
  8
PLAN_1
  6
CONTINUOUS
 10
1.464161
 20
-4.718602
  0
VERTEX
  8
PLAN_1
  6
CONTINUOUS
 10
1.467862
 20
-4.721689
  0
VERTEX
  8
PLAN_1
  6
CONTINUOUS
 10
1.470949
 20
-4.725390
  0
VERTEX
  8
PLAN_1
  6
CONTINUOUS
 10
1.474031
 20
-4.729709
  0
VERTEX
  8
PLAN_1
  6
CONTINUOUS
 10
1.476500
 20
-4.734028
  0
VERTEX
  8
PLAN_1
  6
CONTINUOUS
 10
1.478350
 20
-4.738343
  0
VERTEX
  8
PLAN_1
  6
CONTINUOUS
 10
1.479583
 20
-4.742661
  0
VERTEX
  8
PLAN_1
  6
CONTINUOUS
 10
1.480819
 20
-4.746980
  0
VERTEX
  8
PLAN_1
  6
CONTINUOUS
 10
1.481437
 20
-4.751299
  0
VERTEX
  8
PLAN_1
  6
CONTINUOUS
 10
1.481437
 20
-4.755618
  0
VERTEX
  8
PLAN_1
  6
CONTINUOUS
 10
1.481437
 20
-4.760551
  0
VERTEX
  8
PLAN_1
  6
CONTINUOUS
 10
1.480819
 20
-4.765488
  0
VERTEX
  8
PLAN_1
  6
CONTINUOUS
 10
1.480201
 20
-4.769189
  0
VERTEX
  8
PLAN_1
  6
CONTINUOUS
 10
1.478969
 20
-4.772890
  0
VERTEX
  8
PLAN_1
  6
CONTINUOUS
 10
1.475882
 20
-4.779677
  0
VERTEX
  8
PLAN_1
  6
CONTINUOUS
 10
1.472181
 20
-4.785228
  0
VERTEX
  8
PLAN_1
  6
CONTINUOUS
 10
1.468480
 20
-4.788929
  0
VERTEX
  8
PLAN_1
  6
CONTINUOUS
 10
1.464161
 20
-4.792012
  0
VERTEX
  8
PLAN_1
  6
CONTINUOUS
 10
1.460461
 20
-4.794480
  0
VERTEX
  8
PLAN_1
  6
CONTINUOUS
 10
1.456760
 20
-4.796949
  0
SEQEND
  8
0
  0
POLYLINE
  8
PLAN_1
  6
CONTINUOUS
 66
     1
 40
0.003000
 41
0.003000
  0
VERTEX
  8
PLAN_1
  6
CONTINUOUS
 10
1.381500
 20
-4.845063
  0
VERTEX
  8
PLAN_1
  6
CONTINUOUS
 10
1.382118
 20
-4.851232
  0
VERTEX
  8
PLAN_1
  6
CONTINUOUS
 10
1.383350
 20
-4.857402
  0
VERTEX
  8
PLAN_1
  6
CONTINUOUS
 10
1.384583
 20
-4.861102
  0
VERTEX
  8
PLAN_1
  6
CONTINUOUS
 10
1.385819
 20
-4.864189
  0
VERTEX
  8
PLAN_1
  6
CONTINUOUS
 10
1.387669
 20
-4.867272
  0
VERTEX
  8
PLAN_1
  6
CONTINUOUS
 10
1.390138
 20
-4.870358
  0
VERTEX
  8
PLAN_1
  6
CONTINUOUS
 10
1.392602
 20
-4.872823
  0
VERTEX
  8
PLAN_1
  6
CONTINUOUS
 10
1.395071
 20
-4.875909
  0
VERTEX
  8
PLAN_1
  6
CONTINUOUS
 10
1.398772
 20
-4.877760
  0
VERTEX
  8
PLAN_1
  6
CONTINUOUS
 10
1.402472
 20
-4.879610
  0
VERTEX
  8
PLAN_1
  6
CONTINUOUS
 10
1.406791
 20
-4.881461
  0
VERTEX
  8
PLAN_1
  6
CONTINUOUS
 10
1.411728
 20
-4.882693
  0
VERTEX
  8
PLAN_1
  6
CONTINUOUS
 10
1.417280
 20
-4.883311
  0
VERTEX
  8
PLAN_1
  6
CONTINUOUS
 10
1.423449
 20
-4.883929
  0
VERTEX
  8
PLAN_1
  6
CONTINUOUS
 10
1.430232
 20
-4.883311
  0
VERTEX
  8
PLAN_1
  6
CONTINUOUS
 10
1.437020
 20
-4.882079
  0
VERTEX
  8
PLAN_1
  6
CONTINUOUS
 10
1.440102
 20
-4.881461
  0
VERTEX
  8
PLAN_1
  6
CONTINUOUS
 10
1.443807
 20
-4.880228
  0
VERTEX
  8
PLAN_1
  6
CONTINUOUS
 10
1.446890
 20
-4.878378
  0
VERTEX
  8
PLAN_1
  6
CONTINUOUS
 10
1.449358
 20
-4.876528
  0
VERTEX
  8
PLAN_1
  6
CONTINUOUS
 10
1.452441
 20
-4.874677
  0
VERTEX
  8
PLAN_1
  6
CONTINUOUS
 10
1.454909
 20
-4.872209
  0
VERTEX
  8
PLAN_1
  6
CONTINUOUS
 10
1.456760
 20
-4.869122
  0
VERTEX
  8
PLAN_1
  6
CONTINUOUS
 10
1.458610
 20
-4.865421
  0
VERTEX
  8
PLAN_1
  6
CONTINUOUS
 10
1.460461
 20
-4.861720
  0
VERTEX
  8
PLAN_1
  6
CONTINUOUS
 10
1.461693
 20
-4.857402
  0
VERTEX
  8
PLAN_1
  6
CONTINUOUS
 10
1.462311
 20
-4.852469
  0
VERTEX
  8
PLAN_1
  6
CONTINUOUS
 10
1.462311
 20
-4.846917
  0
VERTEX
  8
PLAN_1
  6
CONTINUOUS
 10
1.462311
 20
-4.841980
  0
VERTEX
  8
PLAN_1
  6
CONTINUOUS
 10
1.461693
 20
-4.837661
  0
VERTEX
  8
PLAN_1
  6
CONTINUOUS
 10
1.460461
 20
-4.833343
  0
VERTEX
  8
PLAN_1
  6
CONTINUOUS
 10
1.459228
 20
-4.829642
  0
VERTEX
  8
PLAN_1
  6
CONTINUOUS
 10
1.457378
 20
-4.826559
  0
VERTEX
  8
PLAN_1
  6
CONTINUOUS
 10
1.455528
 20
-4.823472
  0
VERTEX
  8
PLAN_1
  6
CONTINUOUS
 10
1.453059
 20
-4.820390
  0
VERTEX
  8
PLAN_1
  6
CONTINUOUS
 10
1.450591
 20
-4.817921
  0
VERTEX
  8
PLAN_1
  6
CONTINUOUS
 10
1.447508
 20
-4.816071
  0
VERTEX
  8
PLAN_1
  6
CONTINUOUS
 10
1.444421
 20
-4.814220
  0
VERTEX
  8
PLAN_1
  6
CONTINUOUS
 10
1.441339
 20
-4.812370
  0
VERTEX
  8
PLAN_1
  6
CONTINUOUS
 10
1.437638
 20
-4.811138
  0
VERTEX
  8
PLAN_1
  6
CONTINUOUS
 10
1.430232
 20
-4.809287
  0
VERTEX
  8
PLAN_1
  6
CONTINUOUS
 10
1.422213
 20
-4.808669
  0
VERTEX
  8
PLAN_1
  6
CONTINUOUS
 10
1.417280
 20
-4.809287
  0
VERTEX
  8
PLAN_1
  6
CONTINUOUS
 10
1.412343
 20
-4.809902
  0
VERTEX
  8
PLAN_1
  6
CONTINUOUS
 10
1.408028
 20
-4.810520
  0
VERTEX
  8
PLAN_1
  6
CONTINUOUS
 10
1.404323
 20
-4.811752
  0
VERTEX
  8
PLAN_1
  6
CONTINUOUS
 10
1.400622
 20
-4.813602
  0
VERTEX
  8
PLAN_1
  6
CONTINUOUS
 10
1.396921
 20
-4.815453
  0
VERTEX
  8
PLAN_1
  6
CONTINUOUS
 10
1.394453
 20
-4.817921
  0
VERTEX
  8
PLAN_1
  6
CONTINUOUS
 10
1.391370
 20
-4.820390
  0
VERTEX
  8
PLAN_1
  6
CONTINUOUS
 10
1.389520
 20
-4.822858
  0
VERTEX
  8
PLAN_1
  6
CONTINUOUS
 10
1.387051
 20
-4.825323
  0
VERTEX
  8
PLAN_1
  6
CONTINUOUS
 10
1.385819
 20
-4.828409
  0
VERTEX
  8
PLAN_1
  6
CONTINUOUS
 10
1.383969
 20
-4.831492
  0
VERTEX
  8
PLAN_1
  6
CONTINUOUS
 10
1.383350
 20
-4.835193
  0
VERTEX
  8
PLAN_1
  6
CONTINUOUS
 10
1.382118
 20
-4.838280
  0
VERTEX
  8
PLAN_1
  6
CONTINUOUS
 10
1.382118
 20
-4.841362
  0
VERTEX
  8
PLAN_1
  6
CONTINUOUS
 10
1.381500
 20
-4.845063
  0
SEQEND
  8
0
  0
POLYLINE
  8
PLAN_1
  6
CONTINUOUS
 66
     1
 40
0.003000
 41
0.003000
  0
VERTEX
  8
PLAN_1
  6
CONTINUOUS
 10
1.456142
 20
-4.756232
  0
VERTEX
  8
PLAN_1
  6
CONTINUOUS
 10
1.456142
 20
-4.751917
  0
VERTEX
  8
PLAN_1
  6
CONTINUOUS
 10
1.454909
 20
-4.746980
  0
VERTEX
  8
PLAN_1
  6
CONTINUOUS
 10
1.452441
 20
-4.742047
  0
VERTEX
  8
PLAN_1
  6
CONTINUOUS
 10
1.448740
 20
-4.737110
  0
VERTEX
  8
PLAN_1
  6
CONTINUOUS
 10
1.446890
 20
-4.735260
  0
VERTEX
  8
PLAN_1
  6
CONTINUOUS
 10
1.444421
 20
-4.733409
  0
VERTEX
  8
PLAN_1
  6
CONTINUOUS
 10
1.441339
 20
-4.731559
  0
VERTEX
  8
PLAN_1
  6
CONTINUOUS
 10
1.437638
 20
-4.730323
  0
VERTEX
  8
PLAN_1
  6
CONTINUOUS
 10
1.433937
 20
-4.729091
  0
VERTEX
  8
PLAN_1
  6
CONTINUOUS
 10
1.429618
 20
-4.727858
  0
VERTEX
  8
PLAN_1
  6
CONTINUOUS
 10
1.425299
 20
-4.727240
  0
VERTEX
  8
PLAN_1
  6
CONTINUOUS
 10
1.420362
 20
-4.727240
  0
VERTEX
  8
PLAN_1
  6
CONTINUOUS
 10
1.415429
 20
-4.727240
  0
VERTEX
  8
PLAN_1
  6
CONTINUOUS
 10
1.411110
 20
-4.727858
  0
VERTEX
  8
PLAN_1
  6
CONTINUOUS
 10
1.407409
 20
-4.729091
  0
VERTEX
  8
PLAN_1
  6
CONTINUOUS
 10
1.403709
 20
-4.730323
  0
VERTEX
  8
PLAN_1
  6
CONTINUOUS
 10
1.401240
 20
-4.731559
  0
VERTEX
  8
PLAN_1
  6
CONTINUOUS
 10
1.398157
 20
-4.733409
  0
VERTEX
  8
PLAN_1
  6
CONTINUOUS
 10
1.396307
 20
-4.735878
  0
VERTEX
  8
PLAN_1
  6
CONTINUOUS
 10
1.393839
 20
-4.737728
  0
VERTEX
  8
PLAN_1
  6
CONTINUOUS
 10
1.390752
 20
-4.742661
  0
VERTEX
  8
PLAN_1
  6
CONTINUOUS
 10
1.388902
 20
-4.747598
  0
VERTEX
  8
PLAN_1
  6
CONTINUOUS
 10
1.387669
 20
-4.753150
  0
VERTEX
  8
PLAN_1
  6
CONTINUOUS
 10
1.387669
 20
-4.758083
  0
VERTEX
  8
PLAN_1
  6
CONTINUOUS
 10
1.387669
 20
-4.761169
  0
VERTEX
  8
PLAN_1
  6
CONTINUOUS
 10
1.388287
 20
-4.764252
  0
VERTEX
  8
PLAN_1
  6
CONTINUOUS
 10
1.389520
 20
-4.767339
  0
VERTEX
  8
PLAN_1
  6
CONTINUOUS
 10
1.390138
 20
-4.770421
  0
VERTEX
  8
PLAN_1
  6
CONTINUOUS
 10
1.391988
 20
-4.772890
  0
VERTEX
  8
PLAN_1
  6
CONTINUOUS
 10
1.393839
 20
-4.775358
  0
VERTEX
  8
PLAN_1
  6
CONTINUOUS
 10
1.395689
 20
-4.777823
  0
VERTEX
  8
PLAN_1
  6
CONTINUOUS
 10
1.398157
 20
-4.779677
  0
VERTEX
  8
PLAN_1
  6
CONTINUOUS
 10
1.403091
 20
-4.783378
  0
VERTEX
  8
PLAN_1
  6
CONTINUOUS
 10
1.408642
 20
-4.785843
  0
VERTEX
  8
PLAN_1
  6
CONTINUOUS
 10
1.415429
 20
-4.787079
  0
VERTEX
  8
PLAN_1
  6
CONTINUOUS
 10
1.421598
 20
-4.787693
  0
VERTEX
  8
PLAN_1
  6
CONTINUOUS
 10
1.425299
 20
-4.787693
  0
VERTEX
  8
PLAN_1
  6
CONTINUOUS
 10
1.429000
 20
-4.787079
  0
VERTEX
  8
PLAN_1
  6
CONTINUOUS
 10
1.432701
 20
-4.786461
  0
VERTEX
  8
PLAN_1
  6
CONTINUOUS
 10
1.435787
 20
-4.785228
  0
VERTEX
  8
PLAN_1
  6
CONTINUOUS
 10
1.438870
 20
-4.783992
  0
VERTEX
  8
PLAN_1
  6
CONTINUOUS
 10
1.441953
 20
-4.782760
  0
VERTEX
  8
PLAN_1
  6
CONTINUOUS
 10
1.444421
 20
-4.780909
  0
VERTEX
  8
PLAN_1
  6
CONTINUOUS
 10
1.446890
 20
-4.778441
  0
VERTEX
  8
PLAN_1
  6
CONTINUOUS
 10
1.449358
 20
-4.776591
  0
VERTEX
  8
PLAN_1
  6
CONTINUOUS
 10
1.451209
 20
-4.774122
  0
VERTEX
  8
PLAN_1
  6
CONTINUOUS
 10
1.452441
 20
-4.771657
  0
VERTEX
  8
PLAN_1
  6
CONTINUOUS
 10
1.453677
 20
-4.768571
  0
VERTEX
  8
PLAN_1
  6
CONTINUOUS
 10
1.454909
 20
-4.766102
  0
VERTEX
  8
PLAN_1
  6
CONTINUOUS
 10
1.455528
 20
-4.763020
  0
VERTEX
  8
PLAN_1
  6
CONTINUOUS
 10
1.456142
 20
-4.759937
  0
VERTEX
  8
PLAN_1
  6
CONTINUOUS
 10
1.456142
 20
-4.756232
  0
SEQEND
  8
0
  0
SOLID
  8
PLAN_1
 10
1.499323
 20
-4.935130
 11
1.499323
 21
-4.921559
 12
1.653547
 22
-4.935130
 13
1.653547
 23
-4.921559
  0
POLYLINE
  8
PLAN_1
  6
CONTINUOUS
 66
     1
 40
0.003000
 41
0.003000
  0
VERTEX
  8
PLAN_1
  6
CONTINUOUS
 10
1.499323
 20
-4.935130
  0
VERTEX
  8
PLAN_1
  6
CONTINUOUS
 10
1.499323
 20
-4.921559
  0
VERTEX
  8
PLAN_1
  6
CONTINUOUS
 10
1.653547
 20
-4.921559
  0
VERTEX
  8
PLAN_1
  6
CONTINUOUS
 10
1.653547
 20
-4.935130
  0
VERTEX
  8
PLAN_1
  6
CONTINUOUS
 10
1.499323
 20
-4.935130
  0
SEQEND
  8
0
  0
POLYLINE
  8
PLAN_1
  6
CONTINUOUS
 66
     1
 40
0.003000
 41
0.003000
  0
VERTEX
  8
PLAN_1
  6
CONTINUOUS
 10
1.705362
 20
-4.900583
  0
VERTEX
  8
PLAN_1
  6
CONTINUOUS
 10
1.678220
 20
-4.900583
  0
VERTEX
  8
PLAN_1
  6
CONTINUOUS
 10
1.678220
 20
-4.701331
  0
VERTEX
  8
PLAN_1
  6
CONTINUOUS
 10
1.770138
 20
-4.701331
  0
VERTEX
  8
PLAN_1
  6
CONTINUOUS
 10
1.776307
 20
-4.701331
  0
VERTEX
  8
PLAN_1
  6
CONTINUOUS
 10
1.782472
 20
-4.701949
  0
VERTEX
  8
PLAN_1
  6
CONTINUOUS
 10
1.788642
 20
-4.702563
  0
VERTEX
  8
PLAN_1
  6
CONTINUOUS
 10
1.794193
 20
-4.703799
  0
VERTEX
  8
PLAN_1
  6
CONTINUOUS
 10
1.800362
 20
-4.705031
  0
VERTEX
  8
PLAN_1
  6
CONTINUOUS
 10
1.805299
 20
-4.706882
  0
VERTEX
  8
PLAN_1
  6
CONTINUOUS
 10
1.810850
 20
-4.709350
  0
VERTEX
  8
PLAN_1
  6
CONTINUOUS
 10
1.815169
 20
-4.712437
  0
VERTEX
  8
PLAN_1
  6
CONTINUOUS
 10
1.820102
 20
-4.715520
  0
VERTEX
  8
PLAN_1
  6
CONTINUOUS
 10
1.823807
 20
-4.719220
  0
VERTEX
  8
PLAN_1
  6
CONTINUOUS
 10
1.827508
 20
-4.723539
  0
VERTEX
  8
PLAN_1
  6
CONTINUOUS
 10
1.830591
 20
-4.728472
  0
VERTEX
  8
PLAN_1
  6
CONTINUOUS
 10
1.832441
 20
-4.734028
  0
VERTEX
  8
PLAN_1
  6
CONTINUOUS
 10
1.834291
 20
-4.740193
  0
VERTEX
  8
PLAN_1
  6
CONTINUOUS
 10
1.835528
 20
-4.746980
  0
VERTEX
  8
PLAN_1
  6
CONTINUOUS
 10
1.836142
 20
-4.755000
  0
VERTEX
  8
PLAN_1
  6
CONTINUOUS
 10
1.835528
 20
-4.759937
  0
VERTEX
  8
PLAN_1
  6
CONTINUOUS
 10
1.835528
 20
-4.764870
  0
VERTEX
  8
PLAN_1
  6
CONTINUOUS
 10
1.834291
 20
-4.769189
  0
VERTEX
  8
PLAN_1
  6
CONTINUOUS
 10
1.833677
 20
-4.773508
  0
VERTEX
  8
PLAN_1
  6
CONTINUOUS
 10
1.831823
 20
-4.777209
  0
VERTEX
  8
PLAN_1
  6
CONTINUOUS
 10
1.830591
 20
-4.780909
  0
VERTEX
  8
PLAN_1
  6
CONTINUOUS
 10
1.828740
 20
-4.783992
  0
VERTEX
  8
PLAN_1
  6
CONTINUOUS
 10
1.826890
 20
-4.787079
  0
VERTEX
  8
PLAN_1
  6
CONTINUOUS
 10
1.822571
 20
-4.792012
  0
VERTEX
  8
PLAN_1
  6
CONTINUOUS
 10
1.817638
 20
-4.795713
  0
VERTEX
  8
PLAN_1
  6
CONTINUOUS
 10
1.813319
 20
-4.799417
  0
VERTEX
  8
PLAN_1
  6
CONTINUOUS
 10
1.808382
 20
-4.802500
  0
VERTEX
  8
PLAN_1
  6
CONTINUOUS
 10
1.812701
 20
-4.804350
  0
VERTEX
  8
PLAN_1
  6
CONTINUOUS
 10
1.816402
 20
-4.806201
  0
VERTEX
  8
PLAN_1
  6
CONTINUOUS
 10
1.820720
 20
-4.809287
  0
VERTEX
  8
PLAN_1
  6
CONTINUOUS
 10
1.823807
 20
-4.812370
  0
VERTEX
  8
PLAN_1
  6
CONTINUOUS
 10
1.826890
 20
-4.817307
  0
VERTEX
  8
PLAN_1
  6
CONTINUOUS
 10
1.829358
 20
-4.822858
  0
VERTEX
  8
PLAN_1
  6
CONTINUOUS
 10
1.831209
 20
-4.830260
  0
VERTEX
  8
PLAN_1
  6
CONTINUOUS
 10
1.831823
 20
-4.840130
  0
VERTEX
  8
PLAN_1
  6
CONTINUOUS
 10
1.833677
 20
-4.875909
  0
VERTEX
  8
PLAN_1
  6
CONTINUOUS
 10
1.833677
 20
-4.879610
  0
VERTEX
  8
PLAN_1
  6
CONTINUOUS
 10
1.834291
 20
-4.883311
  0
VERTEX
  8
PLAN_1
  6
CONTINUOUS
 10
1.834909
 20
-4.885780
  0
VERTEX
  8
PLAN_1
  6
CONTINUOUS
 10
1.835528
 20
-4.888248
  0
VERTEX
  8
PLAN_1
  6
CONTINUOUS
 10
1.836760
 20
-4.890713
  0
VERTEX
  8
PLAN_1
  6
CONTINUOUS
 10
1.838610
 20
-4.892563
  0
VERTEX
  8
PLAN_1
  6
CONTINUOUS
 10
1.841079
 20
-4.894417
  0
VERTEX
  8
PLAN_1
  6
CONTINUOUS
 10
1.843547
 20
-4.896268
  0
VERTEX
  8
PLAN_1
  6
CONTINUOUS
 10
1.843547
 20
-4.900583
  0
VERTEX
  8
PLAN_1
  6
CONTINUOUS
 10
1.810850
 20
-4.900583
  0
VERTEX
  8
PLAN_1
  6
CONTINUOUS
 10
1.809618
 20
-4.895031
  0
VERTEX
  8
PLAN_1
  6
CONTINUOUS
 10
1.808382
 20
-4.888248
  0
VERTEX
  8
PLAN_1
  6
CONTINUOUS
 10
1.807768
 20
-4.881461
  0
VERTEX
  8
PLAN_1
  6
CONTINUOUS
 10
1.807150
 20
-4.873441
  0
VERTEX
  8
PLAN_1
  6
CONTINUOUS
 10
1.806531
 20
-4.866657
  0
VERTEX
  8
PLAN_1
  6
CONTINUOUS
 10
1.805917
 20
-4.859870
  0
VERTEX
  8
PLAN_1
  6
CONTINUOUS
 10
1.805917
 20
-4.854319
  0
VERTEX
  8
PLAN_1
  6
CONTINUOUS
 10
1.805917
 20
-4.850618
  0
VERTEX
  8
PLAN_1
  6
CONTINUOUS
 10
1.805917
 20
-4.844449
  0
VERTEX
  8
PLAN_1
  6
CONTINUOUS
 10
1.804681
 20
-4.838280
  0
VERTEX
  8
PLAN_1
  6
CONTINUOUS
 10
1.804063
 20
-4.835193
  0
VERTEX
  8
PLAN_1
  6
CONTINUOUS
 10
1.803449
 20
-4.832110
  0
VERTEX
  8
PLAN_1
  6
CONTINUOUS
 10
1.801598
 20
-4.829028
  0
VERTEX
  8
PLAN_1
  6
CONTINUOUS
 10
1.800362
 20
-4.826559
  0
VERTEX
  8
PLAN_1
  6
CONTINUOUS
 10
1.798512
 20
-4.824091
  0
VERTEX
  8
PLAN_1
  6
CONTINUOUS
 10
1.796047
 20
-4.821622
  0
VERTEX
  8
PLAN_1
  6
CONTINUOUS
 10
1.792961
 20
-4.819772
  0
VERTEX
  8
PLAN_1
  6
CONTINUOUS
 10
1.789260
 20
-4.817921
  0
VERTEX
  8
PLAN_1
  6
CONTINUOUS
 10
1.785559
 20
-4.816689
  0
VERTEX
  8
PLAN_1
  6
CONTINUOUS
 10
1.781240
 20
-4.816071
  0
VERTEX
  8
PLAN_1
  6
CONTINUOUS
 10
1.776307
 20
-4.815453
  0
VERTEX
  8
PLAN_1
  6
CONTINUOUS
 10
1.770138
 20
-4.814839
  0
VERTEX
  8
PLAN_1
  6
CONTINUOUS
 10
1.705362
 20
-4.814839
  0
VERTEX
  8
PLAN_1
  6
CONTINUOUS
 10
1.705362
 20
-4.900583
  0
SEQEND
  8
0
  0
POLYLINE
  8
PLAN_1
  6
CONTINUOUS
 66
     1
 40
0.003000
 41
0.003000
  0
VERTEX
  8
PLAN_1
  6
CONTINUOUS
 10
1.705362
 20
-4.792012
  0
VERTEX
  8
PLAN_1
  6
CONTINUOUS
 10
1.767669
 20
-4.792012
  0
VERTEX
  8
PLAN_1
  6
CONTINUOUS
 10
1.775071
 20
-4.791398
  0
VERTEX
  8
PLAN_1
  6
CONTINUOUS
 10
1.782472
 20
-4.790780
  0
VERTEX
  8
PLAN_1
  6
CONTINUOUS
 10
1.785559
 20
-4.790161
  0
VERTEX
  8
PLAN_1
  6
CONTINUOUS
 10
1.789260
 20
-4.788929
  0
VERTEX
  8
PLAN_1
  6
CONTINUOUS
 10
1.792343
 20
-4.787693
  0
VERTEX
  8
PLAN_1
  6
CONTINUOUS
 10
1.795429
 20
-4.785843
  0
VERTEX
  8
PLAN_1
  6
CONTINUOUS
 10
1.797898
 20
-4.783992
  0
VERTEX
  8
PLAN_1
  6
CONTINUOUS
 10
1.800362
 20
-4.781528
  0
VERTEX
  8
PLAN_1
  6
CONTINUOUS
 10
1.802831
 20
-4.778441
  0
VERTEX
  8
PLAN_1
  6
CONTINUOUS
 10
1.804681
 20
-4.775358
  0
VERTEX
  8
PLAN_1
  6
CONTINUOUS
 10
1.805917
 20
-4.771657
  0
VERTEX
  8
PLAN_1
  6
CONTINUOUS
 10
1.807150
 20
-4.767339
  0
VERTEX
  8
PLAN_1
  6
CONTINUOUS
 10
1.807768
 20
-4.763020
  0
VERTEX
  8
PLAN_1
  6
CONTINUOUS
 10
1.808382
 20
-4.757469
  0
VERTEX
  8
PLAN_1
  6
CONTINUOUS
 10
1.807768
 20
-4.751917
  0
VERTEX
  8
PLAN_1
  6
CONTINUOUS
 10
1.807150
 20
-4.746980
  0
VERTEX
  8
PLAN_1
  6
CONTINUOUS
 10
1.805917
 20
-4.743280
  0
VERTEX
  8
PLAN_1
  6
CONTINUOUS
 10
1.804681
 20
-4.739579
  0
VERTEX
  8
PLAN_1
  6
CONTINUOUS
 10
1.802831
 20
-4.735878
  0
VERTEX
  8
PLAN_1
  6
CONTINUOUS
 10
1.800362
 20
-4.733409
  0
VERTEX
  8
PLAN_1
  6
CONTINUOUS
 10
1.797898
 20
-4.730941
  0
VERTEX
  8
PLAN_1
  6
CONTINUOUS
 10
1.795429
 20
-4.729091
  0
VERTEX
  8
PLAN_1
  6
CONTINUOUS
 10
1.789260
 20
-4.726622
  0
VERTEX
  8
PLAN_1
  6
CONTINUOUS
 10
1.783709
 20
-4.724772
  0
VERTEX
  8
PLAN_1
  6
CONTINUOUS
 10
1.777539
 20
-4.724157
  0
VERTEX
  8
PLAN_1
  6
CONTINUOUS
 10
1.772602
 20
-4.724157
  0
VERTEX
  8
PLAN_1
  6
CONTINUOUS
 10
1.705362
 20
-4.724157
  0
VERTEX
  8
PLAN_1
  6
CONTINUOUS
 10
1.705362
 20
-4.792012
  0
SEQEND
  8
0
  0
SOLID
  8
PLAN_1
 10
1.907083
 20
-4.900583
 11
1.878709
 21
-4.900583
 12
1.907083
 22
-4.870972
 13
1.878709
 23
-4.870972
  0
POLYLINE
  8
PLAN_1
  6
CONTINUOUS
 66
     1
 40
0.003000
 41
0.003000
  0
VERTEX
  8
PLAN_1
  6
CONTINUOUS
 10
1.907083
 20
-4.900583
  0
VERTEX
  8
PLAN_1
  6
CONTINUOUS
 10
1.878709
 20
-4.900583
  0
VERTEX
  8
PLAN_1
  6
CONTINUOUS
 10
1.878709
 20
-4.870972
  0
VERTEX
  8
PLAN_1
  6
CONTINUOUS
 10
1.907083
 20
-4.870972
  0
VERTEX
  8
PLAN_1
  6
CONTINUOUS
 10
1.907083
 20
-4.900583
  0
SEQEND
  8
0
  0
POLYLINE
  8
PLAN_1
  6
CONTINUOUS
 66
     1
 40
0.003000
 41
0.003000
  0
VERTEX
  8
PLAN_1
  6
CONTINUOUS
 10
2.102638
 20
-4.900583
  0
VERTEX
  8
PLAN_1
  6
CONTINUOUS
 10
1.955201
 20
-4.900583
  0
VERTEX
  8
PLAN_1
  6
CONTINUOUS
 10
1.955201
 20
-4.701331
  0
VERTEX
  8
PLAN_1
  6
CONTINUOUS
 10
2.100787
 20
-4.701331
  0
VERTEX
  8
PLAN_1
  6
CONTINUOUS
 10
2.100787
 20
-4.724772
  0
VERTEX
  8
PLAN_1
  6
CONTINUOUS
 10
1.982343
 20
-4.724772
  0
VERTEX
  8
PLAN_1
  6
CONTINUOUS
 10
1.982343
 20
-4.785843
  0
VERTEX
  8
PLAN_1
  6
CONTINUOUS
 10
2.091531
 20
-4.785843
  0
VERTEX
  8
PLAN_1
  6
CONTINUOUS
 10
2.091531
 20
-4.809902
  0
VERTEX
  8
PLAN_1
  6
CONTINUOUS
 10
1.982343
 20
-4.809902
  0
VERTEX
  8
PLAN_1
  6
CONTINUOUS
 10
1.982343
 20
-4.876528
  0
VERTEX
  8
PLAN_1
  6
CONTINUOUS
 10
2.102638
 20
-4.876528
  0
VERTEX
  8
PLAN_1
  6
CONTINUOUS
 10
2.102638
 20
-4.900583
  0
SEQEND
  8
0
  0
POLYLINE
  8
PLAN_1
  6
CONTINUOUS
 66
     1
 40
0.003000
 41
0.003000
  0
VERTEX
  8
PLAN_1
  6
CONTINUOUS
 10
2.167409
 20
-4.900583
  0
VERTEX
  8
PLAN_1
  6
CONTINUOUS
 10
2.140268
 20
-4.900583
  0
VERTEX
  8
PLAN_1
  6
CONTINUOUS
 10
2.140268
 20
-4.701331
  0
VERTEX
  8
PLAN_1
  6
CONTINUOUS
 10
2.230331
 20
-4.701331
  0
VERTEX
  8
PLAN_1
  6
CONTINUOUS
 10
2.237118
 20
-4.701331
  0
VERTEX
  8
PLAN_1
  6
CONTINUOUS
 10
2.243287
 20
-4.702563
  0
VERTEX
  8
PLAN_1
  6
CONTINUOUS
 10
2.249453
 20
-4.703799
  0
VERTEX
  8
PLAN_1
  6
CONTINUOUS
 10
2.255008
 20
-4.705650
  0
VERTEX
  8
PLAN_1
  6
CONTINUOUS
 10
2.260559
 20
-4.707500
  0
VERTEX
  8
PLAN_1
  6
CONTINUOUS
 10
2.264878
 20
-4.710583
  0
VERTEX
  8
PLAN_1
  6
CONTINUOUS
 10
2.269811
 20
-4.713669
  0
VERTEX
  8
PLAN_1
  6
CONTINUOUS
 10
2.273512
 20
-4.717370
  0
VERTEX
  8
PLAN_1
  6
CONTINUOUS
 10
2.277213
 20
-4.721071
  0
VERTEX
  8
PLAN_1
  6
CONTINUOUS
 10
2.280299
 20
-4.725390
  0
VERTEX
  8
PLAN_1
  6
CONTINUOUS
 10
2.282768
 20
-4.729709
  0
VERTEX
  8
PLAN_1
  6
CONTINUOUS
 10
2.285232
 20
-4.734642
  0
VERTEX
  8
PLAN_1
  6
CONTINUOUS
 10
2.287083
 20
-4.740193
  0
VERTEX
  8
PLAN_1
  6
CONTINUOUS
 10
2.288319
 20
-4.745748
  0
VERTEX
  8
PLAN_1
  6
CONTINUOUS
 10
2.288937
 20
-4.751299
  0
VERTEX
  8
PLAN_1
  6
CONTINUOUS
 10
2.289551
 20
-4.757469
  0
VERTEX
  8
PLAN_1
  6
CONTINUOUS
 10
2.288937
 20
-4.762402
  0
VERTEX
  8
PLAN_1
  6
CONTINUOUS
 10
2.288319
 20
-4.767953
  0
VERTEX
  8
PLAN_1
  6
CONTINUOUS
 10
2.287701
 20
-4.772890
  0
VERTEX
  8
PLAN_1
  6
CONTINUOUS
 10
2.286469
 20
-4.778441
  0
VERTEX
  8
PLAN_1
  6
CONTINUOUS
 10
2.284618
 20
-4.783378
  0
VERTEX
  8
PLAN_1
  6
CONTINUOUS
 10
2.282150
 20
-4.788311
  0
VERTEX
  8
PLAN_1
  6
CONTINUOUS
 10
2.279063
 20
-4.792630
  0
VERTEX
  8
PLAN_1
  6
CONTINUOUS
 10
2.275980
 20
-4.796949
  0
VERTEX
  8
PLAN_1
  6
CONTINUOUS
 10
2.272280
 20
-4.801268
  0
VERTEX
  8
PLAN_1
  6
CONTINUOUS
 10
2.267961
 20
-4.804969
  0
VERTEX
  8
PLAN_1
  6
CONTINUOUS
 10
2.263028
 20
-4.808051
  0
VERTEX
  8
PLAN_1
  6
CONTINUOUS
 10
2.257472
 20
-4.811138
  0
VERTEX
  8
PLAN_1
  6
CONTINUOUS
 10
2.251921
 20
-4.812988
  0
VERTEX
  8
PLAN_1
  6
CONTINUOUS
 10
2.245138
 20
-4.814839
  0
VERTEX
  8
PLAN_1
  6
CONTINUOUS
 10
2.237732
 20
-4.816071
  0
VERTEX
  8
PLAN_1
  6
CONTINUOUS
 10
2.230331
 20
-4.816071
  0
VERTEX
  8
PLAN_1
  6
CONTINUOUS
 10
2.167409
 20
-4.816071
  0
VERTEX
  8
PLAN_1
  6
CONTINUOUS
 10
2.167409
 20
-4.900583
  0
SEQEND
  8
0
  0
POLYLINE
  8
PLAN_1
  6
CONTINUOUS
 66
     1
 40
0.003000
 41
0.003000
  0
VERTEX
  8
PLAN_1
  6
CONTINUOUS
 10
2.167409
 20
-4.793248
  0
VERTEX
  8
PLAN_1
  6
CONTINUOUS
 10
2.221079
 20
-4.793248
  0
VERTEX
  8
PLAN_1
  6
CONTINUOUS
 10
2.229713
 20
-4.792630
  0
VERTEX
  8
PLAN_1
  6
CONTINUOUS
 10
2.237732
 20
-4.791398
  0
VERTEX
  8
PLAN_1
  6
CONTINUOUS
 10
2.241437
 20
-4.790161
  0
VERTEX
  8
PLAN_1
  6
CONTINUOUS
 10
2.244520
 20
-4.788929
  0
VERTEX
  8
PLAN_1
  6
CONTINUOUS
 10
2.247602
 20
-4.787693
  0
VERTEX
  8
PLAN_1
  6
CONTINUOUS
 10
2.250071
 20
-4.785228
  0
VERTEX
  8
PLAN_1
  6
CONTINUOUS
 10
2.253157
 20
-4.783378
  0
VERTEX
  8
PLAN_1
  6
CONTINUOUS
 10
2.255008
 20
-4.780909
  0
VERTEX
  8
PLAN_1
  6
CONTINUOUS
 10
2.256858
 20
-4.777823
  0
VERTEX
  8
PLAN_1
  6
CONTINUOUS
 10
2.258709
 20
-4.774740
  0
VERTEX
  8
PLAN_1
  6
CONTINUOUS
 10
2.259941
 20
-4.771039
  0
VERTEX
  8
PLAN_1
  6
CONTINUOUS
 10
2.260559
 20
-4.766720
  0
VERTEX
  8
PLAN_1
  6
CONTINUOUS
 10
2.261177
 20
-4.762402
  0
VERTEX
  8
PLAN_1
  6
CONTINUOUS
 10
2.261791
 20
-4.757469
  0
VERTEX
  8
PLAN_1
  6
CONTINUOUS
 10
2.261177
 20
-4.753150
  0
VERTEX
  8
PLAN_1
  6
CONTINUOUS
 10
2.260559
 20
-4.748831
  0
VERTEX
  8
PLAN_1
  6
CONTINUOUS
 10
2.259941
 20
-4.745130
  0
VERTEX
  8
PLAN_1
  6
CONTINUOUS
 10
2.258709
 20
-4.741429
  0
VERTEX
  8
PLAN_1
  6
CONTINUOUS
 10
2.256858
 20
-4.738343
  0
VERTEX
  8
PLAN_1
  6
CONTINUOUS
 10
2.255008
 20
-4.735878
  0
VERTEX
  8
PLAN_1
  6
CONTINUOUS
 10
2.252539
 20
-4.733409
  0
VERTEX
  8
PLAN_1
  6
CONTINUOUS
 10
2.250071
 20
-4.731559
  0
VERTEX
  8
PLAN_1
  6
CONTINUOUS
 10
2.247602
 20
-4.729709
  0
VERTEX
  8
PLAN_1
  6
CONTINUOUS
 10
2.244520
 20
-4.727858
  0
VERTEX
  8
PLAN_1
  6
CONTINUOUS
 10
2.241437
 20
-4.726622
  0
VERTEX
  8
PLAN_1
  6
CONTINUOUS
 10
2.237732
 20
-4.726008
  0
VERTEX
  8
PLAN_1
  6
CONTINUOUS
 10
2.230331
 20
-4.724772
  0
VERTEX
  8
PLAN_1
  6
CONTINUOUS
 10
2.222311
 20
-4.724157
  0
VERTEX
  8
PLAN_1
  6
CONTINUOUS
 10
2.167409
 20
-4.724157
  0
VERTEX
  8
PLAN_1
  6
CONTINUOUS
 10
2.167409
 20
-4.793248
  0
SEQEND
  8
0
  0
POLYLINE
  8
PLAN_1
  6
CONTINUOUS
 66
     1
 40
0.003000
 41
0.003000
  0
VERTEX
  8
PLAN_1
  6
CONTINUOUS
 10
2.443157
 20
-4.759319
  0
VERTEX
  8
PLAN_1
  6
CONTINUOUS
 10
2.442539
 20
-4.753768
  0
VERTEX
  8
PLAN_1
  6
CONTINUOUS
 10
2.441307
 20
-4.748831
  0
VERTEX
  8
PLAN_1
  6
CONTINUOUS
 10
2.440071
 20
-4.744512
  0
VERTEX
  8
PLAN_1
  6
CONTINUOUS
 10
2.438220
 20
-4.740193
  0
VERTEX
  8
PLAN_1
  6
CONTINUOUS
 10
2.435752
 20
-4.736492
  0
VERTEX
  8
PLAN_1
  6
CONTINUOUS
 10
2.432669
 20
-4.733409
  0
VERTEX
  8
PLAN_1
  6
CONTINUOUS
 10
2.429583
 20
-4.730323
  0
VERTEX
  8
PLAN_1
  6
CONTINUOUS
 10
2.426500
 20
-4.727858
  0
VERTEX
  8
PLAN_1
  6
CONTINUOUS
 10
2.422799
 20
-4.725390
  0
VERTEX
  8
PLAN_1
  6
CONTINUOUS
 10
2.419098
 20
-4.723539
  0
VERTEX
  8
PLAN_1
  6
CONTINUOUS
 10
2.414780
 20
-4.722307
  0
VERTEX
  8
PLAN_1
  6
CONTINUOUS
 10
2.411079
 20
-4.721071
  0
VERTEX
  8
PLAN_1
  6
CONTINUOUS
 10
2.402441
 20
-4.719220
  0
VERTEX
  8
PLAN_1
  6
CONTINUOUS
 10
2.393807
 20
-4.719220
  0
VERTEX
  8
PLAN_1
  6
CONTINUOUS
 10
2.387020
 20
-4.719220
  0
VERTEX
  8
PLAN_1
  6
CONTINUOUS
 10
2.379618
 20
-4.719839
  0
VERTEX
  8
PLAN_1
  6
CONTINUOUS
 10
2.372213
 20
-4.722307
  0
VERTEX
  8
PLAN_1
  6
CONTINUOUS
 10
2.364811
 20
-4.724772
  0
VERTEX
  8
PLAN_1
  6
CONTINUOUS
 10
2.361110
 20
-4.727240
  0
VERTEX
  8
PLAN_1
  6
CONTINUOUS
 10
2.358028
 20
-4.729709
  0
VERTEX
  8
PLAN_1
  6
CONTINUOUS
 10
2.355559
 20
-4.732177
  0
VERTEX
  8
PLAN_1
  6
CONTINUOUS
 10
2.353091
 20
-4.735878
  0
VERTEX
  8
PLAN_1
  6
CONTINUOUS
 10
2.351240
 20
-4.739579
  0
VERTEX
  8
PLAN_1
  6
CONTINUOUS
 10
2.349390
 20
-4.743898
  0
VERTEX
  8
PLAN_1
  6
CONTINUOUS
 10
2.348772
 20
-4.748831
  0
VERTEX
  8
PLAN_1
  6
CONTINUOUS
 10
2.348157
 20
-4.753768
  0
VERTEX
  8
PLAN_1
  6
CONTINUOUS
 10
2.348772
 20
-4.759937
  0
VERTEX
  8
PLAN_1
  6
CONTINUOUS
 10
2.350622
 20
-4.764870
  0
VERTEX
  8
PLAN_1
  6
CONTINUOUS
 10
2.352472
 20
-4.768571
  0
VERTEX
  8
PLAN_1
  6
CONTINUOUS
 10
2.355559
 20
-4.771657
  0
VERTEX
  8
PLAN_1
  6
CONTINUOUS
 10
2.359260
 20
-4.774122
  0
VERTEX
  8
PLAN_1
  6
CONTINUOUS
 10
2.362961
 20
-4.776591
  0
VERTEX
  8
PLAN_1
  6
CONTINUOUS
 10
2.367280
 20
-4.777823
  0
VERTEX
  8
PLAN_1
  6
CONTINUOUS
 10
2.371598
 20
-4.779059
  0
VERTEX
  8
PLAN_1
  6
CONTINUOUS
 10
2.428969
 20
-4.792012
  0
VERTEX
  8
PLAN_1
  6
CONTINUOUS
 10
2.438220
 20
-4.795098
  0
VERTEX
  8
PLAN_1
  6
CONTINUOUS
 10
2.446858
 20
-4.798799
  0
VERTEX
  8
PLAN_1
  6
CONTINUOUS
 10
2.450559
 20
-4.800650
  0
VERTEX
  8
PLAN_1
  6
CONTINUOUS
 10
2.454260
 20
-4.803118
  0
VERTEX
  8
PLAN_1
  6
CONTINUOUS
 10
2.457961
 20
-4.806201
  0
VERTEX
  8
PLAN_1
  6
CONTINUOUS
 10
2.461047
 20
-4.809287
  0
VERTEX
  8
PLAN_1
  6
CONTINUOUS
 10
2.464130
 20
-4.812370
  0
VERTEX
  8
PLAN_1
  6
CONTINUOUS
 10
2.466598
 20
-4.816071
  0
VERTEX
  8
PLAN_1
  6
CONTINUOUS
 10
2.468449
 20
-4.820390
  0
VERTEX
  8
PLAN_1
  6
CONTINUOUS
 10
2.470299
 20
-4.824709
  0
VERTEX
  8
PLAN_1
  6
CONTINUOUS
 10
2.472150
 20
-4.829642
  0
VERTEX
  8
PLAN_1
  6
CONTINUOUS
 10
2.473382
 20
-4.834579
  0
VERTEX
  8
PLAN_1
  6
CONTINUOUS
 10
2.474000
 20
-4.839512
  0
VERTEX
  8
PLAN_1
  6
CONTINUOUS
 10
2.474000
 20
-4.845681
  0
VERTEX
  8
PLAN_1
  6
CONTINUOUS
 10
2.473382
 20
-4.853701
  0
VERTEX
  8
PLAN_1
  6
CONTINUOUS
 10
2.472150
 20
-4.861720
  0
VERTEX
  8
PLAN_1
  6
CONTINUOUS
 10
2.469681
 20
-4.868508
  0
VERTEX
  8
PLAN_1
  6
CONTINUOUS
 10
2.466598
 20
-4.874677
  0
VERTEX
  8
PLAN_1
  6
CONTINUOUS
 10
2.462898
 20
-4.880228
  0
VERTEX
  8
PLAN_1
  6
CONTINUOUS
 10
2.458579
 20
-4.885161
  0
VERTEX
  8
PLAN_1
  6
CONTINUOUS
 10
2.453028
 20
-4.889480
  0
VERTEX
  8
PLAN_1
  6
CONTINUOUS
 10
2.448091
 20
-4.893181
  0
VERTEX
  8
PLAN_1
  6
CONTINUOUS
 10
2.441921
 20
-4.896268
  0
VERTEX
  8
PLAN_1
  6
CONTINUOUS
 10
2.435752
 20
-4.899350
  0
VERTEX
  8
PLAN_1
  6
CONTINUOUS
 10
2.428969
 20
-4.901201
  0
VERTEX
  8
PLAN_1
  6
CONTINUOUS
 10
2.422799
 20
-4.903051
  0
VERTEX
  8
PLAN_1
  6
CONTINUOUS
 10
2.416012
 20
-4.904287
  0
VERTEX
  8
PLAN_1
  6
CONTINUOUS
 10
2.409228
 20
-4.904902
  0
VERTEX
  8
PLAN_1
  6
CONTINUOUS
 10
2.402441
 20
-4.905520
  0
VERTEX
  8
PLAN_1
  6
CONTINUOUS
 10
2.396272
 20
-4.905520
  0
VERTEX
  8
PLAN_1
  6
CONTINUOUS
 10
2.383319
 20
-4.905520
  0
VERTEX
  8
PLAN_1
  6
CONTINUOUS
 10
2.372213
 20
-4.903669
  0
VERTEX
  8
PLAN_1
  6
CONTINUOUS
 10
2.362961
 20
-4.901819
  0
VERTEX
  8
PLAN_1
  6
CONTINUOUS
 10
2.355559
 20
-4.899350
  0
VERTEX
  8
PLAN_1
  6
CONTINUOUS
 10
2.348772
 20
-4.896268
  0
VERTEX
  8
PLAN_1
  6
CONTINUOUS
 10
2.343839
 20
-4.893181
  0
VERTEX
  8
PLAN_1
  6
CONTINUOUS
 10
2.339520
 20
-4.889480
  0
VERTEX
  8
PLAN_1
  6
CONTINUOUS
 10
2.335819
 20
-4.886398
  0
VERTEX
  8
PLAN_1
  6
CONTINUOUS
 10
2.330268
 20
-4.880843
  0
VERTEX
  8
PLAN_1
  6
CONTINUOUS
 10
2.325331
 20
-4.874677
  0
VERTEX
  8
PLAN_1
  6
CONTINUOUS
 10
2.321630
 20
-4.868508
  0
VERTEX
  8
PLAN_1
  6
CONTINUOUS
 10
2.319161
 20
-4.862339
  0
VERTEX
  8
PLAN_1
  6
CONTINUOUS
 10
2.317311
 20
-4.856169
  0
VERTEX
  8
PLAN_1
  6
CONTINUOUS
 10
2.316079
 20
-4.849382
  0
VERTEX
  8
PLAN_1
  6
CONTINUOUS
 10
2.315461
 20
-4.843213
  0
VERTEX
  8
PLAN_1
  6
CONTINUOUS
 10
2.315461
 20
-4.835811
  0
VERTEX
  8
PLAN_1
  6
CONTINUOUS
 10
2.340752
 20
-4.835811
  0
VERTEX
  8
PLAN_1
  6
CONTINUOUS
 10
2.341370
 20
-4.842598
  0
VERTEX
  8
PLAN_1
  6
CONTINUOUS
 10
2.341988
 20
-4.848150
  0
VERTEX
  8
PLAN_1
  6
CONTINUOUS
 10
2.343839
 20
-4.853701
  0
VERTEX
  8
PLAN_1
  6
CONTINUOUS
 10
2.345689
 20
-4.858638
  0
VERTEX
  8
PLAN_1
  6
CONTINUOUS
 10
2.348157
 20
-4.862953
  0
VERTEX
  8
PLAN_1
  6
CONTINUOUS
 10
2.351240
 20
-4.866657
  0
VERTEX
  8
PLAN_1
  6
CONTINUOUS
 10
2.354941
 20
-4.869740
  0
VERTEX
  8
PLAN_1
  6
CONTINUOUS
 10
2.358642
 20
-4.872823
  0
VERTEX
  8
PLAN_1
  6
CONTINUOUS
 10
2.362961
 20
-4.875291
  0
VERTEX
  8
PLAN_1
  6
CONTINUOUS
 10
2.367280
 20
-4.877142
  0
VERTEX
  8
PLAN_1
  6
CONTINUOUS
 10
2.371598
 20
-4.878992
  0
VERTEX
  8
PLAN_1
  6
CONTINUOUS
 10
2.376531
 20
-4.880228
  0
VERTEX
  8
PLAN_1
  6
CONTINUOUS
 10
2.385787
 20
-4.882079
  0
VERTEX
  8
PLAN_1
  6
CONTINUOUS
 10
2.395657
 20
-4.882693
  0
VERTEX
  8
PLAN_1
  6
CONTINUOUS
 10
2.403677
 20
-4.882693
  0
VERTEX
  8
PLAN_1
  6
CONTINUOUS
 10
2.412311
 20
-4.881461
  0
VERTEX
  8
PLAN_1
  6
CONTINUOUS
 10
2.420949
 20
-4.879610
  0
VERTEX
  8
PLAN_1
  6
CONTINUOUS
 10
2.428969
 20
-4.876528
  0
VERTEX
  8
PLAN_1
  6
CONTINUOUS
 10
2.432669
 20
-4.874677
  0
VERTEX
  8
PLAN_1
  6
CONTINUOUS
 10
2.436370
 20
-4.872209
  0
VERTEX
  8
PLAN_1
  6
CONTINUOUS
 10
2.439453
 20
-4.869740
  0
VERTEX
  8
PLAN_1
  6
CONTINUOUS
 10
2.442539
 20
-4.866657
  0
VERTEX
  8
PLAN_1
  6
CONTINUOUS
 10
2.445008
 20
-4.862953
  0
VERTEX
  8
PLAN_1
  6
CONTINUOUS
 10
2.446240
 20
-4.858638
  0
VERTEX
  8
PLAN_1
  6
CONTINUOUS
 10
2.447472
 20
-4.854319
  0
VERTEX
  8
PLAN_1
  6
CONTINUOUS
 10
2.448091
 20
-4.849382
  0
VERTEX
  8
PLAN_1
  6
CONTINUOUS
 10
2.447472
 20
-4.841980
  0
VERTEX
  8
PLAN_1
  6
CONTINUOUS
 10
2.445622
 20
-4.835811
  0
VERTEX
  8
PLAN_1
  6
CONTINUOUS
 10
2.444390
 20
-4.833343
  0
VERTEX
  8
PLAN_1
  6
CONTINUOUS
 10
2.443157
 20
-4.830878
  0
VERTEX
  8
PLAN_1
  6
CONTINUOUS
 10
2.441307
 20
-4.828409
  0
VERTEX
  8
PLAN_1
  6
CONTINUOUS
 10
2.438839
 20
-4.826559
  0
VERTEX
  8
PLAN_1
  6
CONTINUOUS
 10
2.433287
 20
-4.822858
  0
VERTEX
  8
PLAN_1
  6
CONTINUOUS
 10
2.425882
 20
-4.819772
  0
VERTEX
  8
PLAN_1
  6
CONTINUOUS
 10
2.416630
 20
-4.816689
  0
VERTEX
  8
PLAN_1
  6
CONTINUOUS
 10
2.405528
 20
-4.813602
  0
VERTEX
  8
PLAN_1
  6
CONTINUOUS
 10
2.364811
 20
-4.804350
  0
VERTEX
  8
PLAN_1
  6
CONTINUOUS
 10
2.359260
 20
-4.803118
  0
VERTEX
  8
PLAN_1
  6
CONTINUOUS
 10
2.352472
 20
-4.800650
  0
VERTEX
  8
PLAN_1
  6
CONTINUOUS
 10
2.345689
 20
-4.797563
  0
VERTEX
  8
PLAN_1
  6
CONTINUOUS
 10
2.338287
 20
-4.792630
  0
VERTEX
  8
PLAN_1
  6
CONTINUOUS
 10
2.335201
 20
-4.790161
  0
VERTEX
  8
PLAN_1
  6
CONTINUOUS
 10
2.332118
 20
-4.787079
  0
VERTEX
  8
PLAN_1
  6
CONTINUOUS
 10
2.329650
 20
-4.783378
  0
VERTEX
  8
PLAN_1
  6
CONTINUOUS
 10
2.327181
 20
-4.779059
  0
VERTEX
  8
PLAN_1
  6
CONTINUOUS
 10
2.324713
 20
-4.774740
  0
VERTEX
  8
PLAN_1
  6
CONTINUOUS
 10
2.323480
 20
-4.769189
  0
VERTEX
  8
PLAN_1
  6
CONTINUOUS
 10
2.322248
 20
-4.763638
  0
VERTEX
  8
PLAN_1
  6
CONTINUOUS
 10
2.322248
 20
-4.757469
  0
VERTEX
  8
PLAN_1
  6
CONTINUOUS
 10
2.322248
 20
-4.751917
  0
VERTEX
  8
PLAN_1
  6
CONTINUOUS
 10
2.322862
 20
-4.745748
  0
VERTEX
  8
PLAN_1
  6
CONTINUOUS
 10
2.324098
 20
-4.740193
  0
VERTEX
  8
PLAN_1
  6
CONTINUOUS
 10
2.325949
 20
-4.734642
  0
VERTEX
  8
PLAN_1
  6
CONTINUOUS
 10
2.328417
 20
-4.729709
  0
VERTEX
  8
PLAN_1
  6
CONTINUOUS
 10
2.330882
 20
-4.724157
  0
VERTEX
  8
PLAN_1
  6
CONTINUOUS
 10
2.334583
 20
-4.719839
  0
VERTEX
  8
PLAN_1
  6
CONTINUOUS
 10
2.338287
 20
-4.714902
  0
VERTEX
  8
PLAN_1
  6
CONTINUOUS
 10
2.342602
 20
-4.711201
  0
VERTEX
  8
PLAN_1
  6
CONTINUOUS
 10
2.347539
 20
-4.707500
  0
VERTEX
  8
PLAN_1
  6
CONTINUOUS
 10
2.353709
 20
-4.703799
  0
VERTEX
  8
PLAN_1
  6
CONTINUOUS
 10
2.359878
 20
-4.701331
  0
VERTEX
  8
PLAN_1
  6
CONTINUOUS
 10
2.366661
 20
-4.698862
  0
VERTEX
  8
PLAN_1
  6
CONTINUOUS
 10
2.374063
 20
-4.697012
  0
VERTEX
  8
PLAN_1
  6
CONTINUOUS
 10
2.382083
 20
-4.696398
  0
VERTEX
  8
PLAN_1
  6
CONTINUOUS
 10
2.390720
 20
-4.695780
  0
VERTEX
  8
PLAN_1
  6
CONTINUOUS
 10
2.403059
 20
-4.696398
  0
VERTEX
  8
PLAN_1
  6
CONTINUOUS
 10
2.414161
 20
-4.697630
  0
VERTEX
  8
PLAN_1
  6
CONTINUOUS
 10
2.423417
 20
-4.700098
  0
VERTEX
  8
PLAN_1
  6
CONTINUOUS
 10
2.432051
 20
-4.702563
  0
VERTEX
  8
PLAN_1
  6
CONTINUOUS
 10
2.439453
 20
-4.706268
  0
VERTEX
  8
PLAN_1
  6
CONTINUOUS
 10
2.445622
 20
-4.709969
  0
VERTEX
  8
PLAN_1
  6
CONTINUOUS
 10
2.451177
 20
-4.714902
  0
VERTEX
  8
PLAN_1
  6
CONTINUOUS
 10
2.455492
 20
-4.719220
  0
VERTEX
  8
PLAN_1
  6
CONTINUOUS
 10
2.458579
 20
-4.724772
  0
VERTEX
  8
PLAN_1
  6
CONTINUOUS
 10
2.461661
 20
-4.729709
  0
VERTEX
  8
PLAN_1
  6
CONTINUOUS
 10
2.464130
 20
-4.735260
  0
VERTEX
  8
PLAN_1
  6
CONTINUOUS
 10
2.465362
 20
-4.740193
  0
VERTEX
  8
PLAN_1
  6
CONTINUOUS
 10
2.467831
 20
-4.750681
  0
VERTEX
  8
PLAN_1
  6
CONTINUOUS
 10
2.468449
 20
-4.759319
  0
VERTEX
  8
PLAN_1
  6
CONTINUOUS
 10
2.443157
 20
-4.759319
  0
SEQEND
  8
0
  0
POLYLINE
  8
PLAN_1
  6
CONTINUOUS
 66
     1
 40
0.008634
 41
0.008634
  0
VERTEX
  8
PLAN_1
  6
CONTINUOUS
 10
-1.501193
 20
0.651980
  0
VERTEX
  8
PLAN_1
  6
CONTINUOUS
 10
-1.501193
 20
0.879610
  0
VERTEX
  8
PLAN_1
  6
CONTINUOUS
 10
-1.290220
 20
0.879610
  0
VERTEX
  8
PLAN_1
  6
CONTINUOUS
 10
-1.290220
 20
0.651980
  0
SEQEND
  8
0
  0
POLYLINE
  8
PLAN_1
  6
CONTINUOUS
 66
     1
 40
0.008634
 41
0.008634
  0
VERTEX
  8
PLAN_1
  6
CONTINUOUS
 10
-1.298858
 20
-2.886461
  0
VERTEX
  8
PLAN_1
  6
CONTINUOUS
 10
0.381531
 20
-2.886461
  0
VERTEX
  8
PLAN_1
  6
CONTINUOUS
 10
0.583870
 20
-2.683508
  0
VERTEX
  8
PLAN_1
  6
CONTINUOUS
 10
0.583870
 20
0.677272
  0
VERTEX
  8
PLAN_1
  6
CONTINUOUS
 10
0.381531
 20
0.878992
  0
VERTEX
  8
PLAN_1
  6
CONTINUOUS
 10
-1.302559
 20
0.879610
  0
VERTEX
  8
PLAN_1
  6
CONTINUOUS
 10
-1.500579
 20
0.680358
  0
VERTEX
  8
PLAN_1
  6
CONTINUOUS
 10
-1.500579
 20
-2.683508
  0
VERTEX
  8
PLAN_1
  6
CONTINUOUS
 10
-1.298858
 20
-2.886461
  0
SEQEND
  8
0
  0
POLYLINE
  8
PLAN_1
  6
CONTINUOUS
 66
     1
 40
0.008634
 41
0.008634
  0
VERTEX
  8
PLAN_1
  6
CONTINUOUS
 10
0.123059
 20
0.089382
  0
VERTEX
  8
PLAN_1
  6
CONTINUOUS
 10
0.123059
 20
0.878992
  0
SEQEND
  8
0
  0
POLYLINE
  8
PLAN_1
  6
CONTINUOUS
 66
     1
 40
0.008634
 41
0.008634
  0
VERTEX
  8
PLAN_1
  6
CONTINUOUS
 10
-1.036681
 20
0.878992
  0
VERTEX
  8
PLAN_1
  6
CONTINUOUS
 10
-1.036681
 20
0.089382
  0
SEQEND
  8
0
  0
POLYLINE
  8
PLAN_1
  6
CONTINUOUS
 66
     1
 40
0.008634
 41
0.008634
  0
VERTEX
  8
PLAN_1
  6
CONTINUOUS
 10
-1.036681
 20
-2.089449
  0
VERTEX
  8
PLAN_1
  6
CONTINUOUS
 10
-1.036681
 20
-2.885228
  0
SEQEND
  8
0
  0
POLYLINE
  8
PLAN_1
  6
CONTINUOUS
 66
     1
 40
0.008634
 41
0.008634
  0
VERTEX
  8
PLAN_1
  6
CONTINUOUS
 10
0.123059
 20
-2.885228
  0
VERTEX
  8
PLAN_1
  6
CONTINUOUS
 10
0.123059
 20
-2.089449
  0
SEQEND
  8
0
  0
POLYLINE
  8
PLAN_1
  6
CONTINUOUS
 66
     1
 40
0.008634
 41
0.008634
  0
VERTEX
  8
PLAN_1
  6
CONTINUOUS
 10
-1.211878
 20
0.878992
  0
VERTEX
  8
PLAN_1
  6
CONTINUOUS
 10
-1.211878
 20
-2.885228
  0
SEQEND
  8
0
  0
POLYLINE
  8
PLAN_1
  6
CONTINUOUS
 66
     1
 40
0.008634
 41
0.008634
  0
VERTEX
  8
PLAN_1
  6
CONTINUOUS
 10
-1.114409
 20
-2.885228
  0
VERTEX
  8
PLAN_1
  6
CONTINUOUS
 10
-1.114409
 20
0.878992
  0
SEQEND
  8
0
  0
POLYLINE
  8
PLAN_1
  6
CONTINUOUS
 66
     1
 40
0.008634
 41
0.008634
  0
VERTEX
  8
PLAN_1
  6
CONTINUOUS
 10
0.297020
 20
-2.884610
  0
VERTEX
  8
PLAN_1
  6
CONTINUOUS
 10
0.297020
 20
0.879610
  0
SEQEND
  8
0
  0
POLYLINE
  8
PLAN_1
  6
CONTINUOUS
 66
     1
 40
0.008634
 41
0.008634
  0
VERTEX
  8
PLAN_1
  6
CONTINUOUS
 10
0.199551
 20
0.879610
  0
VERTEX
  8
PLAN_1
  6
CONTINUOUS
 10
0.199551
 20
-2.884610
  0
SEQEND
  8
0
  0
POLYLINE
  8
PLAN_1
  6
CONTINUOUS
 66
     1
 40
0.008634
 41
0.008634
  0
VERTEX
  8
PLAN_1
  6
CONTINUOUS
 10
0.374130
 20
-2.887693
  0
VERTEX
  8
PLAN_1
  6
CONTINUOUS
 10
0.374130
 20
0.872209
  0
SEQEND
  8
0
  0
POLYLINE
  8
PLAN_1
  6
CONTINUOUS
 66
     1
 40
0.008634
 41
0.008634
  0
VERTEX
  8
PLAN_1
  6
CONTINUOUS
 10
-1.289602
 20
0.878992
  0
VERTEX
  8
PLAN_1
  6
CONTINUOUS
 10
-1.289602
 20
-2.885228
  0
SEQEND
  8
0
  0
POLYLINE
  8
PLAN_1
  6
CONTINUOUS
 66
     1
 40
0.008634
 41
0.008634
  0
VERTEX
  8
PLAN_1
  6
CONTINUOUS
 10
0.387701
 20
-0.246201
  0
VERTEX
  8
PLAN_1
  6
CONTINUOUS
 10
0.540071
 20
-0.255453
  0
SEQEND
  8
0
  0
POLYLINE
  8
PLAN_1
  6
CONTINUOUS
 66
     1
 40
0.008634
 41
0.008634
  0
VERTEX
  8
PLAN_1
  6
CONTINUOUS
 10
0.540071
 20
-0.255453
  0
VERTEX
  8
PLAN_1
  6
CONTINUOUS
 10
0.541307
 20
-0.256071
  0
VERTEX
  8
PLAN_1
  6
CONTINUOUS
 10
0.544390
 20
-0.256071
  0
VERTEX
  8
PLAN_1
  6
CONTINUOUS
 10
0.548709
 20
-0.257307
  0
VERTEX
  8
PLAN_1
  6
CONTINUOUS
 10
0.554878
 20
-0.259772
  0
VERTEX
  8
PLAN_1
  6
CONTINUOUS
 10
0.557961
 20
-0.261622
  0
VERTEX
  8
PLAN_1
  6
CONTINUOUS
 10
0.561047
 20
-0.263472
  0
VERTEX
  8
PLAN_1
  6
CONTINUOUS
 10
0.564130
 20
-0.265941
  0
VERTEX
  8
PLAN_1
  6
CONTINUOUS
 10
0.567213
 20
-0.268409
  0
VERTEX
  8
PLAN_1
  6
CONTINUOUS
 10
0.570299
 20
-0.272110
  0
VERTEX
  8
PLAN_1
  6
CONTINUOUS
 10
0.572768
 20
-0.275811
  0
VERTEX
  8
PLAN_1
  6
CONTINUOUS
 10
0.575850
 20
-0.280130
  0
VERTEX
  8
PLAN_1
  6
CONTINUOUS
 10
0.577701
 20
-0.285681
  0
SEQEND
  8
0
  0
POLYLINE
  8
PLAN_1
  6
CONTINUOUS
 66
     1
 40
0.008634
 41
0.008634
  0
VERTEX
  8
PLAN_1
  6
CONTINUOUS
 10
0.395102
 20
0.403378
  0
VERTEX
  8
PLAN_1
  6
CONTINUOUS
 10
0.395102
 20
0.402760
  0
VERTEX
  8
PLAN_1
  6
CONTINUOUS
 10
0.395102
 20
0.400291
  0
VERTEX
  8
PLAN_1
  6
CONTINUOUS
 10
0.396339
 20
0.396591
  0
VERTEX
  8
PLAN_1
  6
CONTINUOUS
 10
0.398807
 20
0.391657
  0
VERTEX
  8
PLAN_1
  6
CONTINUOUS
 10
0.402508
 20
0.384870
  0
VERTEX
  8
PLAN_1
  6
CONTINUOUS
 10
0.408677
 20
0.376850
  0
VERTEX
  8
PLAN_1
  6
CONTINUOUS
 10
0.417311
 20
0.366980
  0
VERTEX
  8
PLAN_1
  6
CONTINUOUS
 10
0.429031
 20
0.356492
  0
VERTEX
  8
PLAN_1
  6
CONTINUOUS
 10
0.446307
 20
0.341071
  0
VERTEX
  8
PLAN_1
  6
CONTINUOUS
 10
0.465429
 20
0.323181
  0
VERTEX
  8
PLAN_1
  6
CONTINUOUS
 10
0.485787
 20
0.305291
  0
VERTEX
  8
PLAN_1
  6
CONTINUOUS
 10
0.506142
 20
0.286787
  0
VERTEX
  8
PLAN_1
  6
CONTINUOUS
 10
0.524650
 20
0.270130
  0
VERTEX
  8
PLAN_1
  6
CONTINUOUS
 10
0.540689
 20
0.255941
  0
VERTEX
  8
PLAN_1
  6
CONTINUOUS
 10
0.552409
 20
0.244839
  0
VERTEX
  8
PLAN_1
  6
CONTINUOUS
 10
0.557961
 20
0.239287
  0
VERTEX
  8
PLAN_1
  6
CONTINUOUS
 10
0.562280
 20
0.233732
  0
VERTEX
  8
PLAN_1
  6
CONTINUOUS
 10
0.565980
 20
0.227563
  0
VERTEX
  8
PLAN_1
  6
CONTINUOUS
 10
0.568449
 20
0.220780
  0
VERTEX
  8
PLAN_1
  6
CONTINUOUS
 10
0.570299
 20
0.214610
  0
VERTEX
  8
PLAN_1
  6
CONTINUOUS
 10
0.571531
 20
0.208441
  0
VERTEX
  8
PLAN_1
  6
CONTINUOUS
 10
0.572768
 20
0.204122
  0
VERTEX
  8
PLAN_1
  6
CONTINUOUS
 10
0.572768
 20
0.201039
  0
VERTEX
  8
PLAN_1
  6
CONTINUOUS
 10
0.572768
 20
0.199807
  0
SEQEND
  8
0
  0
POLYLINE
  8
PLAN_1
  6
CONTINUOUS
 66
     1
 40
0.008634
 41
0.008634
  0
VERTEX
  8
PLAN_1
  6
CONTINUOUS
 10
0.398189
 20
-2.361492
  0
VERTEX
  8
PLAN_1
  6
CONTINUOUS
 10
0.398189
 20
-2.360878
  0
VERTEX
  8
PLAN_1
  6
CONTINUOUS
 10
0.398807
 20
-2.358409
  0
VERTEX
  8
PLAN_1
  6
CONTINUOUS
 10
0.400039
 20
-2.354709
  0
VERTEX
  8
PLAN_1
  6
CONTINUOUS
 10
0.402508
 20
-2.349772
  0
VERTEX
  8
PLAN_1
  6
CONTINUOUS
 10
0.406209
 20
-2.342988
  0
VERTEX
  8
PLAN_1
  6
CONTINUOUS
 10
0.412378
 20
-2.334969
  0
VERTEX
  8
PLAN_1
  6
CONTINUOUS
 10
0.421012
 20
-2.325713
  0
VERTEX
  8
PLAN_1
  6
CONTINUOUS
 10
0.432118
 20
-2.314610
  0
VERTEX
  8
PLAN_1
  6
CONTINUOUS
 10
0.449390
 20
-2.299189
  0
VERTEX
  8
PLAN_1
  6
CONTINUOUS
 10
0.469130
 20
-2.281917
  0
VERTEX
  8
PLAN_1
  6
CONTINUOUS
 10
0.489488
 20
-2.263409
  0
VERTEX
  8
PLAN_1
  6
CONTINUOUS
 10
0.509843
 20
-2.244902
  0
VERTEX
  8
PLAN_1
  6
CONTINUOUS
 10
0.528350
 20
-2.228248
  0
VERTEX
  8
PLAN_1
  6
CONTINUOUS
 10
0.544390
 20
-2.214059
  0
VERTEX
  8
PLAN_1
  6
CONTINUOUS
 10
0.555492
 20
-2.202953
  0
VERTEX
  8
PLAN_1
  6
CONTINUOUS
 10
0.561661
 20
-2.197402
  0
VERTEX
  8
PLAN_1
  6
CONTINUOUS
 10
0.565980
 20
-2.191850
  0
VERTEX
  8
PLAN_1
  6
CONTINUOUS
 10
0.569681
 20
-2.185681
  0
VERTEX
  8
PLAN_1
  6
CONTINUOUS
 10
0.572150
 20
-2.178898
  0
VERTEX
  8
PLAN_1
  6
CONTINUOUS
 10
0.574000
 20
-2.172728
  0
VERTEX
  8
PLAN_1
  6
CONTINUOUS
 10
0.575232
 20
-2.167177
  0
VERTEX
  8
PLAN_1
  6
CONTINUOUS
 10
0.575850
 20
-2.162240
  0
VERTEX
  8
PLAN_1
  6
CONTINUOUS
 10
0.576469
 20
-2.159157
  0
VERTEX
  8
PLAN_1
  6
CONTINUOUS
 10
0.576469
 20
-2.157921
  0
SEQEND
  8
0
  0
POLYLINE
  8
PLAN_1
  6
CONTINUOUS
 66
     1
 40
0.008634
 41
0.008634
  0
VERTEX
  8
PLAN_1
  6
CONTINUOUS
 10
0.384618
 20
-1.771752
  0
VERTEX
  8
PLAN_1
  6
CONTINUOUS
 10
0.536370
 20
-1.761882
  0
SEQEND
  8
0
  0
POLYLINE
  8
PLAN_1
  6
CONTINUOUS
 66
     1
 40
0.008634
 41
0.008634
  0
VERTEX
  8
PLAN_1
  6
CONTINUOUS
 10
0.536370
 20
-1.761882
  0
VERTEX
  8
PLAN_1
  6
CONTINUOUS
 10
0.537602
 20
-1.761882
  0
VERTEX
  8
PLAN_1
  6
CONTINUOUS
 10
0.540689
 20
-1.761268
  0
VERTEX
  8
PLAN_1
  6
CONTINUOUS
 10
0.545622
 20
-1.760031
  0
VERTEX
  8
PLAN_1
  6
CONTINUOUS
 10
0.551177
 20
-1.757563
  0
VERTEX
  8
PLAN_1
  6
CONTINUOUS
 10
0.554260
 20
-1.756331
  0
VERTEX
  8
PLAN_1
  6
CONTINUOUS
 10
0.557343
 20
-1.754480
  0
VERTEX
  8
PLAN_1
  6
CONTINUOUS
 10
0.560429
 20
-1.752012
  0
VERTEX
  8
PLAN_1
  6
CONTINUOUS
 10
0.563512
 20
-1.748929
  0
VERTEX
  8
PLAN_1
  6
CONTINUOUS
 10
0.566598
 20
-1.745843
  0
VERTEX
  8
PLAN_1
  6
CONTINUOUS
 10
0.569681
 20
-1.741528
  0
VERTEX
  8
PLAN_1
  6
CONTINUOUS
 10
0.572150
 20
-1.737209
  0
VERTEX
  8
PLAN_1
  6
CONTINUOUS
 10
0.574618
 20
-1.732272
  0
SEQEND
  8
0
  0
POLYLINE
  8
PLAN_1
  6
CONTINUOUS
 66
     1
 40
0.008634
 41
0.008634
  0
VERTEX
  8
PLAN_1
  6
CONTINUOUS
 10
-1.368563
 20
0.206591
  0
VERTEX
  8
PLAN_1
  6
CONTINUOUS
 10
-1.371650
 20
0.205972
  0
VERTEX
  8
PLAN_1
  6
CONTINUOUS
 10
-1.375350
 20
0.204740
  0
VERTEX
  8
PLAN_1
  6
CONTINUOUS
 10
-1.379051
 20
0.203508
  0
VERTEX
  8
PLAN_1
  6
CONTINUOUS
 10
-1.382138
 20
0.201039
  0
VERTEX
  8
PLAN_1
  6
CONTINUOUS
 10
-1.385839
 20
0.198571
  0
VERTEX
  8
PLAN_1
  6
CONTINUOUS
 10
-1.389539
 20
0.195488
  0
VERTEX
  8
PLAN_1
  6
CONTINUOUS
 10
-1.393240
 20
0.191787
  0
VERTEX
  8
PLAN_1
  6
CONTINUOUS
 10
-1.396941
 20
0.187469
  0
VERTEX
  8
PLAN_1
  6
CONTINUOUS
 10
-1.403728
 20
0.177598
  0
VERTEX
  8
PLAN_1
  6
CONTINUOUS
 10
-1.411130
 20
0.167110
  0
VERTEX
  8
PLAN_1
  6
CONTINUOUS
 10
-1.417917
 20
0.154772
  0
VERTEX
  8
PLAN_1
  6
CONTINUOUS
 10
-1.424701
 20
0.141819
  0
VERTEX
  8
PLAN_1
  6
CONTINUOUS
 10
-1.430870
 20
0.127630
  0
VERTEX
  8
PLAN_1
  6
CONTINUOUS
 10
-1.436421
 20
0.114059
  0
VERTEX
  8
PLAN_1
  6
CONTINUOUS
 10
-1.441358
 20
0.099252
  0
VERTEX
  8
PLAN_1
  6
CONTINUOUS
 10
-1.446291
 20
0.085681
  0
VERTEX
  8
PLAN_1
  6
CONTINUOUS
 10
-1.449992
 20
0.071492
  0
VERTEX
  8
PLAN_1
  6
CONTINUOUS
 10
-1.453079
 20
0.058539
  0
VERTEX
  8
PLAN_1
  6
CONTINUOUS
 10
-1.455547
 20
0.046201
  0
VERTEX
  8
PLAN_1
  6
CONTINUOUS
 10
-1.456780
 20
0.035098
  0
SEQEND
  8
0
  0
POLYLINE
  8
PLAN_1
  6
CONTINUOUS
 66
     1
 40
0.008634
 41
0.008634
  0
VERTEX
  8
PLAN_1
  6
CONTINUOUS
 10
-1.456780
 20
0.035098
  0
VERTEX
  8
PLAN_1
  6
CONTINUOUS
 10
-1.376583
 20
0.035098
  0
VERTEX
  8
PLAN_1
  6
CONTINUOUS
 10
-1.376583
 20
-0.022272
  0
VERTEX
  8
PLAN_1
  6
CONTINUOUS
 10
-1.456780
 20
-0.022272
  0
SEQEND
  8
0
  0
POLYLINE
  8
PLAN_1
  6
CONTINUOUS
 66
     1
 40
0.008634
 41
0.008634
  0
VERTEX
  8
PLAN_1
  6
CONTINUOUS
 10
-1.456780
 20
-0.022272
  0
VERTEX
  8
PLAN_1
  6
CONTINUOUS
 10
-1.455547
 20
-0.032760
  0
VERTEX
  8
PLAN_1
  6
CONTINUOUS
 10
-1.453079
 20
-0.044480
  0
VERTEX
  8
PLAN_1
  6
CONTINUOUS
 10
-1.449992
 20
-0.056819
  0
VERTEX
  8
PLAN_1
  6
CONTINUOUS
 10
-1.445677
 20
-0.070390
  0
VERTEX
  8
PLAN_1
  6
CONTINUOUS
 10
-1.440740
 20
-0.083961
  0
VERTEX
  8
PLAN_1
  6
CONTINUOUS
 10
-1.435807
 20
-0.098150
  0
VERTEX
  8
PLAN_1
  6
CONTINUOUS
 10
-1.429638
 20
-0.112339
  0
VERTEX
  8
PLAN_1
  6
CONTINUOUS
 10
-1.423469
 20
-0.125291
  0
VERTEX
  8
PLAN_1
  6
CONTINUOUS
 10
-1.416681
 20
-0.138248
  0
VERTEX
  8
PLAN_1
  6
CONTINUOUS
 10
-1.409280
 20
-0.150583
  0
VERTEX
  8
PLAN_1
  6
CONTINUOUS
 10
-1.402492
 20
-0.161689
  0
VERTEX
  8
PLAN_1
  6
CONTINUOUS
 10
-1.395091
 20
-0.170941
  0
VERTEX
  8
PLAN_1
  6
CONTINUOUS
 10
-1.391390
 20
-0.175260
  0
VERTEX
  8
PLAN_1
  6
CONTINUOUS
 10
-1.388307
 20
-0.178961
  0
VERTEX
  8
PLAN_1
  6
CONTINUOUS
 10
-1.384602
 20
-0.182047
  0
VERTEX
  8
PLAN_1
  6
CONTINUOUS
 10
-1.380902
 20
-0.185130
  0
VERTEX
  8
PLAN_1
  6
CONTINUOUS
 10
-1.377819
 20
-0.186980
  0
VERTEX
  8
PLAN_1
  6
CONTINUOUS
 10
-1.374732
 20
-0.188831
  0
VERTEX
  8
PLAN_1
  6
CONTINUOUS
 10
-1.371650
 20
-0.189449
  0
VERTEX
  8
PLAN_1
  6
CONTINUOUS
 10
-1.368563
 20
-0.190063
  0
SEQEND
  8
0
  0
POLYLINE
  8
PLAN_1
  6
CONTINUOUS
 66
     1
 40
0.008634
 41
0.008634
  0
VERTEX
  8
PLAN_1
  6
CONTINUOUS
 10
-1.368563
 20
-0.190063
  0
VERTEX
  8
PLAN_1
  6
CONTINUOUS
 10
-1.291453
 20
-0.190063
  0
VERTEX
  8
PLAN_1
  6
CONTINUOUS
 10
-1.291453
 20
0.206591
  0
VERTEX
  8
PLAN_1
  6
CONTINUOUS
 10
-1.368563
 20
0.206591
  0
SEQEND
  8
0
  0
POLYLINE
  8
PLAN_1
  6
CONTINUOUS
 66
     1
 40
0.008634
 41
0.008634
  0
VERTEX
  8
PLAN_1
  6
CONTINUOUS
 10
-1.368563
 20
-1.820488
  0
VERTEX
  8
PLAN_1
  6
CONTINUOUS
 10
-1.371650
 20
-1.820488
  0
VERTEX
  8
PLAN_1
  6
CONTINUOUS
 10
-1.375350
 20
-1.821720
  0
VERTEX
  8
PLAN_1
  6
CONTINUOUS
 10
-1.379051
 20
-1.822953
  0
VERTEX
  8
PLAN_1
  6
CONTINUOUS
 10
-1.382138
 20
-1.825421
  0
VERTEX
  8
PLAN_1
  6
CONTINUOUS
 10
-1.385839
 20
-1.827890
  0
VERTEX
  8
PLAN_1
  6
CONTINUOUS
 10
-1.389539
 20
-1.830972
  0
VERTEX
  8
PLAN_1
  6
CONTINUOUS
 10
-1.393240
 20
-1.834677
  0
VERTEX
  8
PLAN_1
  6
CONTINUOUS
 10
-1.396941
 20
-1.838992
  0
VERTEX
  8
PLAN_1
  6
CONTINUOUS
 10
-1.403728
 20
-1.848862
  0
VERTEX
  8
PLAN_1
  6
CONTINUOUS
 10
-1.411130
 20
-1.859969
  0
VERTEX
  8
PLAN_1
  6
CONTINUOUS
 10
-1.417917
 20
-1.871689
  0
VERTEX
  8
PLAN_1
  6
CONTINUOUS
 10
-1.424701
 20
-1.884642
  0
VERTEX
  8
PLAN_1
  6
CONTINUOUS
 10
-1.430870
 20
-1.898831
  0
VERTEX
  8
PLAN_1
  6
CONTINUOUS
 10
-1.436421
 20
-1.913020
  0
VERTEX
  8
PLAN_1
  6
CONTINUOUS
 10
-1.441358
 20
-1.927209
  0
VERTEX
  8
PLAN_1
  6
CONTINUOUS
 10
-1.446291
 20
-1.941398
  0
VERTEX
  8
PLAN_1
  6
CONTINUOUS
 10
-1.449992
 20
-1.954969
  0
VERTEX
  8
PLAN_1
  6
CONTINUOUS
 10
-1.453079
 20
-1.967921
  0
VERTEX
  8
PLAN_1
  6
CONTINUOUS
 10
-1.455547
 20
-1.980260
  0
VERTEX
  8
PLAN_1
  6
CONTINUOUS
 10
-1.456780
 20
-1.991362
  0
SEQEND
  8
0
  0
POLYLINE
  8
PLAN_1
  6
CONTINUOUS
 66
     1
 40
0.008634
 41
0.008634
  0
VERTEX
  8
PLAN_1
  6
CONTINUOUS
 10
-1.456780
 20
-1.991362
  0
VERTEX
  8
PLAN_1
  6
CONTINUOUS
 10
-1.376583
 20
-1.991362
  0
VERTEX
  8
PLAN_1
  6
CONTINUOUS
 10
-1.376583
 20
-2.048732
  0
VERTEX
  8
PLAN_1
  6
CONTINUOUS
 10
-1.456780
 20
-2.048732
  0
SEQEND
  8
0
  0
POLYLINE
  8
PLAN_1
  6
CONTINUOUS
 66
     1
 40
0.008634
 41
0.008634
  0
VERTEX
  8
PLAN_1
  6
CONTINUOUS
 10
-1.456780
 20
-2.048732
  0
VERTEX
  8
PLAN_1
  6
CONTINUOUS
 10
-1.455547
 20
-2.059220
  0
VERTEX
  8
PLAN_1
  6
CONTINUOUS
 10
-1.453079
 20
-2.070941
  0
VERTEX
  8
PLAN_1
  6
CONTINUOUS
 10
-1.449992
 20
-2.083280
  0
VERTEX
  8
PLAN_1
  6
CONTINUOUS
 10
-1.445677
 20
-2.096850
  0
VERTEX
  8
PLAN_1
  6
CONTINUOUS
 10
-1.440740
 20
-2.110421
  0
VERTEX
  8
PLAN_1
  6
CONTINUOUS
 10
-1.435807
 20
-2.124610
  0
VERTEX
  8
PLAN_1
  6
CONTINUOUS
 10
-1.429638
 20
-2.138799
  0
VERTEX
  8
PLAN_1
  6
CONTINUOUS
 10
-1.423469
 20
-2.152370
  0
VERTEX
  8
PLAN_1
  6
CONTINUOUS
 10
-1.416681
 20
-2.165323
  0
VERTEX
  8
PLAN_1
  6
CONTINUOUS
 10
-1.409280
 20
-2.177047
  0
VERTEX
  8
PLAN_1
  6
CONTINUOUS
 10
-1.402492
 20
-2.188150
  0
VERTEX
  8
PLAN_1
  6
CONTINUOUS
 10
-1.395091
 20
-2.197402
  0
VERTEX
  8
PLAN_1
  6
CONTINUOUS
 10
-1.391390
 20
-2.201720
  0
VERTEX
  8
PLAN_1
  6
CONTINUOUS
 10
-1.388307
 20
-2.205421
  0
VERTEX
  8
PLAN_1
  6
CONTINUOUS
 10
-1.384602
 20
-2.208508
  0
VERTEX
  8
PLAN_1
  6
CONTINUOUS
 10
-1.380902
 20
-2.211591
  0
VERTEX
  8
PLAN_1
  6
CONTINUOUS
 10
-1.377819
 20
-2.213441
  0
VERTEX
  8
PLAN_1
  6
CONTINUOUS
 10
-1.374732
 20
-2.215291
  0
VERTEX
  8
PLAN_1
  6
CONTINUOUS
 10
-1.371650
 20
-2.215909
  0
VERTEX
  8
PLAN_1
  6
CONTINUOUS
 10
-1.368563
 20
-2.216528
  0
SEQEND
  8
0
  0
POLYLINE
  8
PLAN_1
  6
CONTINUOUS
 66
     1
 40
0.008634
 41
0.008634
  0
VERTEX
  8
PLAN_1
  6
CONTINUOUS
 10
-1.368563
 20
-2.216528
  0
VERTEX
  8
PLAN_1
  6
CONTINUOUS
 10
-1.291453
 20
-2.216528
  0
VERTEX
  8
PLAN_1
  6
CONTINUOUS
 10
-1.291453
 20
-1.820488
  0
VERTEX
  8
PLAN_1
  6
CONTINUOUS
 10
-1.368563
 20
-1.820488
  0
SEQEND
  8
0
  0
POLYLINE
  8
PLAN_1
  6
CONTINUOUS
 66
     1
 40
0.008634
 41
0.008634
  0
VERTEX
  8
PLAN_1
  6
CONTINUOUS
 10
0.454941
 20
0.206591
  0
VERTEX
  8
PLAN_1
  6
CONTINUOUS
 10
0.458028
 20
0.205972
  0
VERTEX
  8
PLAN_1
  6
CONTINUOUS
 10
0.461728
 20
0.204740
  0
VERTEX
  8
PLAN_1
  6
CONTINUOUS
 10
0.464811
 20
0.203508
  0
VERTEX
  8
PLAN_1
  6
CONTINUOUS
 10
0.468512
 20
0.201039
  0
VERTEX
  8
PLAN_1
  6
CONTINUOUS
 10
0.472213
 20
0.198571
  0
VERTEX
  8
PLAN_1
  6
CONTINUOUS
 10
0.475917
 20
0.195488
  0
VERTEX
  8
PLAN_1
  6
CONTINUOUS
 10
0.479618
 20
0.191787
  0
VERTEX
  8
PLAN_1
  6
CONTINUOUS
 10
0.483319
 20
0.187469
  0
VERTEX
  8
PLAN_1
  6
CONTINUOUS
 10
0.490102
 20
0.177598
  0
VERTEX
  8
PLAN_1
  6
CONTINUOUS
 10
0.497508
 20
0.167110
  0
VERTEX
  8
PLAN_1
  6
CONTINUOUS
 10
0.504291
 20
0.154772
  0
VERTEX
  8
PLAN_1
  6
CONTINUOUS
 10
0.511079
 20
0.141819
  0
VERTEX
  8
PLAN_1
  6
CONTINUOUS
 10
0.517248
 20
0.127630
  0
VERTEX
  8
PLAN_1
  6
CONTINUOUS
 10
0.522799
 20
0.114059
  0
VERTEX
  8
PLAN_1
  6
CONTINUOUS
 10
0.527732
 20
0.099252
  0
VERTEX
  8
PLAN_1
  6
CONTINUOUS
 10
0.532669
 20
0.085681
  0
VERTEX
  8
PLAN_1
  6
CONTINUOUS
 10
0.536370
 20
0.071492
  0
VERTEX
  8
PLAN_1
  6
CONTINUOUS
 10
0.539453
 20
0.058539
  0
VERTEX
  8
PLAN_1
  6
CONTINUOUS
 10
0.541307
 20
0.046201
  0
VERTEX
  8
PLAN_1
  6
CONTINUOUS
 10
0.542539
 20
0.035098
  0
SEQEND
  8
0
  0
POLYLINE
  8
PLAN_1
  6
CONTINUOUS
 66
     1
 40
0.008634
 41
0.008634
  0
VERTEX
  8
PLAN_1
  6
CONTINUOUS
 10
0.542539
 20
0.035098
  0
VERTEX
  8
PLAN_1
  6
CONTINUOUS
 10
0.462961
 20
0.035098
  0
VERTEX
  8
PLAN_1
  6
CONTINUOUS
 10
0.462961
 20
-0.022272
  0
VERTEX
  8
PLAN_1
  6
CONTINUOUS
 10
0.542539
 20
-0.022272
  0
SEQEND
  8
0
  0
POLYLINE
  8
PLAN_1
  6
CONTINUOUS
 66
     1
 40
0.008634
 41
0.008634
  0
VERTEX
  8
PLAN_1
  6
CONTINUOUS
 10
0.542539
 20
-0.022272
  0
VERTEX
  8
PLAN_1
  6
CONTINUOUS
 10
0.541307
 20
-0.032760
  0
VERTEX
  8
PLAN_1
  6
CONTINUOUS
 10
0.539453
 20
-0.044480
  0
VERTEX
  8
PLAN_1
  6
CONTINUOUS
 10
0.536370
 20
-0.056819
  0
VERTEX
  8
PLAN_1
  6
CONTINUOUS
 10
0.532051
 20
-0.070390
  0
VERTEX
  8
PLAN_1
  6
CONTINUOUS
 10
0.527118
 20
-0.083961
  0
VERTEX
  8
PLAN_1
  6
CONTINUOUS
 10
0.521563
 20
-0.098150
  0
VERTEX
  8
PLAN_1
  6
CONTINUOUS
 10
0.516012
 20
-0.112339
  0
VERTEX
  8
PLAN_1
  6
CONTINUOUS
 10
0.509228
 20
-0.125291
  0
VERTEX
  8
PLAN_1
  6
CONTINUOUS
 10
0.502441
 20
-0.138248
  0
VERTEX
  8
PLAN_1
  6
CONTINUOUS
 10
0.495657
 20
-0.150583
  0
VERTEX
  8
PLAN_1
  6
CONTINUOUS
 10
0.488252
 20
-0.161689
  0
VERTEX
  8
PLAN_1
  6
CONTINUOUS
 10
0.481469
 20
-0.170941
  0
VERTEX
  8
PLAN_1
  6
CONTINUOUS
 10
0.477768
 20
-0.175260
  0
VERTEX
  8
PLAN_1
  6
CONTINUOUS
 10
0.474063
 20
-0.178961
  0
VERTEX
  8
PLAN_1
  6
CONTINUOUS
 10
0.470980
 20
-0.182047
  0
VERTEX
  8
PLAN_1
  6
CONTINUOUS
 10
0.467280
 20
-0.185130
  0
VERTEX
  8
PLAN_1
  6
CONTINUOUS
 10
0.464193
 20
-0.186980
  0
VERTEX
  8
PLAN_1
  6
CONTINUOUS
 10
0.461110
 20
-0.188831
  0
VERTEX
  8
PLAN_1
  6
CONTINUOUS
 10
0.457409
 20
-0.189449
  0
VERTEX
  8
PLAN_1
  6
CONTINUOUS
 10
0.454941
 20
-0.190063
  0
SEQEND
  8
0
  0
POLYLINE
  8
PLAN_1
  6
CONTINUOUS
 66
     1
 40
0.008634
 41
0.008634
  0
VERTEX
  8
PLAN_1
  6
CONTINUOUS
 10
0.454941
 20
-0.190063
  0
VERTEX
  8
PLAN_1
  6
CONTINUOUS
 10
0.377831
 20
-0.190063
  0
VERTEX
  8
PLAN_1
  6
CONTINUOUS
 10
0.377831
 20
0.206591
  0
VERTEX
  8
PLAN_1
  6
CONTINUOUS
 10
0.454941
 20
0.206591
  0
SEQEND
  8
0
  0
POLYLINE
  8
PLAN_1
  6
CONTINUOUS
 66
     1
 40
0.008634
 41
0.008634
  0
VERTEX
  8
PLAN_1
  6
CONTINUOUS
 10
0.454941
 20
-1.820488
  0
VERTEX
  8
PLAN_1
  6
CONTINUOUS
 10
0.458028
 20
-1.820488
  0
VERTEX
  8
PLAN_1
  6
CONTINUOUS
 10
0.461728
 20
-1.821720
  0
VERTEX
  8
PLAN_1
  6
CONTINUOUS
 10
0.464811
 20
-1.822953
  0
VERTEX
  8
PLAN_1
  6
CONTINUOUS
 10
0.468512
 20
-1.825421
  0
VERTEX
  8
PLAN_1
  6
CONTINUOUS
 10
0.472213
 20
-1.827890
  0
VERTEX
  8
PLAN_1
  6
CONTINUOUS
 10
0.475917
 20
-1.830972
  0
VERTEX
  8
PLAN_1
  6
CONTINUOUS
 10
0.479618
 20
-1.834677
  0
VERTEX
  8
PLAN_1
  6
CONTINUOUS
 10
0.483319
 20
-1.838992
  0
VERTEX
  8
PLAN_1
  6
CONTINUOUS
 10
0.490102
 20
-1.848862
  0
VERTEX
  8
PLAN_1
  6
CONTINUOUS
 10
0.497508
 20
-1.859969
  0
VERTEX
  8
PLAN_1
  6
CONTINUOUS
 10
0.504291
 20
-1.871689
  0
VERTEX
  8
PLAN_1
  6
CONTINUOUS
 10
0.511079
 20
-1.884642
  0
VERTEX
  8
PLAN_1
  6
CONTINUOUS
 10
0.517248
 20
-1.898831
  0
VERTEX
  8
PLAN_1
  6
CONTINUOUS
 10
0.522799
 20
-1.913020
  0
VERTEX
  8
PLAN_1
  6
CONTINUOUS
 10
0.527732
 20
-1.927209
  0
VERTEX
  8
PLAN_1
  6
CONTINUOUS
 10
0.532669
 20
-1.941398
  0
VERTEX
  8
PLAN_1
  6
CONTINUOUS
 10
0.536370
 20
-1.954969
  0
VERTEX
  8
PLAN_1
  6
CONTINUOUS
 10
0.539453
 20
-1.967921
  0
VERTEX
  8
PLAN_1
  6
CONTINUOUS
 10
0.541307
 20
-1.980260
  0
VERTEX
  8
PLAN_1
  6
CONTINUOUS
 10
0.542539
 20
-1.991362
  0
SEQEND
  8
0
  0
POLYLINE
  8
PLAN_1
  6
CONTINUOUS
 66
     1
 40
0.008634
 41
0.008634
  0
VERTEX
  8
PLAN_1
  6
CONTINUOUS
 10
0.542539
 20
-1.991362
  0
VERTEX
  8
PLAN_1
  6
CONTINUOUS
 10
0.462961
 20
-1.991362
  0
VERTEX
  8
PLAN_1
  6
CONTINUOUS
 10
0.462961
 20
-2.048732
  0
VERTEX
  8
PLAN_1
  6
CONTINUOUS
 10
0.542539
 20
-2.048732
  0
SEQEND
  8
0
  0
POLYLINE
  8
PLAN_1
  6
CONTINUOUS
 66
     1
 40
0.008634
 41
0.008634
  0
VERTEX
  8
PLAN_1
  6
CONTINUOUS
 10
0.542539
 20
-2.048732
  0
VERTEX
  8
PLAN_1
  6
CONTINUOUS
 10
0.541307
 20
-2.059220
  0
VERTEX
  8
PLAN_1
  6
CONTINUOUS
 10
0.539453
 20
-2.070941
  0
VERTEX
  8
PLAN_1
  6
CONTINUOUS
 10
0.536370
 20
-2.083280
  0
VERTEX
  8
PLAN_1
  6
CONTINUOUS
 10
0.532051
 20
-2.096850
  0
VERTEX
  8
PLAN_1
  6
CONTINUOUS
 10
0.527118
 20
-2.110421
  0
VERTEX
  8
PLAN_1
  6
CONTINUOUS
 10
0.521563
 20
-2.124610
  0
VERTEX
  8
PLAN_1
  6
CONTINUOUS
 10
0.516012
 20
-2.138799
  0
VERTEX
  8
PLAN_1
  6
CONTINUOUS
 10
0.509228
 20
-2.152370
  0
VERTEX
  8
PLAN_1
  6
CONTINUOUS
 10
0.502441
 20
-2.165323
  0
VERTEX
  8
PLAN_1
  6
CONTINUOUS
 10
0.495657
 20
-2.177047
  0
VERTEX
  8
PLAN_1
  6
CONTINUOUS
 10
0.488252
 20
-2.188150
  0
VERTEX
  8
PLAN_1
  6
CONTINUOUS
 10
0.481469
 20
-2.197402
  0
VERTEX
  8
PLAN_1
  6
CONTINUOUS
 10
0.477768
 20
-2.201720
  0
VERTEX
  8
PLAN_1
  6
CONTINUOUS
 10
0.474063
 20
-2.205421
  0
VERTEX
  8
PLAN_1
  6
CONTINUOUS
 10
0.470980
 20
-2.208508
  0
VERTEX
  8
PLAN_1
  6
CONTINUOUS
 10
0.467280
 20
-2.211591
  0
VERTEX
  8
PLAN_1
  6
CONTINUOUS
 10
0.464193
 20
-2.213441
  0
VERTEX
  8
PLAN_1
  6
CONTINUOUS
 10
0.461110
 20
-2.215291
  0
VERTEX
  8
PLAN_1
  6
CONTINUOUS
 10
0.457409
 20
-2.215909
  0
VERTEX
  8
PLAN_1
  6
CONTINUOUS
 10
0.454941
 20
-2.216528
  0
SEQEND
  8
0
  0
POLYLINE
  8
PLAN_1
  6
CONTINUOUS
 66
     1
 40
0.008634
 41
0.008634
  0
VERTEX
  8
PLAN_1
  6
CONTINUOUS
 10
0.454941
 20
-2.216528
  0
VERTEX
  8
PLAN_1
  6
CONTINUOUS
 10
0.377831
 20
-2.216528
  0
VERTEX
  8
PLAN_1
  6
CONTINUOUS
 10
0.377831
 20
-1.820488
  0
VERTEX
  8
PLAN_1
  6
CONTINUOUS
 10
0.454941
 20
-1.820488
  0
SEQEND
  8
0
  0
POLYLINE
  8
PLAN_1
  6
CONTINUOUS
 66
     1
 40
0.008634
 41
0.008634
  0
VERTEX
  8
PLAN_1
  6
CONTINUOUS
 10
-1.305028
 20
-0.245583
  0
VERTEX
  8
PLAN_1
  6
CONTINUOUS
 10
-1.456780
 20
-0.255453
  0
SEQEND
  8
0
  0
POLYLINE
  8
PLAN_1
  6
CONTINUOUS
 66
     1
 40
0.008634
 41
0.008634
  0
VERTEX
  8
PLAN_1
  6
CONTINUOUS
 10
-1.456780
 20
-0.255453
  0
VERTEX
  8
PLAN_1
  6
CONTINUOUS
 10
-1.458630
 20
-0.255453
  0
VERTEX
  8
PLAN_1
  6
CONTINUOUS
 10
-1.462331
 20
-0.256071
  0
VERTEX
  8
PLAN_1
  6
CONTINUOUS
 10
-1.467882
 20
-0.257307
  0
VERTEX
  8
PLAN_1
  6
CONTINUOUS
 10
-1.474669
 20
-0.259772
  0
VERTEX
  8
PLAN_1
  6
CONTINUOUS
 10
-1.478370
 20
-0.261008
  0
VERTEX
  8
PLAN_1
  6
CONTINUOUS
 10
-1.482071
 20
-0.262858
  0
VERTEX
  8
PLAN_1
  6
CONTINUOUS
 10
-1.485157
 20
-0.265323
  0
VERTEX
  8
PLAN_1
  6
CONTINUOUS
 10
-1.488858
 20
-0.268409
  0
VERTEX
  8
PLAN_1
  6
CONTINUOUS
 10
-1.492559
 20
-0.271492
  0
VERTEX
  8
PLAN_1
  6
CONTINUOUS
 10
-1.495642
 20
-0.275811
  0
VERTEX
  8
PLAN_1
  6
CONTINUOUS
 10
-1.498110
 20
-0.280130
  0
VERTEX
  8
PLAN_1
  6
CONTINUOUS
 10
-1.500579
 20
-0.285063
  0
SEQEND
  8
0
  0
POLYLINE
  8
PLAN_1
  6
CONTINUOUS
 66
     1
 40
0.008634
 41
0.008634
  0
VERTEX
  8
PLAN_1
  6
CONTINUOUS
 10
-1.311811
 20
0.403992
  0
VERTEX
  8
PLAN_1
  6
CONTINUOUS
 10
-1.311811
 20
0.402760
  0
VERTEX
  8
PLAN_1
  6
CONTINUOUS
 10
-1.312429
 20
0.400909
  0
VERTEX
  8
PLAN_1
  6
CONTINUOUS
 10
-1.313661
 20
0.397209
  0
VERTEX
  8
PLAN_1
  6
CONTINUOUS
 10
-1.316130
 20
0.391657
  0
VERTEX
  8
PLAN_1
  6
CONTINUOUS
 10
-1.319831
 20
0.385488
  0
VERTEX
  8
PLAN_1
  6
CONTINUOUS
 10
-1.326000
 20
0.376850
  0
VERTEX
  8
PLAN_1
  6
CONTINUOUS
 10
-1.334638
 20
0.367598
  0
VERTEX
  8
PLAN_1
  6
CONTINUOUS
 10
-1.346358
 20
0.356492
  0
VERTEX
  8
PLAN_1
  6
CONTINUOUS
 10
-1.364248
 20
0.341071
  0
VERTEX
  8
PLAN_1
  6
CONTINUOUS
 10
-1.386453
 20
0.323799
  0
VERTEX
  8
PLAN_1
  6
CONTINUOUS
 10
-1.411130
 20
0.305291
  0
VERTEX
  8
PLAN_1
  6
CONTINUOUS
 10
-1.435807
 20
0.287402
  0
VERTEX
  8
PLAN_1
  6
CONTINUOUS
 10
-1.459248
 20
0.270130
  0
VERTEX
  8
PLAN_1
  6
CONTINUOUS
 10
-1.478988
 20
0.255941
  0
VERTEX
  8
PLAN_1
  6
CONTINUOUS
 10
-1.493177
 20
0.245453
  0
VERTEX
  8
PLAN_1
  6
CONTINUOUS
 10
-1.500579
 20
0.239287
  0
VERTEX
  8
PLAN_1
  6
CONTINUOUS
 10
-1.502429
 20
0.236819
  0
VERTEX
  8
PLAN_1
  6
CONTINUOUS
 10
-1.504280
 20
0.233732
  0
VERTEX
  8
PLAN_1
  6
CONTINUOUS
 10
-1.505512
 20
0.230650
  0
VERTEX
  8
PLAN_1
  6
CONTINUOUS
 10
-1.506130
 20
0.227563
  0
VERTEX
  8
PLAN_1
  6
CONTINUOUS
 10
-1.506130
 20
0.221398
  0
VERTEX
  8
PLAN_1
  6
CONTINUOUS
 10
-1.505512
 20
0.214610
  0
VERTEX
  8
PLAN_1
  6
CONTINUOUS
 10
-1.503661
 20
0.209059
  0
VERTEX
  8
PLAN_1
  6
CONTINUOUS
 10
-1.502429
 20
0.204122
  0
VERTEX
  8
PLAN_1
  6
CONTINUOUS
 10
-1.501193
 20
0.201039
  0
VERTEX
  8
PLAN_1
  6
CONTINUOUS
 10
-1.500579
 20
0.200421
  0
SEQEND
  8
0
  0
POLYLINE
  8
PLAN_1
  6
CONTINUOUS
 66
     1
 40
0.008634
 41
0.008634
  0
VERTEX
  8
PLAN_1
  6
CONTINUOUS
 10
-1.315512
 20
-2.361492
  0
VERTEX
  8
PLAN_1
  6
CONTINUOUS
 10
-1.315512
 20
-2.360878
  0
VERTEX
  8
PLAN_1
  6
CONTINUOUS
 10
-1.316130
 20
-2.358409
  0
VERTEX
  8
PLAN_1
  6
CONTINUOUS
 10
-1.317362
 20
-2.354709
  0
VERTEX
  8
PLAN_1
  6
CONTINUOUS
 10
-1.319213
 20
-2.349772
  0
VERTEX
  8
PLAN_1
  6
CONTINUOUS
 10
-1.323531
 20
-2.342988
  0
VERTEX
  8
PLAN_1
  6
CONTINUOUS
 10
-1.329701
 20
-2.334969
  0
VERTEX
  8
PLAN_1
  6
CONTINUOUS
 10
-1.338339
 20
-2.325098
  0
VERTEX
  8
PLAN_1
  6
CONTINUOUS
 10
-1.349441
 20
-2.313992
  0
VERTEX
  8
PLAN_1
  6
CONTINUOUS
 10
-1.367949
 20
-2.298571
  0
VERTEX
  8
PLAN_1
  6
CONTINUOUS
 10
-1.389539
 20
-2.281299
  0
VERTEX
  8
PLAN_1
  6
CONTINUOUS
 10
-1.413598
 20
-2.262791
  0
VERTEX
  8
PLAN_1
  6
CONTINUOUS
 10
-1.437657
 20
-2.244902
  0
VERTEX
  8
PLAN_1
  6
CONTINUOUS
 10
-1.460480
 20
-2.227630
  0
VERTEX
  8
PLAN_1
  6
CONTINUOUS
 10
-1.479602
 20
-2.213441
  0
VERTEX
  8
PLAN_1
  6
CONTINUOUS
 10
-1.493791
 20
-2.202953
  0
VERTEX
  8
PLAN_1
  6
CONTINUOUS
 10
-1.500579
 20
-2.197402
  0
VERTEX
  8
PLAN_1
  6
CONTINUOUS
 10
-1.502429
 20
-2.194319
  0
VERTEX
  8
PLAN_1
  6
CONTINUOUS
 10
-1.504280
 20
-2.191850
  0
VERTEX
  8
PLAN_1
  6
CONTINUOUS
 10
-1.505512
 20
-2.188768
  0
VERTEX
  8
PLAN_1
  6
CONTINUOUS
 10
-1.506130
 20
-2.185063
  0
VERTEX
  8
PLAN_1
  6
CONTINUOUS
 10
-1.506130
 20
-2.178898
  0
VERTEX
  8
PLAN_1
  6
CONTINUOUS
 10
-1.505512
 20
-2.172110
  0
VERTEX
  8
PLAN_1
  6
CONTINUOUS
 10
-1.503661
 20
-2.166559
  0
VERTEX
  8
PLAN_1
  6
CONTINUOUS
 10
-1.502429
 20
-2.162240
  0
VERTEX
  8
PLAN_1
  6
CONTINUOUS
 10
-1.501193
 20
-2.159157
  0
VERTEX
  8
PLAN_1
  6
CONTINUOUS
 10
-1.500579
 20
-2.157921
  0
SEQEND
  8
0
  0
POLYLINE
  8
PLAN_1
  6
CONTINUOUS
 66
     1
 40
0.008634
 41
0.008634
  0
VERTEX
  8
PLAN_1
  6
CONTINUOUS
 10
-1.301323
 20
-1.771138
  0
VERTEX
  8
PLAN_1
  6
CONTINUOUS
 10
-1.453693
 20
-1.761882
  0
SEQEND
  8
0
  0
POLYLINE
  8
PLAN_1
  6
CONTINUOUS
 66
     1
 40
0.008634
 41
0.008634
  0
VERTEX
  8
PLAN_1
  6
CONTINUOUS
 10
-1.453693
 20
-1.761882
  0
VERTEX
  8
PLAN_1
  6
CONTINUOUS
 10
-1.454929
 20
-1.761268
  0
VERTEX
  8
PLAN_1
  6
CONTINUOUS
 10
-1.459248
 20
-1.761268
  0
VERTEX
  8
PLAN_1
  6
CONTINUOUS
 10
-1.465417
 20
-1.760031
  0
VERTEX
  8
PLAN_1
  6
CONTINUOUS
 10
-1.472819
 20
-1.757563
  0
VERTEX
  8
PLAN_1
  6
CONTINUOUS
 10
-1.476520
 20
-1.755713
  0
VERTEX
  8
PLAN_1
  6
CONTINUOUS
 10
-1.480839
 20
-1.753862
  0
VERTEX
  8
PLAN_1
  6
CONTINUOUS
 10
-1.484539
 20
-1.751398
  0
VERTEX
  8
PLAN_1
  6
CONTINUOUS
 10
-1.488240
 20
-1.748929
  0
VERTEX
  8
PLAN_1
  6
CONTINUOUS
 10
-1.491941
 20
-1.745228
  0
VERTEX
  8
PLAN_1
  6
CONTINUOUS
 10
-1.495028
 20
-1.741528
  0
VERTEX
  8
PLAN_1
  6
CONTINUOUS
 10
-1.498110
 20
-1.737209
  0
VERTEX
  8
PLAN_1
  6
CONTINUOUS
 10
-1.500579
 20
-1.731657
  0
SEQEND
  8
0
  0
POLYLINE
  8
PLAN_1
  6
CONTINUOUS
 66
     1
 40
0.008634
 41
0.008634
  0
VERTEX
  8
PLAN_1
  6
CONTINUOUS
 10
-1.500579
 20
-0.744642
  0
VERTEX
  8
PLAN_1
  6
CONTINUOUS
 10
-1.500579
 20
0.681591
  0
VERTEX
  8
PLAN_1
  6
CONTINUOUS
 10
-1.598661
 20
0.681591
  0
VERTEX
  8
PLAN_1
  6
CONTINUOUS
 10
-1.598661
 20
-0.744642
  0
VERTEX
  8
PLAN_1
  6
CONTINUOUS
 10
-1.500579
 20
-0.744642
  0
SEQEND
  8
0
  0
POLYLINE
  8
PLAN_1
  6
CONTINUOUS
 66
     1
 40
0.008634
 41
0.008634
  0
VERTEX
  8
PLAN_1
  6
CONTINUOUS
 10
-2.268598
 20
-0.211039
  0
VERTEX
  8
PLAN_1
  6
CONTINUOUS
 10
-2.266748
 20
-0.211039
  0
VERTEX
  8
PLAN_1
  6
CONTINUOUS
 10
-2.263047
 20
-0.211657
  0
VERTEX
  8
PLAN_1
  6
CONTINUOUS
 10
-2.258110
 20
-0.212890
  0
VERTEX
  8
PLAN_1
  6
CONTINUOUS
 10
-2.251941
 20
-0.215972
  0
VERTEX
  8
PLAN_1
  6
CONTINUOUS
 10
-2.248240
 20
-0.217823
  0
VERTEX
  8
PLAN_1
  6
CONTINUOUS
 10
-2.245157
 20
-0.220291
  0
VERTEX
  8
PLAN_1
  6
CONTINUOUS
 10
-2.242689
 20
-0.223378
  0
VERTEX
  8
PLAN_1
  6
CONTINUOUS
 10
-2.239602
 20
-0.226461
  0
VERTEX
  8
PLAN_1
  6
CONTINUOUS
 10
-2.237138
 20
-0.230780
  0
VERTEX
  8
PLAN_1
  6
CONTINUOUS
 10
-2.235287
 20
-0.235713
  0
VERTEX
  8
PLAN_1
  6
CONTINUOUS
 10
-2.234051
 20
-0.241268
  0
VERTEX
  8
PLAN_1
  6
CONTINUOUS
 10
-2.233437
 20
-0.248051
  0
SEQEND
  8
0
  0
POLYLINE
  8
PLAN_1
  6
CONTINUOUS
 66
     1
 40
0.005551
 41
0.005551
  0
VERTEX
  8
PLAN_1
  6
CONTINUOUS
 10
-2.172980
 20
-0.864937
  0
VERTEX
  8
PLAN_1
  6
CONTINUOUS
 10
-2.172980
 20
-0.840260
  0
VERTEX
  8
PLAN_1
  6
CONTINUOUS
 10
-2.172980
 20
-0.774252
  0
VERTEX
  8
PLAN_1
  6
CONTINUOUS
 10
-2.172980
 20
-0.680488
  0
VERTEX
  8
PLAN_1
  6
CONTINUOUS
 10
-2.172980
 20
-0.570681
  0
VERTEX
  8
PLAN_1
  6
CONTINUOUS
 10
-2.172980
 20
-0.458409
  0
VERTEX
  8
PLAN_1
  6
CONTINUOUS
 10
-2.172980
 20
-0.355390
  0
VERTEX
  8
PLAN_1
  6
CONTINUOUS
 10
-2.172980
 20
-0.275193
  0
VERTEX
  8
PLAN_1
  6
CONTINUOUS
 10
-2.172980
 20
-0.230161
  0
VERTEX
  8
PLAN_1
  6
CONTINUOUS
 10
-2.173598
 20
-0.225228
  0
VERTEX
  8
PLAN_1
  6
CONTINUOUS
 10
-2.174213
 20
-0.219677
  0
VERTEX
  8
PLAN_1
  6
CONTINUOUS
 10
-2.174831
 20
-0.214740
  0
VERTEX
  8
PLAN_1
  6
CONTINUOUS
 10
-2.176063
 20
-0.209807
  0
VERTEX
  8
PLAN_1
  6
CONTINUOUS
 10
-2.179150
 20
-0.201169
  0
VERTEX
  8
PLAN_1
  6
CONTINUOUS
 10
-2.182850
 20
-0.193150
  0
VERTEX
  8
PLAN_1
  6
CONTINUOUS
 10
-2.187169
 20
-0.185748
  0
VERTEX
  8
PLAN_1
  6
CONTINUOUS
 10
-2.192720
 20
-0.179579
  0
VERTEX
  8
PLAN_1
  6
CONTINUOUS
 10
-2.198272
 20
-0.174028
  0
VERTEX
  8
PLAN_1
  6
CONTINUOUS
 10
-2.203823
 20
-0.169091
  0
VERTEX
  8
PLAN_1
  6
CONTINUOUS
 10
-2.209378
 20
-0.164772
  0
VERTEX
  8
PLAN_1
  6
CONTINUOUS
 10
-2.214929
 20
-0.161071
  0
VERTEX
  8
PLAN_1
  6
CONTINUOUS
 10
-2.220480
 20
-0.157988
  0
VERTEX
  8
PLAN_1
  6
CONTINUOUS
 10
-2.224799
 20
-0.155520
  0
VERTEX
  8
PLAN_1
  6
CONTINUOUS
 10
-2.231583
 20
-0.152437
  0
VERTEX
  8
PLAN_1
  6
CONTINUOUS
 10
-2.234669
 20
-0.151819
  0
VERTEX
  8
PLAN_1
  6
CONTINUOUS
 10
-2.239602
 20
-0.151819
  0
VERTEX
  8
PLAN_1
  6
CONTINUOUS
 10
-2.252559
 20
-0.151819
  0
VERTEX
  8
PLAN_1
  6
CONTINUOUS
 10
-2.271681
 20
-0.151819
  0
VERTEX
  8
PLAN_1
  6
CONTINUOUS
 10
-2.295122
 20
-0.151819
  0
VERTEX
  8
PLAN_1
  6
CONTINUOUS
 10
-2.319181
 20
-0.151819
  0
VERTEX
  8
PLAN_1
  6
CONTINUOUS
 10
-2.342622
 20
-0.151819
  0
VERTEX
  8
PLAN_1
  6
CONTINUOUS
 10
-2.362980
 20
-0.151819
  0
VERTEX
  8
PLAN_1
  6
CONTINUOUS
 10
-2.377787
 20
-0.151819
  0
VERTEX
  8
PLAN_1
  6
CONTINUOUS
 10
-2.382720
 20
-0.151819
  0
VERTEX
  8
PLAN_1
  6
CONTINUOUS
 10
-2.387039
 20
-0.151201
  0
VERTEX
  8
PLAN_1
  6
CONTINUOUS
 10
-2.390740
 20
-0.149969
  0
VERTEX
  8
PLAN_1
  6
CONTINUOUS
 10
-2.393823
 20
-0.148732
  0
VERTEX
  8
PLAN_1
  6
CONTINUOUS
 10
-2.396291
 20
-0.147500
  0
VERTEX
  8
PLAN_1
  6
CONTINUOUS
 10
-2.398760
 20
-0.145650
  0
VERTEX
  8
PLAN_1
  6
CONTINUOUS
 10
-2.399992
 20
-0.143799
  0
VERTEX
  8
PLAN_1
  6
CONTINUOUS
 10
-2.401228
 20
-0.141949
  0
VERTEX
  8
PLAN_1
  6
CONTINUOUS
 10
-2.402461
 20
-0.138862
  0
VERTEX
  8
PLAN_1
  6
CONTINUOUS
 10
-2.402461
 20
-0.135780
  0
VERTEX
  8
PLAN_1
  6
CONTINUOUS
 10
-2.402461
 20
-0.133311
  0
VERTEX
  8
PLAN_1
  6
CONTINUOUS
 10
-2.401843
 20
-0.132693
  0
VERTEX
  8
PLAN_1
  6
CONTINUOUS
 10
-2.401843
 20
-0.125291
  0
VERTEX
  8
PLAN_1
  6
CONTINUOUS
 10
-2.401843
 20
-0.106787
  0
VERTEX
  8
PLAN_1
  6
CONTINUOUS
 10
-2.401843
 20
-0.079642
  0
VERTEX
  8
PLAN_1
  6
CONTINUOUS
 10
-2.401843
 20
-0.048181
  0
VERTEX
  8
PLAN_1
  6
CONTINUOUS
 10
-2.401843
 20
-0.014870
  0
VERTEX
  8
PLAN_1
  6
CONTINUOUS
 10
-2.401843
 20
0.017209
  0
VERTEX
  8
PLAN_1
  6
CONTINUOUS
 10
-2.401843
 20
0.043732
  0
VERTEX
  8
PLAN_1
  6
CONTINUOUS
 10
-2.401843
 20
0.061622
  0
VERTEX
  8
PLAN_1
  6
CONTINUOUS
 10
-2.401843
 20
0.067177
  0
VERTEX
  8
PLAN_1
  6
CONTINUOUS
 10
-2.401228
 20
0.072110
  0
VERTEX
  8
PLAN_1
  6
CONTINUOUS
 10
-2.399992
 20
0.075811
  0
VERTEX
  8
PLAN_1
  6
CONTINUOUS
 10
-2.398142
 20
0.079512
  0
VERTEX
  8
PLAN_1
  6
CONTINUOUS
 10
-2.396291
 20
0.081980
  0
VERTEX
  8
PLAN_1
  6
CONTINUOUS
 10
-2.393823
 20
0.083831
  0
VERTEX
  8
PLAN_1
  6
CONTINUOUS
 10
-2.391358
 20
0.085063
  0
VERTEX
  8
PLAN_1
  6
CONTINUOUS
 10
-2.388890
 20
0.086299
  0
VERTEX
  8
PLAN_1
  6
CONTINUOUS
 10
-2.383953
 20
0.086917
  0
VERTEX
  8
PLAN_1
  6
CONTINUOUS
 10
-2.380252
 20
0.086917
  0
VERTEX
  8
PLAN_1
  6
CONTINUOUS
 10
-2.377169
 20
0.086299
  0
VERTEX
  8
PLAN_1
  6
CONTINUOUS
 10
-2.375937
 20
0.085681
  0
VERTEX
  8
PLAN_1
  6
CONTINUOUS
 10
-2.371618
 20
0.085681
  0
VERTEX
  8
PLAN_1
  6
CONTINUOUS
 10
-2.359898
 20
0.085681
  0
VERTEX
  8
PLAN_1
  6
CONTINUOUS
 10
-2.342622
 20
0.085681
  0
VERTEX
  8
PLAN_1
  6
CONTINUOUS
 10
-2.321650
 20
0.085681
  0
VERTEX
  8
PLAN_1
  6
CONTINUOUS
 10
-2.298209
 20
0.085681
  0
VERTEX
  8
PLAN_1
  6
CONTINUOUS
 10
-2.274768
 20
0.085681
  0
VERTEX
  8
PLAN_1
  6
CONTINUOUS
 10
-2.253177
 20
0.085681
  0
VERTEX
  8
PLAN_1
  6
CONTINUOUS
 10
-2.234669
 20
0.085681
  0
VERTEX
  8
PLAN_1
  6
CONTINUOUS
 10
-2.230350
 20
0.086299
  0
VERTEX
  8
PLAN_1
  6
CONTINUOUS
 10
-2.226650
 20
0.086299
  0
VERTEX
  8
PLAN_1
  6
CONTINUOUS
 10
-2.222949
 20
0.087531
  0
VERTEX
  8
PLAN_1
  6
CONTINUOUS
 10
-2.219248
 20
0.088768
  0
VERTEX
  8
PLAN_1
  6
CONTINUOUS
 10
-2.212461
 20
0.091850
  0
VERTEX
  8
PLAN_1
  6
CONTINUOUS
 10
-2.206291
 20
0.096169
  0
VERTEX
  8
PLAN_1
  6
CONTINUOUS
 10
-2.200740
 20
0.101102
  0
VERTEX
  8
PLAN_1
  6
CONTINUOUS
 10
-2.195807
 20
0.106657
  0
VERTEX
  8
PLAN_1
  6
CONTINUOUS
 10
-2.191488
 20
0.112209
  0
VERTEX
  8
PLAN_1
  6
CONTINUOUS
 10
-2.187169
 20
0.118378
  0
VERTEX
  8
PLAN_1
  6
CONTINUOUS
 10
-2.181000
 20
0.130713
  0
VERTEX
  8
PLAN_1
  6
CONTINUOUS
 10
-2.176681
 20
0.141201
  0
VERTEX
  8
PLAN_1
  6
CONTINUOUS
 10
-2.174213
 20
0.148602
  0
VERTEX
  8
PLAN_1
  6
CONTINUOUS
 10
-2.172980
 20
0.151689
  0
SEQEND
  8
0
  0
POLYLINE
  8
PLAN_1
  6
CONTINUOUS
 66
     1
 40
0.005551
 41
0.005551
  0
VERTEX
  8
PLAN_1
  6
CONTINUOUS
 10
-2.172980
 20
0.151689
  0
VERTEX
  8
PLAN_1
  6
CONTINUOUS
 10
-2.172980
 20
0.798799
  0
VERTEX
  8
PLAN_1
  6
CONTINUOUS
 10
-2.234669
 20
0.798799
  0
VERTEX
  8
PLAN_1
  6
CONTINUOUS
 10
-2.234669
 20
0.183768
  0
SEQEND
  8
0
  0
POLYLINE
  8
PLAN_1
  6
CONTINUOUS
 66
     1
 40
0.005551
 41
0.005551
  0
VERTEX
  8
PLAN_1
  6
CONTINUOUS
 10
-2.234669
 20
0.183768
  0
VERTEX
  8
PLAN_1
  6
CONTINUOUS
 10
-2.234669
 20
0.181917
  0
VERTEX
  8
PLAN_1
  6
CONTINUOUS
 10
-2.236520
 20
0.177598
  0
VERTEX
  8
PLAN_1
  6
CONTINUOUS
 10
-2.239602
 20
0.171429
  0
VERTEX
  8
PLAN_1
  6
CONTINUOUS
 10
-2.243921
 20
0.164642
  0
VERTEX
  8
PLAN_1
  6
CONTINUOUS
 10
-2.247008
 20
0.160941
  0
VERTEX
  8
PLAN_1
  6
CONTINUOUS
 10
-2.250091
 20
0.157240
  0
VERTEX
  8
PLAN_1
  6
CONTINUOUS
 10
-2.253791
 20
0.154157
  0
VERTEX
  8
PLAN_1
  6
CONTINUOUS
 10
-2.258110
 20
0.151071
  0
VERTEX
  8
PLAN_1
  6
CONTINUOUS
 10
-2.262429
 20
0.148602
  0
VERTEX
  8
PLAN_1
  6
CONTINUOUS
 10
-2.267980
 20
0.146752
  0
VERTEX
  8
PLAN_1
  6
CONTINUOUS
 10
-2.273531
 20
0.145520
  0
VERTEX
  8
PLAN_1
  6
CONTINUOUS
 10
-2.279701
 20
0.145520
  0
VERTEX
  8
PLAN_1
  6
CONTINUOUS
 10
-2.295122
 20
0.145520
  0
VERTEX
  8
PLAN_1
  6
CONTINUOUS
 10
-2.313630
 20
0.145520
  0
VERTEX
  8
PLAN_1
  6
CONTINUOUS
 10
-2.333988
 20
0.145520
  0
VERTEX
  8
PLAN_1
  6
CONTINUOUS
 10
-2.354343
 20
0.145520
  0
VERTEX
  8
PLAN_1
  6
CONTINUOUS
 10
-2.372850
 20
0.145520
  0
VERTEX
  8
PLAN_1
  6
CONTINUOUS
 10
-2.387657
 20
0.145520
  0
VERTEX
  8
PLAN_1
  6
CONTINUOUS
 10
-2.398142
 20
0.145520
  0
VERTEX
  8
PLAN_1
  6
CONTINUOUS
 10
-2.401843
 20
0.145520
  0
VERTEX
  8
PLAN_1
  6
CONTINUOUS
 10
-2.404929
 20
0.144902
  0
VERTEX
  8
PLAN_1
  6
CONTINUOUS
 10
-2.411713
 20
0.143051
  0
VERTEX
  8
PLAN_1
  6
CONTINUOUS
 10
-2.416031
 20
0.141819
  0
VERTEX
  8
PLAN_1
  6
CONTINUOUS
 10
-2.420969
 20
0.140583
  0
VERTEX
  8
PLAN_1
  6
CONTINUOUS
 10
-2.426520
 20
0.138118
  0
VERTEX
  8
PLAN_1
  6
CONTINUOUS
 10
-2.432071
 20
0.135031
  0
VERTEX
  8
PLAN_1
  6
CONTINUOUS
 10
-2.437622
 20
0.131949
  0
VERTEX
  8
PLAN_1
  6
CONTINUOUS
 10
-2.442559
 20
0.127630
  0
VERTEX
  8
PLAN_1
  6
CONTINUOUS
 10
-2.447492
 20
0.122693
  0
VERTEX
  8
PLAN_1
  6
CONTINUOUS
 10
-2.452429
 20
0.117142
  0
VERTEX
  8
PLAN_1
  6
CONTINUOUS
 10
-2.456130
 20
0.110972
  0
VERTEX
  8
PLAN_1
  6
CONTINUOUS
 10
-2.459213
 20
0.103571
  0
VERTEX
  8
PLAN_1
  6
CONTINUOUS
 10
-2.459831
 20
0.099252
  0
VERTEX
  8
PLAN_1
  6
CONTINUOUS
 10
-2.461063
 20
0.094937
  0
VERTEX
  8
PLAN_1
  6
CONTINUOUS
 10
-2.461063
 20
0.090618
  0
VERTEX
  8
PLAN_1
  6
CONTINUOUS
 10
-2.461681
 20
0.085681
  0
VERTEX
  8
PLAN_1
  6
CONTINUOUS
 10
-2.461681
 20
0.060390
  0
VERTEX
  8
PLAN_1
  6
CONTINUOUS
 10
-2.461681
 20
0.026461
  0
VERTEX
  8
PLAN_1
  6
CONTINUOUS
 10
-2.461681
 20
-0.012402
  0
VERTEX
  8
PLAN_1
  6
CONTINUOUS
 10
-2.461681
 20
-0.052500
  0
VERTEX
  8
PLAN_1
  6
CONTINUOUS
 10
-2.461681
 20
-0.090130
  0
VERTEX
  8
PLAN_1
  6
CONTINUOUS
 10
-2.461681
 20
-0.122209
  0
VERTEX
  8
PLAN_1
  6
CONTINUOUS
 10
-2.461681
 20
-0.143799
  0
VERTEX
  8
PLAN_1
  6
CONTINUOUS
 10
-2.461681
 20
-0.151819
  0
VERTEX
  8
PLAN_1
  6
CONTINUOUS
 10
-2.461063
 20
-0.154287
  0
VERTEX
  8
PLAN_1
  6
CONTINUOUS
 10
-2.459213
 20
-0.161071
  0
VERTEX
  8
PLAN_1
  6
CONTINUOUS
 10
-2.457362
 20
-0.165390
  0
VERTEX
  8
PLAN_1
  6
CONTINUOUS
 10
-2.455512
 20
-0.170323
  0
VERTEX
  8
PLAN_1
  6
CONTINUOUS
 10
-2.453047
 20
-0.175878
  0
VERTEX
  8
PLAN_1
  6
CONTINUOUS
 10
-2.449961
 20
-0.181429
  0
VERTEX
  8
PLAN_1
  6
CONTINUOUS
 10
-2.446878
 20
-0.186980
  0
VERTEX
  8
PLAN_1
  6
CONTINUOUS
 10
-2.442559
 20
-0.192531
  0
VERTEX
  8
PLAN_1
  6
CONTINUOUS
 10
-2.437622
 20
-0.197469
  0
VERTEX
  8
PLAN_1
  6
CONTINUOUS
 10
-2.432071
 20
-0.201787
  0
VERTEX
  8
PLAN_1
  6
CONTINUOUS
 10
-2.425902
 20
-0.205488
  0
VERTEX
  8
PLAN_1
  6
CONTINUOUS
 10
-2.418500
 20
-0.208571
  0
VERTEX
  8
PLAN_1
  6
CONTINUOUS
 10
-2.414799
 20
-0.209807
  0
VERTEX
  8
PLAN_1
  6
CONTINUOUS
 10
-2.411098
 20
-0.210421
  0
VERTEX
  8
PLAN_1
  6
CONTINUOUS
 10
-2.406780
 20
-0.211039
  0
VERTEX
  8
PLAN_1
  6
CONTINUOUS
 10
-2.401843
 20
-0.211039
  0
VERTEX
  8
PLAN_1
  6
CONTINUOUS
 10
-2.382102
 20
-0.211039
  0
VERTEX
  8
PLAN_1
  6
CONTINUOUS
 10
-2.360512
 20
-0.211039
  0
VERTEX
  8
PLAN_1
  6
CONTINUOUS
 10
-2.338307
 20
-0.211039
  0
VERTEX
  8
PLAN_1
  6
CONTINUOUS
 10
-2.317331
 20
-0.211039
  0
VERTEX
  8
PLAN_1
  6
CONTINUOUS
 10
-2.298209
 20
-0.211039
  0
VERTEX
  8
PLAN_1
  6
CONTINUOUS
 10
-2.283402
 20
-0.211039
  0
VERTEX
  8
PLAN_1
  6
CONTINUOUS
 10
-2.272917
 20
-0.211039
  0
VERTEX
  8
PLAN_1
  6
CONTINUOUS
 10
-2.269213
 20
-0.211039
  0
VERTEX
  8
PLAN_1
  6
CONTINUOUS
 10
-2.267980
 20
-0.211039
  0
VERTEX
  8
PLAN_1
  6
CONTINUOUS
 10
-2.264280
 20
-0.211657
  0
VERTEX
  8
PLAN_1
  6
CONTINUOUS
 10
-2.258728
 20
-0.212890
  0
VERTEX
  8
PLAN_1
  6
CONTINUOUS
 10
-2.252559
 20
-0.215972
  0
VERTEX
  8
PLAN_1
  6
CONTINUOUS
 10
-2.249472
 20
-0.217823
  0
VERTEX
  8
PLAN_1
  6
CONTINUOUS
 10
-2.246390
 20
-0.220291
  0
VERTEX
  8
PLAN_1
  6
CONTINUOUS
 10
-2.243307
 20
-0.223378
  0
VERTEX
  8
PLAN_1
  6
CONTINUOUS
 10
-2.240839
 20
-0.226461
  0
VERTEX
  8
PLAN_1
  6
CONTINUOUS
 10
-2.238370
 20
-0.230780
  0
VERTEX
  8
PLAN_1
  6
CONTINUOUS
 10
-2.236520
 20
-0.235713
  0
VERTEX
  8
PLAN_1
  6
CONTINUOUS
 10
-2.235287
 20
-0.241268
  0
VERTEX
  8
PLAN_1
  6
CONTINUOUS
 10
-2.234669
 20
-0.248051
  0
SEQEND
  8
0
  0
POLYLINE
  8
PLAN_1
  6
CONTINUOUS
 66
     1
 40
0.005551
 41
0.005551
  0
VERTEX
  8
PLAN_1
  6
CONTINUOUS
 10
-2.234669
 20
-0.248051
  0
VERTEX
  8
PLAN_1
  6
CONTINUOUS
 10
-2.234669
 20
-0.864937
  0
VERTEX
  8
PLAN_1
  6
CONTINUOUS
 10
-2.172980
 20
-0.864937
  0
SEQEND
  8
0
  0
POLYLINE
  8
PLAN_1
  6
CONTINUOUS
 66
     1
 40
0.008634
 41
0.008634
  0
VERTEX
  8
PLAN_1
  6
CONTINUOUS
 10
-2.172362
 20
0.798799
  0
VERTEX
  8
PLAN_1
  6
CONTINUOUS
 10
-1.906488
 20
0.878992
  0
VERTEX
  8
PLAN_1
  6
CONTINUOUS
 10
-1.598047
 20
0.878992
  0
VERTEX
  8
PLAN_1
  6
CONTINUOUS
 10
-1.598047
 20
-0.943280
  0
VERTEX
  8
PLAN_1
  6
CONTINUOUS
 10
-1.906488
 20
-0.943280
  0
VERTEX
  8
PLAN_1
  6
CONTINUOUS
 10
-2.172362
 20
-0.864937
  0
VERTEX
  8
PLAN_1
  6
CONTINUOUS
 10
-2.172362
 20
0.798799
  0
SEQEND
  8
0
  0
POLYLINE
  8
PLAN_1
  6
CONTINUOUS
 66
     1
 40
0.008634
 41
0.008634
  0
VERTEX
  8
PLAN_1
  6
CONTINUOUS
 10
-1.908339
 20
0.827177
  0
VERTEX
  8
PLAN_1
  6
CONTINUOUS
 10
-1.908339
 20
-0.882823
  0
SEQEND
  8
0
  0
POLYLINE
  8
PLAN_1
  6
CONTINUOUS
 66
     1
 40
0.008634
 41
0.008634
  0
VERTEX
  8
PLAN_1
  6
CONTINUOUS
 10
-2.393823
 20
0.442858
  0
VERTEX
  8
PLAN_1
  6
CONTINUOUS
 10
-2.338921
 20
0.439157
  0
VERTEX
  8
PLAN_1
  6
CONTINUOUS
 10
-2.338921
 20
0.518118
  0
VERTEX
  8
PLAN_1
  6
CONTINUOUS
 10
-2.393823
 20
0.516268
  0
VERTEX
  8
PLAN_1
  6
CONTINUOUS
 10
-2.393823
 20
0.615583
  0
VERTEX
  8
PLAN_1
  6
CONTINUOUS
 10
-2.274768
 20
0.634709
  0
VERTEX
  8
PLAN_1
  6
CONTINUOUS
 10
-2.274768
 20
0.317630
  0
VERTEX
  8
PLAN_1
  6
CONTINUOUS
 10
-2.393823
 20
0.328118
  0
VERTEX
  8
PLAN_1
  6
CONTINUOUS
 10
-2.393823
 20
0.442858
  0
SEQEND
  8
0
  0
POLYLINE
  8
PLAN_1
  6
CONTINUOUS
 66
     1
 40
0.005551
 41
0.005551
  0
VERTEX
  8
PLAN_1
  6
CONTINUOUS
 10
-2.235287
 20
0.234350
  0
VERTEX
  8
PLAN_1
  6
CONTINUOUS
 10
-2.235287
 20
0.709969
  0
VERTEX
  8
PLAN_1
  6
CONTINUOUS
 10
-2.274768
 20
0.709969
  0
VERTEX
  8
PLAN_1
  6
CONTINUOUS
 10
-2.274768
 20
0.234350
  0
VERTEX
  8
PLAN_1
  6
CONTINUOUS
 10
-2.235287
 20
0.234350
  0
SEQEND
  8
0
  0
POLYLINE
  8
PLAN_1
  6
CONTINUOUS
 66
     1
 40
0.008634
 41
0.008634
  0
VERTEX
  8
PLAN_1
  6
CONTINUOUS
 10
-2.393823
 20
-0.578701
  0
VERTEX
  8
PLAN_1
  6
CONTINUOUS
 10
-2.338921
 20
-0.582402
  0
VERTEX
  8
PLAN_1
  6
CONTINUOUS
 10
-2.338921
 20
-0.499122
  0
VERTEX
  8
PLAN_1
  6
CONTINUOUS
 10
-2.393823
 20
-0.500972
  0
VERTEX
  8
PLAN_1
  6
CONTINUOUS
 10
-2.393823
 20
-0.401657
  0
VERTEX
  8
PLAN_1
  6
CONTINUOUS
 10
-2.274768
 20
-0.382531
  0
VERTEX
  8
PLAN_1
  6
CONTINUOUS
 10
-2.274768
 20
-0.699610
  0
VERTEX
  8
PLAN_1
  6
CONTINUOUS
 10
-2.393823
 20
-0.689122
  0
VERTEX
  8
PLAN_1
  6
CONTINUOUS
 10
-2.393823
 20
-0.578701
  0
SEQEND
  8
0
  0
POLYLINE
  8
PLAN_1
  6
CONTINUOUS
 66
     1
 40
0.005551
 41
0.005551
  0
VERTEX
  8
PLAN_1
  6
CONTINUOUS
 10
-2.235287
 20
-0.782890
  0
VERTEX
  8
PLAN_1
  6
CONTINUOUS
 10
-2.235287
 20
-0.307272
  0
VERTEX
  8
PLAN_1
  6
CONTINUOUS
 10
-2.274768
 20
-0.307272
  0
VERTEX
  8
PLAN_1
  6
CONTINUOUS
 10
-2.274768
 20
-0.782890
  0
VERTEX
  8
PLAN_1
  6
CONTINUOUS
 10
-2.235287
 20
-0.782890
  0
SEQEND
  8
0
  0
POLYLINE
  8
PLAN_1
  6
CONTINUOUS
 66
     1
 40
0.008634
 41
0.008634
  0
VERTEX
  8
PLAN_1
  6
CONTINUOUS
 10
-1.456780
 20
-0.022272
  0
VERTEX
  8
PLAN_1
  6
CONTINUOUS
 10
-1.455547
 20
-0.032760
  0
VERTEX
  8
PLAN_1
  6
CONTINUOUS
 10
-1.453079
 20
-0.044480
  0
VERTEX
  8
PLAN_1
  6
CONTINUOUS
 10
-1.449992
 20
-0.056819
  0
VERTEX
  8
PLAN_1
  6
CONTINUOUS
 10
-1.445677
 20
-0.070390
  0
VERTEX
  8
PLAN_1
  6
CONTINUOUS
 10
-1.440740
 20
-0.083961
  0
VERTEX
  8
PLAN_1
  6
CONTINUOUS
 10
-1.435807
 20
-0.098150
  0
VERTEX
  8
PLAN_1
  6
CONTINUOUS
 10
-1.429638
 20
-0.112339
  0
VERTEX
  8
PLAN_1
  6
CONTINUOUS
 10
-1.423469
 20
-0.125291
  0
VERTEX
  8
PLAN_1
  6
CONTINUOUS
 10
-1.416681
 20
-0.138248
  0
VERTEX
  8
PLAN_1
  6
CONTINUOUS
 10
-1.409280
 20
-0.150583
  0
VERTEX
  8
PLAN_1
  6
CONTINUOUS
 10
-1.402492
 20
-0.161689
  0
VERTEX
  8
PLAN_1
  6
CONTINUOUS
 10
-1.395091
 20
-0.170941
  0
VERTEX
  8
PLAN_1
  6
CONTINUOUS
 10
-1.391390
 20
-0.175260
  0
VERTEX
  8
PLAN_1
  6
CONTINUOUS
 10
-1.388307
 20
-0.178961
  0
VERTEX
  8
PLAN_1
  6
CONTINUOUS
 10
-1.384602
 20
-0.182047
  0
VERTEX
  8
PLAN_1
  6
CONTINUOUS
 10
-1.380902
 20
-0.185130
  0
VERTEX
  8
PLAN_1
  6
CONTINUOUS
 10
-1.377819
 20
-0.186980
  0
VERTEX
  8
PLAN_1
  6
CONTINUOUS
 10
-1.374732
 20
-0.188831
  0
VERTEX
  8
PLAN_1
  6
CONTINUOUS
 10
-1.371650
 20
-0.189449
  0
VERTEX
  8
PLAN_1
  6
CONTINUOUS
 10
-1.368563
 20
-0.190063
  0
SEQEND
  8
0
  0
POLYLINE
  8
PLAN_1
  6
CONTINUOUS
 66
     1
 40
0.008634
 41
0.008634
  0
VERTEX
  8
PLAN_1
  6
CONTINUOUS
 10
-2.175449
 20
-0.862469
  0
VERTEX
  8
PLAN_1
  6
CONTINUOUS
 10
-2.175449
 20
-3.476819
  0
VERTEX
  8
PLAN_1
  6
CONTINUOUS
 10
-1.931161
 20
-3.476819
  0
VERTEX
  8
PLAN_1
  6
CONTINUOUS
 10
-1.931161
 20
-0.935260
  0
SEQEND
  8
0
  0
POLYLINE
  8
PLAN_1
  6
CONTINUOUS
 66
     1
 40
0.008634
 41
0.008634
  0
VERTEX
  8
PLAN_1
  6
CONTINUOUS
 10
-1.931161
 20
0.873441
  0
VERTEX
  8
PLAN_1
  6
CONTINUOUS
 10
-1.931161
 20
4.680843
  0
VERTEX
  8
PLAN_1
  6
CONTINUOUS
 10
-2.175449
 20
4.680843
  0
VERTEX
  8
PLAN_1
  6
CONTINUOUS
 10
-2.175449
 20
0.800650
  0
SEQEND
  8
0
  0
POLYLINE
  8
PLAN_1
 62
     2
  6
CONTINUOUS
 66
     1
 40
0.004315
 41
0.004315
  0
VERTEX
  8
PLAN_1
 62
     2
  6
CONTINUOUS
 10
-1.469732
 20
-3.201071
  0
VERTEX
  8
PLAN_1
 62
     2
  6
CONTINUOUS
 10
0.552409
 20
-3.201071
  0
SEQEND
  8
0
  0
SOLID
  8
PLAN_1
 62
     2
 10
0.581402
 20
-3.201071
 11
0.522799
 21
-3.185650
 12
0.581402
 22
-3.201071
 13
0.522799
 23
-3.217110
  0
POLYLINE
  8
PLAN_1
 62
     2
  6
CONTINUOUS
 66
     1
 40
0.003000
 41
0.003000
  0
VERTEX
  8
PLAN_1
 62
     2
  6
CONTINUOUS
 10
0.581402
 20
-3.201071
  0
VERTEX
  8
PLAN_1
 62
     2
  6
CONTINUOUS
 10
0.522799
 20
-3.185650
  0
VERTEX
  8
PLAN_1
 62
     2
  6
CONTINUOUS
 10
0.522799
 20
-3.217110
  0
VERTEX
  8
PLAN_1
 62
     2
  6
CONTINUOUS
 10
0.581402
 20
-3.201071
  0
SEQEND
  8
0
  0
SOLID
  8
PLAN_1
 62
     2
 10
-1.499343
 20
-3.201071
 11
-1.440122
 21
-3.185650
 12
-1.499343
 22
-3.201071
 13
-1.440122
 23
-3.217110
  0
POLYLINE
  8
PLAN_1
 62
     2
  6
CONTINUOUS
 66
     1
 40
0.003000
 41
0.003000
  0
VERTEX
  8
PLAN_1
 62
     2
  6
CONTINUOUS
 10
-1.499343
 20
-3.201071
  0
VERTEX
  8
PLAN_1
 62
     2
  6
CONTINUOUS
 10
-1.440122
 20
-3.185650
  0
VERTEX
  8
PLAN_1
 62
     2
  6
CONTINUOUS
 10
-1.440122
 20
-3.217110
  0
VERTEX
  8
PLAN_1
 62
     2
  6
CONTINUOUS
 10
-1.499343
 20
-3.201071
  0
SEQEND
  8
0
  0
POLYLINE
  8
PLAN_1
 62
     2
  6
CONTINUOUS
 66
     1
 40
0.003000
 41
0.003000
  0
VERTEX
  8
PLAN_1
 62
     2
  6
CONTINUOUS
 10
-0.501228
 20
-3.135063
  0
VERTEX
  8
PLAN_1
 62
     2
  6
CONTINUOUS
 10
-0.499992
 20
-3.134449
  0
VERTEX
  8
PLAN_1
 62
     2
  6
CONTINUOUS
 10
-0.498760
 20
-3.133213
  0
VERTEX
  8
PLAN_1
 62
     2
  6
CONTINUOUS
 10
-0.497528
 20
-3.132598
  0
VERTEX
  8
PLAN_1
 62
     2
  6
CONTINUOUS
 10
-0.495677
 20
-3.131980
  0
VERTEX
  8
PLAN_1
 62
     2
  6
CONTINUOUS
 10
-0.493823
 20
-3.131362
  0
VERTEX
  8
PLAN_1
 62
     2
  6
CONTINUOUS
 10
-0.491972
 20
-3.130748
  0
VERTEX
  8
PLAN_1
 62
     2
  6
CONTINUOUS
 10
-0.489508
 20
-3.130748
  0
VERTEX
  8
PLAN_1
 62
     2
  6
CONTINUOUS
 10
-0.487039
 20
-3.130748
  0
VERTEX
  8
PLAN_1
 62
     2
  6
CONTINUOUS
 10
-0.482720
 20
-3.130748
  0
VERTEX
  8
PLAN_1
 62
     2
  6
CONTINUOUS
 10
-0.478402
 20
-3.131980
  0
VERTEX
  8
PLAN_1
 62
     2
  6
CONTINUOUS
 10
-0.474701
 20
-3.133831
  0
VERTEX
  8
PLAN_1
 62
     2
  6
CONTINUOUS
 10
-0.471000
 20
-3.136917
  0
VERTEX
  8
PLAN_1
 62
     2
  6
CONTINUOUS
 10
-0.467917
 20
-3.140000
  0
VERTEX
  8
PLAN_1
 62
     2
  6
CONTINUOUS
 10
-0.465449
 20
-3.144319
  0
VERTEX
  8
PLAN_1
 62
     2
  6
CONTINUOUS
 10
-0.463598
 20
-3.148638
  0
VERTEX
  8
PLAN_1
 62
     2
  6
CONTINUOUS
 10
-0.462980
 20
-3.154189
  0
VERTEX
  8
PLAN_1
 62
     2
  6
CONTINUOUS
 10
-0.463598
 20
-3.157272
  0
VERTEX
  8
PLAN_1
 62
     2
  6
CONTINUOUS
 10
-0.464213
 20
-3.161591
  0
VERTEX
  8
PLAN_1
 62
     2
  6
CONTINUOUS
 10
-0.465449
 20
-3.165909
  0
VERTEX
  8
PLAN_1
 62
     2
  6
CONTINUOUS
 10
-0.467917
 20
-3.170228
  0
VERTEX
  8
PLAN_1
 62
     2
  6
CONTINUOUS
 10
-0.469150
 20
-3.172079
  0
VERTEX
  8
PLAN_1
 62
     2
  6
CONTINUOUS
 10
-0.471000
 20
-3.173929
  0
VERTEX
  8
PLAN_1
 62
     2
  6
CONTINUOUS
 10
-0.473469
 20
-3.175161
  0
VERTEX
  8
PLAN_1
 62
     2
  6
CONTINUOUS
 10
-0.475937
 20
-3.177012
  0
VERTEX
  8
PLAN_1
 62
     2
  6
CONTINUOUS
 10
-0.479020
 20
-3.178248
  0
VERTEX
  8
PLAN_1
 62
     2
  6
CONTINUOUS
 10
-0.482102
 20
-3.178862
  0
VERTEX
  8
PLAN_1
 62
     2
  6
CONTINUOUS
 10
-0.485807
 20
-3.179480
  0
VERTEX
  8
PLAN_1
 62
     2
  6
CONTINUOUS
 10
-0.489508
 20
-3.179480
  0
VERTEX
  8
PLAN_1
 62
     2
  6
CONTINUOUS
 10
-0.493209
 20
-3.179480
  0
VERTEX
  8
PLAN_1
 62
     2
  6
CONTINUOUS
 10
-0.496909
 20
-3.178862
  0
VERTEX
  8
PLAN_1
 62
     2
  6
CONTINUOUS
 10
-0.501228
 20
-3.177630
  0
VERTEX
  8
PLAN_1
 62
     2
  6
CONTINUOUS
 10
-0.504311
 20
-3.175780
  0
VERTEX
  8
PLAN_1
 62
     2
  6
CONTINUOUS
 10
-0.507398
 20
-3.173311
  0
VERTEX
  8
PLAN_1
 62
     2
  6
CONTINUOUS
 10
-0.510480
 20
-3.169610
  0
VERTEX
  8
PLAN_1
 62
     2
  6
CONTINUOUS
 10
-0.512331
 20
-3.165291
  0
VERTEX
  8
PLAN_1
 62
     2
  6
CONTINUOUS
 10
-0.513563
 20
-3.159740
  0
VERTEX
  8
PLAN_1
 62
     2
  6
CONTINUOUS
 10
-0.503693
 20
-3.159740
  0
VERTEX
  8
PLAN_1
 62
     2
  6
CONTINUOUS
 10
-0.503079
 20
-3.162823
  0
VERTEX
  8
PLAN_1
 62
     2
  6
CONTINUOUS
 10
-0.502461
 20
-3.165291
  0
VERTEX
  8
PLAN_1
 62
     2
  6
CONTINUOUS
 10
-0.500610
 20
-3.167142
  0
VERTEX
  8
PLAN_1
 62
     2
  6
CONTINUOUS
 10
-0.498760
 20
-3.168992
  0
VERTEX
  8
PLAN_1
 62
     2
  6
CONTINUOUS
 10
-0.496909
 20
-3.170228
  0
VERTEX
  8
PLAN_1
 62
     2
  6
CONTINUOUS
 10
-0.494441
 20
-3.170843
  0
VERTEX
  8
PLAN_1
 62
     2
  6
CONTINUOUS
 10
-0.491358
 20
-3.171461
  0
VERTEX
  8
PLAN_1
 62
     2
  6
CONTINUOUS
 10
-0.488272
 20
-3.172079
  0
VERTEX
  8
PLAN_1
 62
     2
  6
CONTINUOUS
 10
-0.485189
 20
-3.171461
  0
VERTEX
  8
PLAN_1
 62
     2
  6
CONTINUOUS
 10
-0.482102
 20
-3.170228
  0
VERTEX
  8
PLAN_1
 62
     2
  6
CONTINUOUS
 10
-0.479638
 20
-3.168992
  0
VERTEX
  8
PLAN_1
 62
     2
  6
CONTINUOUS
 10
-0.477169
 20
-3.167142
  0
VERTEX
  8
PLAN_1
 62
     2
  6
CONTINUOUS
 10
-0.475319
 20
-3.164677
  0
VERTEX
  8
PLAN_1
 62
     2
  6
CONTINUOUS
 10
-0.474083
 20
-3.161591
  0
VERTEX
  8
PLAN_1
 62
     2
  6
CONTINUOUS
 10
-0.473469
 20
-3.158508
  0
VERTEX
  8
PLAN_1
 62
     2
  6
CONTINUOUS
 10
-0.472850
 20
-3.154807
  0
VERTEX
  8
PLAN_1
 62
     2
  6
CONTINUOUS
 10
-0.473469
 20
-3.151102
  0
VERTEX
  8
PLAN_1
 62
     2
  6
CONTINUOUS
 10
-0.474083
 20
-3.148020
  0
VERTEX
  8
PLAN_1
 62
     2
  6
CONTINUOUS
 10
-0.475937
 20
-3.145551
  0
VERTEX
  8
PLAN_1
 62
     2
  6
CONTINUOUS
 10
-0.477787
 20
-3.143083
  0
VERTEX
  8
PLAN_1
 62
     2
  6
CONTINUOUS
 10
-0.480252
 20
-3.141232
  0
VERTEX
  8
PLAN_1
 62
     2
  6
CONTINUOUS
 10
-0.482720
 20
-3.140000
  0
VERTEX
  8
PLAN_1
 62
     2
  6
CONTINUOUS
 10
-0.485807
 20
-3.139382
  0
VERTEX
  8
PLAN_1
 62
     2
  6
CONTINUOUS
 10
-0.489508
 20
-3.138768
  0
VERTEX
  8
PLAN_1
 62
     2
  6
CONTINUOUS
 10
-0.491358
 20
-3.138768
  0
VERTEX
  8
PLAN_1
 62
     2
  6
CONTINUOUS
 10
-0.493209
 20
-3.139382
  0
VERTEX
  8
PLAN_1
 62
     2
  6
CONTINUOUS
 10
-0.495059
 20
-3.140000
  0
VERTEX
  8
PLAN_1
 62
     2
  6
CONTINUOUS
 10
-0.496909
 20
-3.140618
  0
VERTEX
  8
PLAN_1
 62
     2
  6
CONTINUOUS
 10
-0.498142
 20
-3.141850
  0
VERTEX
  8
PLAN_1
 62
     2
  6
CONTINUOUS
 10
-0.499992
 20
-3.143083
  0
VERTEX
  8
PLAN_1
 62
     2
  6
CONTINUOUS
 10
-0.501228
 20
-3.144319
  0
VERTEX
  8
PLAN_1
 62
     2
  6
CONTINUOUS
 10
-0.502461
 20
-3.145551
  0
VERTEX
  8
PLAN_1
 62
     2
  6
CONTINUOUS
 10
-0.510480
 20
-3.145551
  0
VERTEX
  8
PLAN_1
 62
     2
  6
CONTINUOUS
 10
-0.504929
 20
-3.106071
  0
VERTEX
  8
PLAN_1
 62
     2
  6
CONTINUOUS
 10
-0.467299
 20
-3.106071
  0
VERTEX
  8
PLAN_1
 62
     2
  6
CONTINUOUS
 10
-0.467299
 20
-3.115323
  0
VERTEX
  8
PLAN_1
 62
     2
  6
CONTINUOUS
 10
-0.498142
 20
-3.115323
  0
VERTEX
  8
PLAN_1
 62
     2
  6
CONTINUOUS
 10
-0.501228
 20
-3.135063
  0
SEQEND
  8
0
  0
POLYLINE
  8
PLAN_1
 62
     2
  6
CONTINUOUS
 66
     1
 40
0.003000
 41
0.003000
  0
VERTEX
  8
PLAN_1
 62
     2
  6
CONTINUOUS
 10
-0.435220
 20
-3.136299
  0
VERTEX
  8
PLAN_1
 62
     2
  6
CONTINUOUS
 10
-0.434602
 20
-3.136299
  0
VERTEX
  8
PLAN_1
 62
     2
  6
CONTINUOUS
 10
-0.433988
 20
-3.136299
  0
VERTEX
  8
PLAN_1
 62
     2
  6
CONTINUOUS
 10
-0.433370
 20
-3.136299
  0
VERTEX
  8
PLAN_1
 62
     2
  6
CONTINUOUS
 10
-0.432752
 20
-3.136299
  0
VERTEX
  8
PLAN_1
 62
     2
  6
CONTINUOUS
 10
-0.432138
 20
-3.136299
  0
VERTEX
  8
PLAN_1
 62
     2
  6
CONTINUOUS
 10
-0.431520
 20
-3.136299
  0
VERTEX
  8
PLAN_1
 62
     2
  6
CONTINUOUS
 10
-0.430902
 20
-3.136299
  0
VERTEX
  8
PLAN_1
 62
     2
  6
CONTINUOUS
 10
-0.427819
 20
-3.136299
  0
VERTEX
  8
PLAN_1
 62
     2
  6
CONTINUOUS
 10
-0.425350
 20
-3.135681
  0
VERTEX
  8
PLAN_1
 62
     2
  6
CONTINUOUS
 10
-0.422882
 20
-3.135063
  0
VERTEX
  8
PLAN_1
 62
     2
  6
CONTINUOUS
 10
-0.421031
 20
-3.133831
  0
VERTEX
  8
PLAN_1
 62
     2
  6
CONTINUOUS
 10
-0.419181
 20
-3.131980
  0
VERTEX
  8
PLAN_1
 62
     2
  6
CONTINUOUS
 10
-0.417949
 20
-3.130130
  0
VERTEX
  8
PLAN_1
 62
     2
  6
CONTINUOUS
 10
-0.417331
 20
-3.127661
  0
VERTEX
  8
PLAN_1
 62
     2
  6
CONTINUOUS
 10
-0.416713
 20
-3.124579
  0
VERTEX
  8
PLAN_1
 62
     2
  6
CONTINUOUS
 10
-0.416713
 20
-3.122728
  0
VERTEX
  8
PLAN_1
 62
     2
  6
CONTINUOUS
 10
-0.417331
 20
-3.120878
  0
VERTEX
  8
PLAN_1
 62
     2
  6
CONTINUOUS
 10
-0.417949
 20
-3.119028
  0
VERTEX
  8
PLAN_1
 62
     2
  6
CONTINUOUS
 10
-0.419181
 20
-3.117177
  0
VERTEX
  8
PLAN_1
 62
     2
  6
CONTINUOUS
 10
-0.421031
 20
-3.115323
  0
VERTEX
  8
PLAN_1
 62
     2
  6
CONTINUOUS
 10
-0.423500
 20
-3.114091
  0
VERTEX
  8
PLAN_1
 62
     2
  6
CONTINUOUS
 10
-0.426583
 20
-3.113472
  0
VERTEX
  8
PLAN_1
 62
     2
  6
CONTINUOUS
 10
-0.430287
 20
-3.112858
  0
VERTEX
  8
PLAN_1
 62
     2
  6
CONTINUOUS
 10
-0.434602
 20
-3.113472
  0
VERTEX
  8
PLAN_1
 62
     2
  6
CONTINUOUS
 10
-0.437689
 20
-3.114709
  0
VERTEX
  8
PLAN_1
 62
     2
  6
CONTINUOUS
 10
-0.440157
 20
-3.116559
  0
VERTEX
  8
PLAN_1
 62
     2
  6
CONTINUOUS
 10
-0.442008
 20
-3.119028
  0
VERTEX
  8
PLAN_1
 62
     2
  6
CONTINUOUS
 10
-0.443240
 20
-3.121492
  0
VERTEX
  8
PLAN_1
 62
     2
  6
CONTINUOUS
 10
-0.443858
 20
-3.123961
  0
VERTEX
  8
PLAN_1
 62
     2
  6
CONTINUOUS
 10
-0.444472
 20
-3.126429
  0
VERTEX
  8
PLAN_1
 62
     2
  6
CONTINUOUS
 10
-0.444472
 20
-3.128280
  0
VERTEX
  8
PLAN_1
 62
     2
  6
CONTINUOUS
 10
-0.453728
 20
-3.128280
  0
VERTEX
  8
PLAN_1
 62
     2
  6
CONTINUOUS
 10
-0.453110
 20
-3.124579
  0
VERTEX
  8
PLAN_1
 62
     2
  6
CONTINUOUS
 10
-0.452492
 20
-3.120260
  0
VERTEX
  8
PLAN_1
 62
     2
  6
CONTINUOUS
 10
-0.451260
 20
-3.116559
  0
VERTEX
  8
PLAN_1
 62
     2
  6
CONTINUOUS
 10
-0.448791
 20
-3.112858
  0
VERTEX
  8
PLAN_1
 62
     2
  6
CONTINUOUS
 10
-0.445709
 20
-3.109157
  0
VERTEX
  8
PLAN_1
 62
     2
  6
CONTINUOUS
 10
-0.441390
 20
-3.106689
  0
VERTEX
  8
PLAN_1
 62
     2
  6
CONTINUOUS
 10
-0.438921
 20
-3.106071
  0
VERTEX
  8
PLAN_1
 62
     2
  6
CONTINUOUS
 10
-0.436453
 20
-3.105453
  0
VERTEX
  8
PLAN_1
 62
     2
  6
CONTINUOUS
 10
-0.433370
 20
-3.104839
  0
VERTEX
  8
PLAN_1
 62
     2
  6
CONTINUOUS
 10
-0.429669
 20
-3.104839
  0
VERTEX
  8
PLAN_1
 62
     2
  6
CONTINUOUS
 10
-0.424732
 20
-3.104839
  0
VERTEX
  8
PLAN_1
 62
     2
  6
CONTINUOUS
 10
-0.420417
 20
-3.106071
  0
VERTEX
  8
PLAN_1
 62
     2
  6
CONTINUOUS
 10
-0.416713
 20
-3.107921
  0
VERTEX
  8
PLAN_1
 62
     2
  6
CONTINUOUS
 10
-0.413012
 20
-3.109772
  0
VERTEX
  8
PLAN_1
 62
     2
  6
CONTINUOUS
 10
-0.410547
 20
-3.112858
  0
VERTEX
  8
PLAN_1
 62
     2
  6
CONTINUOUS
 10
-0.408693
 20
-3.115941
  0
VERTEX
  8
PLAN_1
 62
     2
  6
CONTINUOUS
 10
-0.407461
 20
-3.119642
  0
VERTEX
  8
PLAN_1
 62
     2
  6
CONTINUOUS
 10
-0.407461
 20
-3.123961
  0
VERTEX
  8
PLAN_1
 62
     2
  6
CONTINUOUS
 10
-0.407461
 20
-3.127047
  0
VERTEX
  8
PLAN_1
 62
     2
  6
CONTINUOUS
 10
-0.408079
 20
-3.130130
  0
VERTEX
  8
PLAN_1
 62
     2
  6
CONTINUOUS
 10
-0.409311
 20
-3.132598
  0
VERTEX
  8
PLAN_1
 62
     2
  6
CONTINUOUS
 10
-0.410547
 20
-3.134449
  0
VERTEX
  8
PLAN_1
 62
     2
  6
CONTINUOUS
 10
-0.411780
 20
-3.136299
  0
VERTEX
  8
PLAN_1
 62
     2
  6
CONTINUOUS
 10
-0.413630
 20
-3.137531
  0
VERTEX
  8
PLAN_1
 62
     2
  6
CONTINUOUS
 10
-0.414862
 20
-3.138150
  0
VERTEX
  8
PLAN_1
 62
     2
  6
CONTINUOUS
 10
-0.416713
 20
-3.138768
  0
VERTEX
  8
PLAN_1
 62
     2
  6
CONTINUOUS
 10
-0.416713
 20
-3.139382
  0
VERTEX
  8
PLAN_1
 62
     2
  6
CONTINUOUS
 10
-0.414248
 20
-3.140000
  0
VERTEX
  8
PLAN_1
 62
     2
  6
CONTINUOUS
 10
-0.411780
 20
-3.141232
  0
VERTEX
  8
PLAN_1
 62
     2
  6
CONTINUOUS
 10
-0.409929
 20
-3.143083
  0
VERTEX
  8
PLAN_1
 62
     2
  6
CONTINUOUS
 10
-0.408079
 20
-3.144937
  0
VERTEX
  8
PLAN_1
 62
     2
  6
CONTINUOUS
 10
-0.406228
 20
-3.147402
  0
VERTEX
  8
PLAN_1
 62
     2
  6
CONTINUOUS
 10
-0.405610
 20
-3.149870
  0
VERTEX
  8
PLAN_1
 62
     2
  6
CONTINUOUS
 10
-0.404992
 20
-3.152953
  0
VERTEX
  8
PLAN_1
 62
     2
  6
CONTINUOUS
 10
-0.404378
 20
-3.156039
  0
VERTEX
  8
PLAN_1
 62
     2
  6
CONTINUOUS
 10
-0.404992
 20
-3.160972
  0
VERTEX
  8
PLAN_1
 62
     2
  6
CONTINUOUS
 10
-0.406228
 20
-3.164677
  0
VERTEX
  8
PLAN_1
 62
     2
  6
CONTINUOUS
 10
-0.408079
 20
-3.168992
  0
VERTEX
  8
PLAN_1
 62
     2
  6
CONTINUOUS
 10
-0.410547
 20
-3.172693
  0
VERTEX
  8
PLAN_1
 62
     2
  6
CONTINUOUS
 10
-0.414248
 20
-3.175161
  0
VERTEX
  8
PLAN_1
 62
     2
  6
CONTINUOUS
 10
-0.418563
 20
-3.177630
  0
VERTEX
  8
PLAN_1
 62
     2
  6
CONTINUOUS
 10
-0.424118
 20
-3.179480
  0
VERTEX
  8
PLAN_1
 62
     2
  6
CONTINUOUS
 10
-0.430902
 20
-3.179480
  0
VERTEX
  8
PLAN_1
 62
     2
  6
CONTINUOUS
 10
-0.432752
 20
-3.179480
  0
VERTEX
  8
PLAN_1
 62
     2
  6
CONTINUOUS
 10
-0.434602
 20
-3.179480
  0
VERTEX
  8
PLAN_1
 62
     2
  6
CONTINUOUS
 10
-0.436453
 20
-3.179480
  0
VERTEX
  8
PLAN_1
 62
     2
  6
CONTINUOUS
 10
-0.438307
 20
-3.178862
  0
VERTEX
  8
PLAN_1
 62
     2
  6
CONTINUOUS
 10
-0.440157
 20
-3.178248
  0
VERTEX
  8
PLAN_1
 62
     2
  6
CONTINUOUS
 10
-0.441390
 20
-3.177630
  0
VERTEX
  8
PLAN_1
 62
     2
  6
CONTINUOUS
 10
-0.443240
 20
-3.177012
  0
VERTEX
  8
PLAN_1
 62
     2
  6
CONTINUOUS
 10
-0.444472
 20
-3.176398
  0
VERTEX
  8
PLAN_1
 62
     2
  6
CONTINUOUS
 10
-0.446941
 20
-3.174547
  0
VERTEX
  8
PLAN_1
 62
     2
  6
CONTINUOUS
 10
-0.449409
 20
-3.172693
  0
VERTEX
  8
PLAN_1
 62
     2
  6
CONTINUOUS
 10
-0.451260
 20
-3.170228
  0
VERTEX
  8
PLAN_1
 62
     2
  6
CONTINUOUS
 10
-0.452492
 20
-3.167760
  0
VERTEX
  8
PLAN_1
 62
     2
  6
CONTINUOUS
 10
-0.453728
 20
-3.164677
  0
VERTEX
  8
PLAN_1
 62
     2
  6
CONTINUOUS
 10
-0.454343
 20
-3.161591
  0
VERTEX
  8
PLAN_1
 62
     2
  6
CONTINUOUS
 10
-0.454961
 20
-3.158508
  0
VERTEX
  8
PLAN_1
 62
     2
  6
CONTINUOUS
 10
-0.454961
 20
-3.155421
  0
VERTEX
  8
PLAN_1
 62
     2
  6
CONTINUOUS
 10
-0.445709
 20
-3.155421
  0
VERTEX
  8
PLAN_1
 62
     2
  6
CONTINUOUS
 10
-0.445709
 20
-3.157890
  0
VERTEX
  8
PLAN_1
 62
     2
  6
CONTINUOUS
 10
-0.445091
 20
-3.160972
  0
VERTEX
  8
PLAN_1
 62
     2
  6
CONTINUOUS
 10
-0.444472
 20
-3.163441
  0
VERTEX
  8
PLAN_1
 62
     2
  6
CONTINUOUS
 10
-0.443240
 20
-3.165909
  0
VERTEX
  8
PLAN_1
 62
     2
  6
CONTINUOUS
 10
-0.440772
 20
-3.168378
  0
VERTEX
  8
PLAN_1
 62
     2
  6
CONTINUOUS
 10
-0.438307
 20
-3.170228
  0
VERTEX
  8
PLAN_1
 62
     2
  6
CONTINUOUS
 10
-0.434602
 20
-3.170843
  0
VERTEX
  8
PLAN_1
 62
     2
  6
CONTINUOUS
 10
-0.430287
 20
-3.171461
  0
VERTEX
  8
PLAN_1
 62
     2
  6
CONTINUOUS
 10
-0.426583
 20
-3.171461
  0
VERTEX
  8
PLAN_1
 62
     2
  6
CONTINUOUS
 10
-0.423500
 20
-3.170228
  0
VERTEX
  8
PLAN_1
 62
     2
  6
CONTINUOUS
 10
-0.421031
 20
-3.168992
  0
VERTEX
  8
PLAN_1
 62
     2
  6
CONTINUOUS
 10
-0.418563
 20
-3.167760
  0
VERTEX
  8
PLAN_1
 62
     2
  6
CONTINUOUS
 10
-0.416713
 20
-3.165291
  0
VERTEX
  8
PLAN_1
 62
     2
  6
CONTINUOUS
 10
-0.415480
 20
-3.163441
  0
VERTEX
  8
PLAN_1
 62
     2
  6
CONTINUOUS
 10
-0.414862
 20
-3.160358
  0
VERTEX
  8
PLAN_1
 62
     2
  6
CONTINUOUS
 10
-0.414248
 20
-3.157272
  0
VERTEX
  8
PLAN_1
 62
     2
  6
CONTINUOUS
 10
-0.414862
 20
-3.153571
  0
VERTEX
  8
PLAN_1
 62
     2
  6
CONTINUOUS
 10
-0.416098
 20
-3.149870
  0
VERTEX
  8
PLAN_1
 62
     2
  6
CONTINUOUS
 10
-0.417949
 20
-3.148020
  0
VERTEX
  8
PLAN_1
 62
     2
  6
CONTINUOUS
 10
-0.420417
 20
-3.146169
  0
VERTEX
  8
PLAN_1
 62
     2
  6
CONTINUOUS
 10
-0.423500
 20
-3.144937
  0
VERTEX
  8
PLAN_1
 62
     2
  6
CONTINUOUS
 10
-0.425969
 20
-3.144319
  0
VERTEX
  8
PLAN_1
 62
     2
  6
CONTINUOUS
 10
-0.429051
 20
-3.144319
  0
VERTEX
  8
PLAN_1
 62
     2
  6
CONTINUOUS
 10
-0.431520
 20
-3.143701
  0
VERTEX
  8
PLAN_1
 62
     2
  6
CONTINUOUS
 10
-0.432138
 20
-3.143701
  0
VERTEX
  8
PLAN_1
 62
     2
  6
CONTINUOUS
 10
-0.432752
 20
-3.143701
  0
VERTEX
  8
PLAN_1
 62
     2
  6
CONTINUOUS
 10
-0.433370
 20
-3.143701
  0
VERTEX
  8
PLAN_1
 62
     2
  6
CONTINUOUS
 10
-0.433988
 20
-3.144319
  0
VERTEX
  8
PLAN_1
 62
     2
  6
CONTINUOUS
 10
-0.434602
 20
-3.144319
  0
VERTEX
  8
PLAN_1
 62
     2
  6
CONTINUOUS
 10
-0.435220
 20
-3.144319
  0
VERTEX
  8
PLAN_1
 62
     2
  6
CONTINUOUS
 10
-0.435220
 20
-3.136299
  0
SEQEND
  8
0
  0
POLYLINE
  8
PLAN_1
 62
     2
  6
CONTINUOUS
 66
     1
 40
0.004315
 41
0.004315
  0
VERTEX
  8
PLAN_1
 62
     2
  6
CONTINUOUS
 10
-1.528953
 20
-3.043768
  0
VERTEX
  8
PLAN_1
 62
     2
  6
CONTINUOUS
 10
0.611012
 20
-3.043768
  0
SEQEND
  8
0
  0
SOLID
  8
PLAN_1
 62
     2
 10
0.123677
 20
-3.043768
 11
0.064453
 21
-3.027728
 12
0.123677
 22
-3.043768
 13
0.064453
 23
-3.059189
  0
POLYLINE
  8
PLAN_1
 62
     2
  6
CONTINUOUS
 66
     1
 40
0.003000
 41
0.003000
  0
VERTEX
  8
PLAN_1
 62
     2
  6
CONTINUOUS
 10
0.123677
 20
-3.043768
  0
VERTEX
  8
PLAN_1
 62
     2
  6
CONTINUOUS
 10
0.064453
 20
-3.027728
  0
VERTEX
  8
PLAN_1
 62
     2
  6
CONTINUOUS
 10
0.064453
 20
-3.059189
  0
VERTEX
  8
PLAN_1
 62
     2
  6
CONTINUOUS
 10
0.123677
 20
-3.043768
  0
SEQEND
  8
0
  0
SOLID
  8
PLAN_1
 62
     2
 10
-1.499343
 20
-3.043768
 11
-1.558563
 21
-3.027728
 12
-1.499343
 22
-3.043768
 13
-1.558563
 23
-3.059189
  0
POLYLINE
  8
PLAN_1
 62
     2
  6
CONTINUOUS
 66
     1
 40
0.003000
 41
0.003000
  0
VERTEX
  8
PLAN_1
 62
     2
  6
CONTINUOUS
 10
-1.499343
 20
-3.043768
  0
VERTEX
  8
PLAN_1
 62
     2
  6
CONTINUOUS
 10
-1.558563
 20
-3.027728
  0
VERTEX
  8
PLAN_1
 62
     2
  6
CONTINUOUS
 10
-1.558563
 20
-3.059189
  0
VERTEX
  8
PLAN_1
 62
     2
  6
CONTINUOUS
 10
-1.499343
 20
-3.043768
  0
SEQEND
  8
0
  0
SOLID
  8
PLAN_1
 62
     2
 10
-1.032980
 20
-3.043768
 11
-0.973760
 21
-3.027728
 12
-1.032980
 22
-3.043768
 13
-0.973760
 23
-3.059189
  0
POLYLINE
  8
PLAN_1
 62
     2
  6
CONTINUOUS
 66
     1
 40
0.003000
 41
0.003000
  0
VERTEX
  8
PLAN_1
 62
     2
  6
CONTINUOUS
 10
-1.032980
 20
-3.043768
  0
VERTEX
  8
PLAN_1
 62
     2
  6
CONTINUOUS
 10
-0.973760
 20
-3.027728
  0
VERTEX
  8
PLAN_1
 62
     2
  6
CONTINUOUS
 10
-0.973760
 20
-3.059189
  0
VERTEX
  8
PLAN_1
 62
     2
  6
CONTINUOUS
 10
-1.032980
 20
-3.043768
  0
SEQEND
  8
0
  0
SOLID
  8
PLAN_1
 62
     2
 10
0.581402
 20
-3.043768
 11
0.640622
 21
-3.027728
 12
0.581402
 22
-3.043768
 13
0.640622
 23
-3.059189
  0
POLYLINE
  8
PLAN_1
 62
     2
  6
CONTINUOUS
 66
     1
 40
0.003000
 41
0.003000
  0
VERTEX
  8
PLAN_1
 62
     2
  6
CONTINUOUS
 10
0.581402
 20
-3.043768
  0
VERTEX
  8
PLAN_1
 62
     2
  6
CONTINUOUS
 10
0.640622
 20
-3.027728
  0
VERTEX
  8
PLAN_1
 62
     2
  6
CONTINUOUS
 10
0.640622
 20
-3.059189
  0
VERTEX
  8
PLAN_1
 62
     2
  6
CONTINUOUS
 10
0.581402
 20
-3.043768
  0
SEQEND
  8
0
  0
POLYLINE
  8
PLAN_1
 62
     2
  6
CONTINUOUS
 66
     1
 40
0.003000
 41
0.003000
  0
VERTEX
  8
PLAN_1
 62
     2
  6
CONTINUOUS
 10
-0.493209
 20
-2.978378
  0
VERTEX
  8
PLAN_1
 62
     2
  6
CONTINUOUS
 10
-0.492591
 20
-2.978378
  0
VERTEX
  8
PLAN_1
 62
     2
  6
CONTINUOUS
 10
-0.491972
 20
-2.978378
  0
VERTEX
  8
PLAN_1
 62
     2
  6
CONTINUOUS
 10
-0.491358
 20
-2.978378
  0
VERTEX
  8
PLAN_1
 62
     2
  6
CONTINUOUS
 10
-0.490740
 20
-2.978378
  0
VERTEX
  8
PLAN_1
 62
     2
  6
CONTINUOUS
 10
-0.490122
 20
-2.978378
  0
VERTEX
  8
PLAN_1
 62
     2
  6
CONTINUOUS
 10
-0.489508
 20
-2.978378
  0
VERTEX
  8
PLAN_1
 62
     2
  6
CONTINUOUS
 10
-0.488890
 20
-2.978378
  0
VERTEX
  8
PLAN_1
 62
     2
  6
CONTINUOUS
 10
-0.485807
 20
-2.978378
  0
VERTEX
  8
PLAN_1
 62
     2
  6
CONTINUOUS
 10
-0.483339
 20
-2.977760
  0
VERTEX
  8
PLAN_1
 62
     2
  6
CONTINUOUS
 10
-0.480870
 20
-2.977142
  0
VERTEX
  8
PLAN_1
 62
     2
  6
CONTINUOUS
 10
-0.479020
 20
-2.975909
  0
VERTEX
  8
PLAN_1
 62
     2
  6
CONTINUOUS
 10
-0.477169
 20
-2.974677
  0
VERTEX
  8
PLAN_1
 62
     2
  6
CONTINUOUS
 10
-0.475937
 20
-2.972209
  0
VERTEX
  8
PLAN_1
 62
     2
  6
CONTINUOUS
 10
-0.474701
 20
-2.969740
  0
VERTEX
  8
PLAN_1
 62
     2
  6
CONTINUOUS
 10
-0.474701
 20
-2.966657
  0
VERTEX
  8
PLAN_1
 62
     2
  6
CONTINUOUS
 10
-0.474701
 20
-2.964807
  0
VERTEX
  8
PLAN_1
 62
     2
  6
CONTINUOUS
 10
-0.475319
 20
-2.962953
  0
VERTEX
  8
PLAN_1
 62
     2
  6
CONTINUOUS
 10
-0.475937
 20
-2.961102
  0
VERTEX
  8
PLAN_1
 62
     2
  6
CONTINUOUS
 10
-0.477169
 20
-2.959252
  0
VERTEX
  8
PLAN_1
 62
     2
  6
CONTINUOUS
 10
-0.479020
 20
-2.957402
  0
VERTEX
  8
PLAN_1
 62
     2
  6
CONTINUOUS
 10
-0.481488
 20
-2.956169
  0
VERTEX
  8
PLAN_1
 62
     2
  6
CONTINUOUS
 10
-0.484571
 20
-2.955551
  0
VERTEX
  8
PLAN_1
 62
     2
  6
CONTINUOUS
 10
-0.488272
 20
-2.954937
  0
VERTEX
  8
PLAN_1
 62
     2
  6
CONTINUOUS
 10
-0.492591
 20
-2.955551
  0
VERTEX
  8
PLAN_1
 62
     2
  6
CONTINUOUS
 10
-0.495677
 20
-2.956787
  0
VERTEX
  8
PLAN_1
 62
     2
  6
CONTINUOUS
 10
-0.498142
 20
-2.958638
  0
VERTEX
  8
PLAN_1
 62
     2
  6
CONTINUOUS
 10
-0.499992
 20
-2.961102
  0
VERTEX
  8
PLAN_1
 62
     2
  6
CONTINUOUS
 10
-0.501228
 20
-2.963571
  0
VERTEX
  8
PLAN_1
 62
     2
  6
CONTINUOUS
 10
-0.501843
 20
-2.966039
  0
VERTEX
  8
PLAN_1
 62
     2
  6
CONTINUOUS
 10
-0.502461
 20
-2.968508
  0
VERTEX
  8
PLAN_1
 62
     2
  6
CONTINUOUS
 10
-0.502461
 20
-2.970972
  0
VERTEX
  8
PLAN_1
 62
     2
  6
CONTINUOUS
 10
-0.511098
 20
-2.970972
  0
VERTEX
  8
PLAN_1
 62
     2
  6
CONTINUOUS
 10
-0.511098
 20
-2.966657
  0
VERTEX
  8
PLAN_1
 62
     2
  6
CONTINUOUS
 10
-0.510480
 20
-2.962339
  0
VERTEX
  8
PLAN_1
 62
     2
  6
CONTINUOUS
 10
-0.509248
 20
-2.958638
  0
VERTEX
  8
PLAN_1
 62
     2
  6
CONTINUOUS
 10
-0.506780
 20
-2.954937
  0
VERTEX
  8
PLAN_1
 62
     2
  6
CONTINUOUS
 10
-0.503693
 20
-2.951850
  0
VERTEX
  8
PLAN_1
 62
     2
  6
CONTINUOUS
 10
-0.499378
 20
-2.949382
  0
VERTEX
  8
PLAN_1
 62
     2
  6
CONTINUOUS
 10
-0.496909
 20
-2.948150
  0
VERTEX
  8
PLAN_1
 62
     2
  6
CONTINUOUS
 10
-0.494441
 20
-2.947531
  0
VERTEX
  8
PLAN_1
 62
     2
  6
CONTINUOUS
 10
-0.491358
 20
-2.946917
  0
VERTEX
  8
PLAN_1
 62
     2
  6
CONTINUOUS
 10
-0.487657
 20
-2.946917
  0
VERTEX
  8
PLAN_1
 62
     2
  6
CONTINUOUS
 10
-0.482720
 20
-2.947531
  0
VERTEX
  8
PLAN_1
 62
     2
  6
CONTINUOUS
 10
-0.478402
 20
-2.948150
  0
VERTEX
  8
PLAN_1
 62
     2
  6
CONTINUOUS
 10
-0.474701
 20
-2.950000
  0
VERTEX
  8
PLAN_1
 62
     2
  6
CONTINUOUS
 10
-0.471000
 20
-2.952469
  0
VERTEX
  8
PLAN_1
 62
     2
  6
CONTINUOUS
 10
-0.468531
 20
-2.954937
  0
VERTEX
  8
PLAN_1
 62
     2
  6
CONTINUOUS
 10
-0.466681
 20
-2.958638
  0
VERTEX
  8
PLAN_1
 62
     2
  6
CONTINUOUS
 10
-0.465449
 20
-2.962339
  0
VERTEX
  8
PLAN_1
 62
     2
  6
CONTINUOUS
 10
-0.465449
 20
-2.966039
  0
VERTEX
  8
PLAN_1
 62
     2
  6
CONTINUOUS
 10
-0.465449
 20
-2.969122
  0
VERTEX
  8
PLAN_1
 62
     2
  6
CONTINUOUS
 10
-0.466063
 20
-2.972209
  0
VERTEX
  8
PLAN_1
 62
     2
  6
CONTINUOUS
 10
-0.467299
 20
-2.974677
  0
VERTEX
  8
PLAN_1
 62
     2
  6
CONTINUOUS
 10
-0.468531
 20
-2.976528
  0
VERTEX
  8
PLAN_1
 62
     2
  6
CONTINUOUS
 10
-0.469768
 20
-2.978378
  0
VERTEX
  8
PLAN_1
 62
     2
  6
CONTINUOUS
 10
-0.471618
 20
-2.979610
  0
VERTEX
  8
PLAN_1
 62
     2
  6
CONTINUOUS
 10
-0.472850
 20
-2.980843
  0
VERTEX
  8
PLAN_1
 62
     2
  6
CONTINUOUS
 10
-0.474701
 20
-2.981461
  0
VERTEX
  8
PLAN_1
 62
     2
  6
CONTINUOUS
 10
-0.472232
 20
-2.982693
  0
VERTEX
  8
PLAN_1
 62
     2
  6
CONTINUOUS
 10
-0.469768
 20
-2.983929
  0
VERTEX
  8
PLAN_1
 62
     2
  6
CONTINUOUS
 10
-0.467299
 20
-2.985161
  0
VERTEX
  8
PLAN_1
 62
     2
  6
CONTINUOUS
 10
-0.466063
 20
-2.987012
  0
VERTEX
  8
PLAN_1
 62
     2
  6
CONTINUOUS
 10
-0.464213
 20
-2.989480
  0
VERTEX
  8
PLAN_1
 62
     2
  6
CONTINUOUS
 10
-0.462980
 20
-2.991949
  0
VERTEX
  8
PLAN_1
 62
     2
  6
CONTINUOUS
 10
-0.462362
 20
-2.995031
  0
VERTEX
  8
PLAN_1
 62
     2
  6
CONTINUOUS
 10
-0.462362
 20
-2.998732
  0
VERTEX
  8
PLAN_1
 62
     2
  6
CONTINUOUS
 10
-0.462980
 20
-3.003051
  0
VERTEX
  8
PLAN_1
 62
     2
  6
CONTINUOUS
 10
-0.463598
 20
-3.007370
  0
VERTEX
  8
PLAN_1
 62
     2
  6
CONTINUOUS
 10
-0.466063
 20
-3.011071
  0
VERTEX
  8
PLAN_1
 62
     2
  6
CONTINUOUS
 10
-0.468531
 20
-3.014772
  0
VERTEX
  8
PLAN_1
 62
     2
  6
CONTINUOUS
 10
-0.472232
 20
-3.017858
  0
VERTEX
  8
PLAN_1
 62
     2
  6
CONTINUOUS
 10
-0.476551
 20
-3.019709
  0
VERTEX
  8
PLAN_1
 62
     2
  6
CONTINUOUS
 10
-0.482102
 20
-3.021559
  0
VERTEX
  8
PLAN_1
 62
     2
  6
CONTINUOUS
 10
-0.488890
 20
-3.022177
  0
VERTEX
  8
PLAN_1
 62
     2
  6
CONTINUOUS
 10
-0.490740
 20
-3.022177
  0
VERTEX
  8
PLAN_1
 62
     2
  6
CONTINUOUS
 10
-0.492591
 20
-3.021559
  0
VERTEX
  8
PLAN_1
 62
     2
  6
CONTINUOUS
 10
-0.494441
 20
-3.021559
  0
VERTEX
  8
PLAN_1
 62
     2
  6
CONTINUOUS
 10
-0.496291
 20
-3.020941
  0
VERTEX
  8
PLAN_1
 62
     2
  6
CONTINUOUS
 10
-0.497528
 20
-3.020323
  0
VERTEX
  8
PLAN_1
 62
     2
  6
CONTINUOUS
 10
-0.499378
 20
-3.020323
  0
VERTEX
  8
PLAN_1
 62
     2
  6
CONTINUOUS
 10
-0.500610
 20
-3.019709
  0
VERTEX
  8
PLAN_1
 62
     2
  6
CONTINUOUS
 10
-0.502461
 20
-3.018472
  0
VERTEX
  8
PLAN_1
 62
     2
  6
CONTINUOUS
 10
-0.504929
 20
-3.017240
  0
VERTEX
  8
PLAN_1
 62
     2
  6
CONTINUOUS
 10
-0.507398
 20
-3.014772
  0
VERTEX
  8
PLAN_1
 62
     2
  6
CONTINUOUS
 10
-0.509248
 20
-3.012307
  0
VERTEX
  8
PLAN_1
 62
     2
  6
CONTINUOUS
 10
-0.510480
 20
-3.009839
  0
VERTEX
  8
PLAN_1
 62
     2
  6
CONTINUOUS
 10
-0.511713
 20
-3.006752
  0
VERTEX
  8
PLAN_1
 62
     2
  6
CONTINUOUS
 10
-0.512331
 20
-3.003669
  0
VERTEX
  8
PLAN_1
 62
     2
  6
CONTINUOUS
 10
-0.512949
 20
-3.000583
  0
VERTEX
  8
PLAN_1
 62
     2
  6
CONTINUOUS
 10
-0.512949
 20
-2.997500
  0
VERTEX
  8
PLAN_1
 62
     2
  6
CONTINUOUS
 10
-0.503693
 20
-2.997500
  0
VERTEX
  8
PLAN_1
 62
     2
  6
CONTINUOUS
 10
-0.503693
 20
-3.000583
  0
VERTEX
  8
PLAN_1
 62
     2
  6
CONTINUOUS
 10
-0.503079
 20
-3.003051
  0
VERTEX
  8
PLAN_1
 62
     2
  6
CONTINUOUS
 10
-0.502461
 20
-3.005520
  0
VERTEX
  8
PLAN_1
 62
     2
  6
CONTINUOUS
 10
-0.500610
 20
-3.007988
  0
VERTEX
  8
PLAN_1
 62
     2
  6
CONTINUOUS
 10
-0.498760
 20
-3.010453
  0
VERTEX
  8
PLAN_1
 62
     2
  6
CONTINUOUS
 10
-0.496291
 20
-3.012307
  0
VERTEX
  8
PLAN_1
 62
     2
  6
CONTINUOUS
 10
-0.492591
 20
-3.013539
  0
VERTEX
  8
PLAN_1
 62
     2
  6
CONTINUOUS
 10
-0.488272
 20
-3.013539
  0
VERTEX
  8
PLAN_1
 62
     2
  6
CONTINUOUS
 10
-0.484571
 20
-3.013539
  0
VERTEX
  8
PLAN_1
 62
     2
  6
CONTINUOUS
 10
-0.481488
 20
-3.012921
  0
VERTEX
  8
PLAN_1
 62
     2
  6
CONTINUOUS
 10
-0.479020
 20
-3.011689
  0
VERTEX
  8
PLAN_1
 62
     2
  6
CONTINUOUS
 10
-0.476551
 20
-3.009839
  0
VERTEX
  8
PLAN_1
 62
     2
  6
CONTINUOUS
 10
-0.474701
 20
-3.007988
  0
VERTEX
  8
PLAN_1
 62
     2
  6
CONTINUOUS
 10
-0.473469
 20
-3.005520
  0
VERTEX
  8
PLAN_1
 62
     2
  6
CONTINUOUS
 10
-0.472232
 20
-3.002437
  0
VERTEX
  8
PLAN_1
 62
     2
  6
CONTINUOUS
 10
-0.472232
 20
-2.999350
  0
VERTEX
  8
PLAN_1
 62
     2
  6
CONTINUOUS
 10
-0.472850
 20
-2.995650
  0
VERTEX
  8
PLAN_1
 62
     2
  6
CONTINUOUS
 10
-0.474083
 20
-2.992563
  0
VERTEX
  8
PLAN_1
 62
     2
  6
CONTINUOUS
 10
-0.475937
 20
-2.990098
  0
VERTEX
  8
PLAN_1
 62
     2
  6
CONTINUOUS
 10
-0.478402
 20
-2.988248
  0
VERTEX
  8
PLAN_1
 62
     2
  6
CONTINUOUS
 10
-0.480870
 20
-2.987012
  0
VERTEX
  8
PLAN_1
 62
     2
  6
CONTINUOUS
 10
-0.483953
 20
-2.986398
  0
VERTEX
  8
PLAN_1
 62
     2
  6
CONTINUOUS
 10
-0.486421
 20
-2.986398
  0
VERTEX
  8
PLAN_1
 62
     2
  6
CONTINUOUS
 10
-0.489508
 20
-2.986398
  0
VERTEX
  8
PLAN_1
 62
     2
  6
CONTINUOUS
 10
-0.490122
 20
-2.986398
  0
VERTEX
  8
PLAN_1
 62
     2
  6
CONTINUOUS
 10
-0.490740
 20
-2.986398
  0
VERTEX
  8
PLAN_1
 62
     2
  6
CONTINUOUS
 10
-0.491358
 20
-2.986398
  0
VERTEX
  8
PLAN_1
 62
     2
  6
CONTINUOUS
 10
-0.491972
 20
-2.986398
  0
VERTEX
  8
PLAN_1
 62
     2
  6
CONTINUOUS
 10
-0.492591
 20
-2.986398
  0
VERTEX
  8
PLAN_1
 62
     2
  6
CONTINUOUS
 10
-0.493209
 20
-2.986398
  0
VERTEX
  8
PLAN_1
 62
     2
  6
CONTINUOUS
 10
-0.493209
 20
-2.978378
  0
SEQEND
  8
0
  0
POLYLINE
  8
PLAN_1
 62
     2
  6
CONTINUOUS
 66
     1
 40
0.003000
 41
0.003000
  0
VERTEX
  8
PLAN_1
 62
     2
  6
CONTINUOUS
 10
-0.454343
 20
-2.972823
  0
VERTEX
  8
PLAN_1
 62
     2
  6
CONTINUOUS
 10
-0.453728
 20
-2.969122
  0
VERTEX
  8
PLAN_1
 62
     2
  6
CONTINUOUS
 10
-0.453728
 20
-2.965421
  0
VERTEX
  8
PLAN_1
 62
     2
  6
CONTINUOUS
 10
-0.452492
 20
-2.961720
  0
VERTEX
  8
PLAN_1
 62
     2
  6
CONTINUOUS
 10
-0.451260
 20
-2.959252
  0
VERTEX
  8
PLAN_1
 62
     2
  6
CONTINUOUS
 10
-0.450028
 20
-2.956169
  0
VERTEX
  8
PLAN_1
 62
     2
  6
CONTINUOUS
 10
-0.448177
 20
-2.954319
  0
VERTEX
  8
PLAN_1
 62
     2
  6
CONTINUOUS
 10
-0.446323
 20
-2.952469
  0
VERTEX
  8
PLAN_1
 62
     2
  6
CONTINUOUS
 10
-0.444472
 20
-2.951232
  0
VERTEX
  8
PLAN_1
 62
     2
  6
CONTINUOUS
 10
-0.440157
 20
-2.948768
  0
VERTEX
  8
PLAN_1
 62
     2
  6
CONTINUOUS
 10
-0.436453
 20
-2.947531
  0
VERTEX
  8
PLAN_1
 62
     2
  6
CONTINUOUS
 10
-0.432138
 20
-2.946917
  0
VERTEX
  8
PLAN_1
 62
     2
  6
CONTINUOUS
 10
-0.429051
 20
-2.946917
  0
VERTEX
  8
PLAN_1
 62
     2
  6
CONTINUOUS
 10
-0.424118
 20
-2.947531
  0
VERTEX
  8
PLAN_1
 62
     2
  6
CONTINUOUS
 10
-0.419799
 20
-2.948150
  0
VERTEX
  8
PLAN_1
 62
     2
  6
CONTINUOUS
 10
-0.416098
 20
-2.950000
  0
VERTEX
  8
PLAN_1
 62
     2
  6
CONTINUOUS
 10
-0.413012
 20
-2.952469
  0
VERTEX
  8
PLAN_1
 62
     2
  6
CONTINUOUS
 10
-0.409929
 20
-2.955551
  0
VERTEX
  8
PLAN_1
 62
     2
  6
CONTINUOUS
 10
-0.408079
 20
-2.959252
  0
VERTEX
  8
PLAN_1
 62
     2
  6
CONTINUOUS
 10
-0.406228
 20
-2.963571
  0
VERTEX
  8
PLAN_1
 62
     2
  6
CONTINUOUS
 10
-0.406228
 20
-2.968508
  0
VERTEX
  8
PLAN_1
 62
     2
  6
CONTINUOUS
 10
-0.406228
 20
-2.973441
  0
VERTEX
  8
PLAN_1
 62
     2
  6
CONTINUOUS
 10
-0.407461
 20
-2.977142
  0
VERTEX
  8
PLAN_1
 62
     2
  6
CONTINUOUS
 10
-0.409311
 20
-2.980843
  0
VERTEX
  8
PLAN_1
 62
     2
  6
CONTINUOUS
 10
-0.411780
 20
-2.983929
  0
VERTEX
  8
PLAN_1
 62
     2
  6
CONTINUOUS
 10
-0.414862
 20
-2.986398
  0
VERTEX
  8
PLAN_1
 62
     2
  6
CONTINUOUS
 10
-0.417949
 20
-2.988862
  0
VERTEX
  8
PLAN_1
 62
     2
  6
CONTINUOUS
 10
-0.421650
 20
-2.990713
  0
VERTEX
  8
PLAN_1
 62
     2
  6
CONTINUOUS
 10
-0.425350
 20
-2.993181
  0
VERTEX
  8
PLAN_1
 62
     2
  6
CONTINUOUS
 10
-0.433370
 20
-2.997500
  0
VERTEX
  8
PLAN_1
 62
     2
  6
CONTINUOUS
 10
-0.436453
 20
-2.999350
  0
VERTEX
  8
PLAN_1
 62
     2
  6
CONTINUOUS
 10
-0.439539
 20
-3.001201
  0
VERTEX
  8
PLAN_1
 62
     2
  6
CONTINUOUS
 10
-0.441390
 20
-3.003669
  0
VERTEX
  8
PLAN_1
 62
     2
  6
CONTINUOUS
 10
-0.443240
 20
-3.005520
  0
VERTEX
  8
PLAN_1
 62
     2
  6
CONTINUOUS
 10
-0.444472
 20
-3.007370
  0
VERTEX
  8
PLAN_1
 62
     2
  6
CONTINUOUS
 10
-0.445091
 20
-3.008602
  0
VERTEX
  8
PLAN_1
 62
     2
  6
CONTINUOUS
 10
-0.445709
 20
-3.010453
  0
VERTEX
  8
PLAN_1
 62
     2
  6
CONTINUOUS
 10
-0.445709
 20
-3.011071
  0
VERTEX
  8
PLAN_1
 62
     2
  6
CONTINUOUS
 10
-0.406228
 20
-3.011071
  0
VERTEX
  8
PLAN_1
 62
     2
  6
CONTINUOUS
 10
-0.406228
 20
-3.019709
  0
VERTEX
  8
PLAN_1
 62
     2
  6
CONTINUOUS
 10
-0.456193
 20
-3.019709
  0
VERTEX
  8
PLAN_1
 62
     2
  6
CONTINUOUS
 10
-0.455579
 20
-3.014772
  0
VERTEX
  8
PLAN_1
 62
     2
  6
CONTINUOUS
 10
-0.454343
 20
-3.009839
  0
VERTEX
  8
PLAN_1
 62
     2
  6
CONTINUOUS
 10
-0.453110
 20
-3.005520
  0
VERTEX
  8
PLAN_1
 62
     2
  6
CONTINUOUS
 10
-0.451260
 20
-3.001819
  0
VERTEX
  8
PLAN_1
 62
     2
  6
CONTINUOUS
 10
-0.448791
 20
-2.998732
  0
VERTEX
  8
PLAN_1
 62
     2
  6
CONTINUOUS
 10
-0.445709
 20
-2.995650
  0
VERTEX
  8
PLAN_1
 62
     2
  6
CONTINUOUS
 10
-0.442622
 20
-2.993181
  0
VERTEX
  8
PLAN_1
 62
     2
  6
CONTINUOUS
 10
-0.438921
 20
-2.990713
  0
VERTEX
  8
PLAN_1
 62
     2
  6
CONTINUOUS
 10
-0.429051
 20
-2.985161
  0
VERTEX
  8
PLAN_1
 62
     2
  6
CONTINUOUS
 10
-0.426583
 20
-2.983929
  0
VERTEX
  8
PLAN_1
 62
     2
  6
CONTINUOUS
 10
-0.424118
 20
-2.982079
  0
VERTEX
  8
PLAN_1
 62
     2
  6
CONTINUOUS
 10
-0.421650
 20
-2.980228
  0
VERTEX
  8
PLAN_1
 62
     2
  6
CONTINUOUS
 10
-0.419799
 20
-2.978992
  0
VERTEX
  8
PLAN_1
 62
     2
  6
CONTINUOUS
 10
-0.417949
 20
-2.976528
  0
VERTEX
  8
PLAN_1
 62
     2
  6
CONTINUOUS
 10
-0.416713
 20
-2.974677
  0
VERTEX
  8
PLAN_1
 62
     2
  6
CONTINUOUS
 10
-0.416098
 20
-2.971591
  0
VERTEX
  8
PLAN_1
 62
     2
  6
CONTINUOUS
 10
-0.416098
 20
-2.968508
  0
VERTEX
  8
PLAN_1
 62
     2
  6
CONTINUOUS
 10
-0.416098
 20
-2.966039
  0
VERTEX
  8
PLAN_1
 62
     2
  6
CONTINUOUS
 10
-0.416713
 20
-2.963571
  0
VERTEX
  8
PLAN_1
 62
     2
  6
CONTINUOUS
 10
-0.417331
 20
-2.961720
  0
VERTEX
  8
PLAN_1
 62
     2
  6
CONTINUOUS
 10
-0.419181
 20
-2.959252
  0
VERTEX
  8
PLAN_1
 62
     2
  6
CONTINUOUS
 10
-0.421031
 20
-2.958020
  0
VERTEX
  8
PLAN_1
 62
     2
  6
CONTINUOUS
 10
-0.423500
 20
-2.956169
  0
VERTEX
  8
PLAN_1
 62
     2
  6
CONTINUOUS
 10
-0.426583
 20
-2.955551
  0
VERTEX
  8
PLAN_1
 62
     2
  6
CONTINUOUS
 10
-0.430287
 20
-2.954937
  0
VERTEX
  8
PLAN_1
 62
     2
  6
CONTINUOUS
 10
-0.434602
 20
-2.955551
  0
VERTEX
  8
PLAN_1
 62
     2
  6
CONTINUOUS
 10
-0.438307
 20
-2.957402
  0
VERTEX
  8
PLAN_1
 62
     2
  6
CONTINUOUS
 10
-0.440772
 20
-2.959252
  0
VERTEX
  8
PLAN_1
 62
     2
  6
CONTINUOUS
 10
-0.442622
 20
-2.962339
  0
VERTEX
  8
PLAN_1
 62
     2
  6
CONTINUOUS
 10
-0.443858
 20
-2.965421
  0
VERTEX
  8
PLAN_1
 62
     2
  6
CONTINUOUS
 10
-0.444472
 20
-2.967890
  0
VERTEX
  8
PLAN_1
 62
     2
  6
CONTINUOUS
 10
-0.445091
 20
-2.970972
  0
VERTEX
  8
PLAN_1
 62
     2
  6
CONTINUOUS
 10
-0.445091
 20
-2.972823
  0
VERTEX
  8
PLAN_1
 62
     2
  6
CONTINUOUS
 10
-0.454343
 20
-2.972823
  0
SEQEND
  8
0
  0
SOLID
  8
PLAN_1
 62
     2
 10
0.384000
 20
-2.987012
 11
0.331563
 21
-2.987012
 12
0.384000
 22
-2.979610
 13
0.331563
 23
-2.979610
  0
POLYLINE
  8
PLAN_1
 62
     2
  6
CONTINUOUS
 66
     1
 40
0.003000
 41
0.003000
  0
VERTEX
  8
PLAN_1
 62
     2
  6
CONTINUOUS
 10
0.384000
 20
-2.987012
  0
VERTEX
  8
PLAN_1
 62
     2
  6
CONTINUOUS
 10
0.331563
 20
-2.987012
  0
VERTEX
  8
PLAN_1
 62
     2
  6
CONTINUOUS
 10
0.331563
 20
-2.979610
  0
VERTEX
  8
PLAN_1
 62
     2
  6
CONTINUOUS
 10
0.384000
 20
-2.979610
  0
VERTEX
  8
PLAN_1
 62
     2
  6
CONTINUOUS
 10
0.384000
 20
-2.987012
  0
SEQEND
  8
0
  0
SOLID
  8
PLAN_1
 62
     2
 10
0.384000
 20
-3.007988
 11
0.331563
 21
-3.007988
 12
0.384000
 22
-3.000583
 13
0.331563
 23
-3.000583
  0
POLYLINE
  8
PLAN_1
 62
     2
  6
CONTINUOUS
 66
     1
 40
0.003000
 41
0.003000
  0
VERTEX
  8
PLAN_1
 62
     2
  6
CONTINUOUS
 10
0.384000
 20
-3.007988
  0
VERTEX
  8
PLAN_1
 62
     2
  6
CONTINUOUS
 10
0.331563
 20
-3.007988
  0
VERTEX
  8
PLAN_1
 62
     2
  6
CONTINUOUS
 10
0.331563
 20
-3.000583
  0
VERTEX
  8
PLAN_1
 62
     2
  6
CONTINUOUS
 10
0.384000
 20
-3.000583
  0
VERTEX
  8
PLAN_1
 62
     2
  6
CONTINUOUS
 10
0.384000
 20
-3.007988
  0
SEQEND
  8
0
  0
SOLID
  8
PLAN_1
 62
     2
 10
-1.240252
 20
-2.987012
 11
-1.293307
 21
-2.987012
 12
-1.240252
 22
-2.979610
 13
-1.293307
 23
-2.979610
  0
POLYLINE
  8
PLAN_1
 62
     2
  6
CONTINUOUS
 66
     1
 40
0.003000
 41
0.003000
  0
VERTEX
  8
PLAN_1
 62
     2
  6
CONTINUOUS
 10
-1.240252
 20
-2.987012
  0
VERTEX
  8
PLAN_1
 62
     2
  6
CONTINUOUS
 10
-1.293307
 20
-2.987012
  0
VERTEX
  8
PLAN_1
 62
     2
  6
CONTINUOUS
 10
-1.293307
 20
-2.979610
  0
VERTEX
  8
PLAN_1
 62
     2
  6
CONTINUOUS
 10
-1.240252
 20
-2.979610
  0
VERTEX
  8
PLAN_1
 62
     2
  6
CONTINUOUS
 10
-1.240252
 20
-2.987012
  0
SEQEND
  8
0
  0
SOLID
  8
PLAN_1
 62
     2
 10
-1.240252
 20
-3.007988
 11
-1.293307
 21
-3.007988
 12
-1.240252
 22
-3.000583
 13
-1.293307
 23
-3.000583
  0
POLYLINE
  8
PLAN_1
 62
     2
  6
CONTINUOUS
 66
     1
 40
0.003000
 41
0.003000
  0
VERTEX
  8
PLAN_1
 62
     2
  6
CONTINUOUS
 10
-1.240252
 20
-3.007988
  0
VERTEX
  8
PLAN_1
 62
     2
  6
CONTINUOUS
 10
-1.293307
 20
-3.007988
  0
VERTEX
  8
PLAN_1
 62
     2
  6
CONTINUOUS
 10
-1.293307
 20
-3.000583
  0
VERTEX
  8
PLAN_1
 62
     2
  6
CONTINUOUS
 10
-1.240252
 20
-3.000583
  0
VERTEX
  8
PLAN_1
 62
     2
  6
CONTINUOUS
 10
-1.240252
 20
-3.007988
  0
SEQEND
  8
0
  0
POLYLINE
  8
PLAN_1
 62
     2
  6
CONTINUOUS
 66
     1
 40
0.004315
 41
0.004315
  0
VERTEX
  8
PLAN_1
 62
     2
  6
CONTINUOUS
 10
-2.434539
 20
-3.638441
  0
VERTEX
  8
PLAN_1
 62
     2
  6
CONTINUOUS
 10
0.556110
 20
-3.638441
  0
SEQEND
  8
0
  0
SOLID
  8
PLAN_1
 62
     2
 10
0.585102
 20
-3.638441
 11
0.526500
 21
-3.623020
 12
0.585102
 22
-3.638441
 13
0.526500
 23
-3.654480
  0
POLYLINE
  8
PLAN_1
 62
     2
  6
CONTINUOUS
 66
     1
 40
0.003000
 41
0.003000
  0
VERTEX
  8
PLAN_1
 62
     2
  6
CONTINUOUS
 10
0.585102
 20
-3.638441
  0
VERTEX
  8
PLAN_1
 62
     2
  6
CONTINUOUS
 10
0.526500
 20
-3.623020
  0
VERTEX
  8
PLAN_1
 62
     2
  6
CONTINUOUS
 10
0.526500
 20
-3.654480
  0
VERTEX
  8
PLAN_1
 62
     2
  6
CONTINUOUS
 10
0.585102
 20
-3.638441
  0
SEQEND
  8
0
  0
SOLID
  8
PLAN_1
 62
     2
 10
-2.464150
 20
-3.638441
 11
-2.404929
 21
-3.623020
 12
-2.464150
 22
-3.638441
 13
-2.404929
 23
-3.654480
  0
POLYLINE
  8
PLAN_1
 62
     2
  6
CONTINUOUS
 66
     1
 40
0.003000
 41
0.003000
  0
VERTEX
  8
PLAN_1
 62
     2
  6
CONTINUOUS
 10
-2.464150
 20
-3.638441
  0
VERTEX
  8
PLAN_1
 62
     2
  6
CONTINUOUS
 10
-2.404929
 20
-3.623020
  0
VERTEX
  8
PLAN_1
 62
     2
  6
CONTINUOUS
 10
-2.404929
 20
-3.654480
  0
VERTEX
  8
PLAN_1
 62
     2
  6
CONTINUOUS
 10
-2.464150
 20
-3.638441
  0
SEQEND
  8
0
  0
POLYLINE
  8
PLAN_1
 62
     2
  6
CONTINUOUS
 66
     1
 40
0.003000
 41
0.003000
  0
VERTEX
  8
PLAN_1
 62
     2
  6
CONTINUOUS
 10
-0.993500
 20
-3.543441
  0
VERTEX
  8
PLAN_1
 62
     2
  6
CONTINUOUS
 10
-0.942917
 20
-3.543441
  0
VERTEX
  8
PLAN_1
 62
     2
  6
CONTINUOUS
 10
-0.942917
 20
-3.551461
  0
VERTEX
  8
PLAN_1
 62
     2
  6
CONTINUOUS
 10
-0.946000
 20
-3.555161
  0
VERTEX
  8
PLAN_1
 62
     2
  6
CONTINUOUS
 10
-0.949701
 20
-3.560098
  0
VERTEX
  8
PLAN_1
 62
     2
  6
CONTINUOUS
 10
-0.954020
 20
-3.566268
  0
VERTEX
  8
PLAN_1
 62
     2
  6
CONTINUOUS
 10
-0.958339
 20
-3.573669
  0
VERTEX
  8
PLAN_1
 62
     2
  6
CONTINUOUS
 10
-0.962657
 20
-3.582307
  0
VERTEX
  8
PLAN_1
 62
     2
  6
CONTINUOUS
 10
-0.966972
 20
-3.592177
  0
VERTEX
  8
PLAN_1
 62
     2
  6
CONTINUOUS
 10
-0.970059
 20
-3.603280
  0
VERTEX
  8
PLAN_1
 62
     2
  6
CONTINUOUS
 10
-0.972528
 20
-3.615000
  0
VERTEX
  8
PLAN_1
 62
     2
  6
CONTINUOUS
 10
-0.983012
 20
-3.615000
  0
VERTEX
  8
PLAN_1
 62
     2
  6
CONTINUOUS
 10
-0.981780
 20
-3.606980
  0
VERTEX
  8
PLAN_1
 62
     2
  6
CONTINUOUS
 10
-0.979311
 20
-3.598961
  0
VERTEX
  8
PLAN_1
 62
     2
  6
CONTINUOUS
 10
-0.976228
 20
-3.590323
  0
VERTEX
  8
PLAN_1
 62
     2
  6
CONTINUOUS
 10
-0.972528
 20
-3.582307
  0
VERTEX
  8
PLAN_1
 62
     2
  6
CONTINUOUS
 10
-0.968209
 20
-3.574287
  0
VERTEX
  8
PLAN_1
 62
     2
  6
CONTINUOUS
 10
-0.963272
 20
-3.566268
  0
VERTEX
  8
PLAN_1
 62
     2
  6
CONTINUOUS
 10
-0.958339
 20
-3.558862
  0
VERTEX
  8
PLAN_1
 62
     2
  6
CONTINUOUS
 10
-0.952787
 20
-3.552079
  0
VERTEX
  8
PLAN_1
 62
     2
  6
CONTINUOUS
 10
-0.993500
 20
-3.552079
  0
VERTEX
  8
PLAN_1
 62
     2
  6
CONTINUOUS
 10
-0.993500
 20
-3.543441
  0
SEQEND
  8
0
  0
POLYLINE
  8
PLAN_1
 62
     2
  6
CONTINUOUS
 66
     1
 40
0.003000
 41
0.003000
  0
VERTEX
  8
PLAN_1
 62
     2
  6
CONTINUOUS
 10
-0.923791
 20
-3.572437
  0
VERTEX
  8
PLAN_1
 62
     2
  6
CONTINUOUS
 10
-0.922559
 20
-3.571201
  0
VERTEX
  8
PLAN_1
 62
     2
  6
CONTINUOUS
 10
-0.921323
 20
-3.570583
  0
VERTEX
  8
PLAN_1
 62
     2
  6
CONTINUOUS
 10
-0.920091
 20
-3.569969
  0
VERTEX
  8
PLAN_1
 62
     2
  6
CONTINUOUS
 10
-0.918240
 20
-3.569350
  0
VERTEX
  8
PLAN_1
 62
     2
  6
CONTINUOUS
 10
-0.916390
 20
-3.568732
  0
VERTEX
  8
PLAN_1
 62
     2
  6
CONTINUOUS
 10
-0.914539
 20
-3.568118
  0
VERTEX
  8
PLAN_1
 62
     2
  6
CONTINUOUS
 10
-0.912071
 20
-3.568118
  0
VERTEX
  8
PLAN_1
 62
     2
  6
CONTINUOUS
 10
-0.909602
 20
-3.567500
  0
VERTEX
  8
PLAN_1
 62
     2
  6
CONTINUOUS
 10
-0.905287
 20
-3.568118
  0
VERTEX
  8
PLAN_1
 62
     2
  6
CONTINUOUS
 10
-0.900969
 20
-3.569350
  0
VERTEX
  8
PLAN_1
 62
     2
  6
CONTINUOUS
 10
-0.897268
 20
-3.571201
  0
VERTEX
  8
PLAN_1
 62
     2
  6
CONTINUOUS
 10
-0.893563
 20
-3.573669
  0
VERTEX
  8
PLAN_1
 62
     2
  6
CONTINUOUS
 10
-0.890480
 20
-3.577370
  0
VERTEX
  8
PLAN_1
 62
     2
  6
CONTINUOUS
 10
-0.888012
 20
-3.581071
  0
VERTEX
  8
PLAN_1
 62
     2
  6
CONTINUOUS
 10
-0.886161
 20
-3.586008
  0
VERTEX
  8
PLAN_1
 62
     2
  6
CONTINUOUS
 10
-0.885547
 20
-3.590941
  0
VERTEX
  8
PLAN_1
 62
     2
  6
CONTINUOUS
 10
-0.886161
 20
-3.594642
  0
VERTEX
  8
PLAN_1
 62
     2
  6
CONTINUOUS
 10
-0.886780
 20
-3.598961
  0
VERTEX
  8
PLAN_1
 62
     2
  6
CONTINUOUS
 10
-0.888012
 20
-3.602661
  0
VERTEX
  8
PLAN_1
 62
     2
  6
CONTINUOUS
 10
-0.890480
 20
-3.606980
  0
VERTEX
  8
PLAN_1
 62
     2
  6
CONTINUOUS
 10
-0.892331
 20
-3.608831
  0
VERTEX
  8
PLAN_1
 62
     2
  6
CONTINUOUS
 10
-0.893563
 20
-3.610681
  0
VERTEX
  8
PLAN_1
 62
     2
  6
CONTINUOUS
 10
-0.896031
 20
-3.612531
  0
VERTEX
  8
PLAN_1
 62
     2
  6
CONTINUOUS
 10
-0.898500
 20
-3.613768
  0
VERTEX
  8
PLAN_1
 62
     2
  6
CONTINUOUS
 10
-0.901583
 20
-3.615000
  0
VERTEX
  8
PLAN_1
 62
     2
  6
CONTINUOUS
 10
-0.904669
 20
-3.616232
  0
VERTEX
  8
PLAN_1
 62
     2
  6
CONTINUOUS
 10
-0.908370
 20
-3.616850
  0
VERTEX
  8
PLAN_1
 62
     2
  6
CONTINUOUS
 10
-0.912071
 20
-3.616850
  0
VERTEX
  8
PLAN_1
 62
     2
  6
CONTINUOUS
 10
-0.915772
 20
-3.616850
  0
VERTEX
  8
PLAN_1
 62
     2
  6
CONTINUOUS
 10
-0.920091
 20
-3.616232
  0
VERTEX
  8
PLAN_1
 62
     2
  6
CONTINUOUS
 10
-0.923791
 20
-3.615000
  0
VERTEX
  8
PLAN_1
 62
     2
  6
CONTINUOUS
 10
-0.926878
 20
-3.613150
  0
VERTEX
  8
PLAN_1
 62
     2
  6
CONTINUOUS
 10
-0.929961
 20
-3.610063
  0
VERTEX
  8
PLAN_1
 62
     2
  6
CONTINUOUS
 10
-0.933047
 20
-3.606980
  0
VERTEX
  8
PLAN_1
 62
     2
  6
CONTINUOUS
 10
-0.934898
 20
-3.602047
  0
VERTEX
  8
PLAN_1
 62
     2
  6
CONTINUOUS
 10
-0.936130
 20
-3.596492
  0
VERTEX
  8
PLAN_1
 62
     2
  6
CONTINUOUS
 10
-0.926260
 20
-3.596492
  0
VERTEX
  8
PLAN_1
 62
     2
  6
CONTINUOUS
 10
-0.925642
 20
-3.599579
  0
VERTEX
  8
PLAN_1
 62
     2
  6
CONTINUOUS
 10
-0.925028
 20
-3.602047
  0
VERTEX
  8
PLAN_1
 62
     2
  6
CONTINUOUS
 10
-0.923177
 20
-3.604512
  0
VERTEX
  8
PLAN_1
 62
     2
  6
CONTINUOUS
 10
-0.921323
 20
-3.606362
  0
VERTEX
  8
PLAN_1
 62
     2
  6
CONTINUOUS
 10
-0.919472
 20
-3.607598
  0
VERTEX
  8
PLAN_1
 62
     2
  6
CONTINUOUS
 10
-0.917008
 20
-3.608213
  0
VERTEX
  8
PLAN_1
 62
     2
  6
CONTINUOUS
 10
-0.913921
 20
-3.608831
  0
VERTEX
  8
PLAN_1
 62
     2
  6
CONTINUOUS
 10
-0.910839
 20
-3.608831
  0
VERTEX
  8
PLAN_1
 62
     2
  6
CONTINUOUS
 10
-0.907752
 20
-3.608831
  0
VERTEX
  8
PLAN_1
 62
     2
  6
CONTINUOUS
 10
-0.904669
 20
-3.607598
  0
VERTEX
  8
PLAN_1
 62
     2
  6
CONTINUOUS
 10
-0.902201
 20
-3.606362
  0
VERTEX
  8
PLAN_1
 62
     2
  6
CONTINUOUS
 10
-0.899732
 20
-3.603898
  0
VERTEX
  8
PLAN_1
 62
     2
  6
CONTINUOUS
 10
-0.897882
 20
-3.601429
  0
VERTEX
  8
PLAN_1
 62
     2
  6
CONTINUOUS
 10
-0.896650
 20
-3.598961
  0
VERTEX
  8
PLAN_1
 62
     2
  6
CONTINUOUS
 10
-0.896031
 20
-3.595878
  0
VERTEX
  8
PLAN_1
 62
     2
  6
CONTINUOUS
 10
-0.895417
 20
-3.592177
  0
VERTEX
  8
PLAN_1
 62
     2
  6
CONTINUOUS
 10
-0.896031
 20
-3.588472
  0
VERTEX
  8
PLAN_1
 62
     2
  6
CONTINUOUS
 10
-0.896650
 20
-3.585390
  0
VERTEX
  8
PLAN_1
 62
     2
  6
CONTINUOUS
 10
-0.898500
 20
-3.582307
  0
VERTEX
  8
PLAN_1
 62
     2
  6
CONTINUOUS
 10
-0.900350
 20
-3.580453
  0
VERTEX
  8
PLAN_1
 62
     2
  6
CONTINUOUS
 10
-0.902819
 20
-3.578602
  0
VERTEX
  8
PLAN_1
 62
     2
  6
CONTINUOUS
 10
-0.905287
 20
-3.577370
  0
VERTEX
  8
PLAN_1
 62
     2
  6
CONTINUOUS
 10
-0.908370
 20
-3.576138
  0
VERTEX
  8
PLAN_1
 62
     2
  6
CONTINUOUS
 10
-0.912071
 20
-3.576138
  0
VERTEX
  8
PLAN_1
 62
     2
  6
CONTINUOUS
 10
-0.913921
 20
-3.576138
  0
VERTEX
  8
PLAN_1
 62
     2
  6
CONTINUOUS
 10
-0.915772
 20
-3.576752
  0
VERTEX
  8
PLAN_1
 62
     2
  6
CONTINUOUS
 10
-0.917622
 20
-3.576752
  0
VERTEX
  8
PLAN_1
 62
     2
  6
CONTINUOUS
 10
-0.919472
 20
-3.577988
  0
VERTEX
  8
PLAN_1
 62
     2
  6
CONTINUOUS
 10
-0.920709
 20
-3.578602
  0
VERTEX
  8
PLAN_1
 62
     2
  6
CONTINUOUS
 10
-0.922559
 20
-3.579839
  0
VERTEX
  8
PLAN_1
 62
     2
  6
CONTINUOUS
 10
-0.923791
 20
-3.581689
  0
VERTEX
  8
PLAN_1
 62
     2
  6
CONTINUOUS
 10
-0.925028
 20
-3.582921
  0
VERTEX
  8
PLAN_1
 62
     2
  6
CONTINUOUS
 10
-0.933047
 20
-3.582307
  0
VERTEX
  8
PLAN_1
 62
     2
  6
CONTINUOUS
 10
-0.927492
 20
-3.543441
  0
VERTEX
  8
PLAN_1
 62
     2
  6
CONTINUOUS
 10
-0.889862
 20
-3.543441
  0
VERTEX
  8
PLAN_1
 62
     2
  6
CONTINUOUS
 10
-0.889862
 20
-3.552079
  0
VERTEX
  8
PLAN_1
 62
     2
  6
CONTINUOUS
 10
-0.920709
 20
-3.552079
  0
VERTEX
  8
PLAN_1
 62
     2
  6
CONTINUOUS
 10
-0.923791
 20
-3.572437
  0
SEQEND
  8
0
  0
POLYLINE
  8
PLAN_1
 62
     2
  6
CONTINUOUS
 66
     1
 40
0.004315
 41
0.004315
  0
VERTEX
  8
PLAN_1
 62
     2
  6
CONTINUOUS
 10
0.585102
 20
-2.116591
  0
VERTEX
  8
PLAN_1
 62
     2
  6
CONTINUOUS
 10
0.585102
 20
-3.661882
  0
SEQEND
  8
0
  0
POLYLINE
  8
PLAN_1
 62
     2
  6
CONTINUOUS
 66
     1
 40
0.004315
 41
0.004315
  0
VERTEX
  8
PLAN_1
 62
     2
  6
CONTINUOUS
 10
-1.500579
 20
-2.706949
  0
VERTEX
  8
PLAN_1
 62
     2
  6
CONTINUOUS
 10
-1.500579
 20
-3.225130
  0
SEQEND
  8
0
  0
POLYLINE
  8
PLAN_1
 62
     2
  6
CONTINUOUS
 66
     1
 40
0.004315
 41
0.004315
  0
VERTEX
  8
PLAN_1
 62
     2
  6
CONTINUOUS
 10
-2.464150
 20
-0.181429
  0
VERTEX
  8
PLAN_1
 62
     2
  6
CONTINUOUS
 10
-2.464150
 20
-3.661882
  0
SEQEND
  8
0
  0
POLYLINE
  8
PLAN_1
 62
     2
  6
CONTINUOUS
 66
     1
 40
0.004315
 41
0.004315
  0
VERTEX
  8
PLAN_1
 62
     2
  6
CONTINUOUS
 10
-1.032980
 20
-2.908669
  0
VERTEX
  8
PLAN_1
 62
     2
  6
CONTINUOUS
 10
-1.032980
 20
-3.043768
  0
SEQEND
  8
0
  0
POLYLINE
  8
PLAN_1
 62
     2
  6
CONTINUOUS
 66
     1
 40
0.004315
 41
0.004315
  0
VERTEX
  8
PLAN_1
 62
     2
  6
CONTINUOUS
 10
0.123677
 20
-2.908669
  0
VERTEX
  8
PLAN_1
 62
     2
  6
CONTINUOUS
 10
0.123677
 20
-3.054870
  0
SEQEND
  8
0
  0
POLYLINE
  8
PLAN_1
 62
     2
  6
CONTINUOUS
 66
     1
 40
0.004315
 41
0.004315
  0
VERTEX
  8
PLAN_1
 62
     2
  6
CONTINUOUS
 10
0.764618
 20
-2.890780
  0
VERTEX
  8
PLAN_1
 62
     2
  6
CONTINUOUS
 10
0.608547
 20
-2.890780
  0
SEQEND
  8
0
  0
POLYLINE
  8
PLAN_1
 62
     2
  6
CONTINUOUS
 66
     1
 40
0.004315
 41
0.004315
  0
VERTEX
  8
PLAN_1
 62
     2
  6
CONTINUOUS
 10
0.561661
 20
-2.890780
  0
VERTEX
  8
PLAN_1
 62
     2
  6
CONTINUOUS
 10
0.404972
 20
-2.890780
  0
SEQEND
  8
0
  0
POLYLINE
  8
PLAN_1
 62
     2
  6
CONTINUOUS
 66
     1
 40
0.004315
 41
0.004315
  0
VERTEX
  8
PLAN_1
 62
     2
  6
CONTINUOUS
 10
-2.003953
 20
4.838150
  0
VERTEX
  8
PLAN_1
 62
     2
  6
CONTINUOUS
 10
0.554260
 20
4.838150
  0
SEQEND
  8
0
  0
SOLID
  8
PLAN_1
 62
     2
 10
0.583870
 20
4.838150
 11
0.525268
 21
4.854189
 12
0.583870
 22
4.838150
 13
0.525268
 23
4.822728
  0
POLYLINE
  8
PLAN_1
 62
     2
  6
CONTINUOUS
 66
     1
 40
0.003000
 41
0.003000
  0
VERTEX
  8
PLAN_1
 62
     2
  6
CONTINUOUS
 10
0.583870
 20
4.838150
  0
VERTEX
  8
PLAN_1
 62
     2
  6
CONTINUOUS
 10
0.525268
 20
4.854189
  0
VERTEX
  8
PLAN_1
 62
     2
  6
CONTINUOUS
 10
0.525268
 20
4.822728
  0
VERTEX
  8
PLAN_1
 62
     2
  6
CONTINUOUS
 10
0.583870
 20
4.838150
  0
SEQEND
  8
0
  0
SOLID
  8
PLAN_1
 62
     2
 10
-2.032949
 20
4.838150
 11
-1.974343
 21
4.854189
 12
-2.032949
 22
4.838150
 13
-1.974343
 23
4.822728
  0
POLYLINE
  8
PLAN_1
 62
     2
  6
CONTINUOUS
 66
     1
 40
0.003000
 41
0.003000
  0
VERTEX
  8
PLAN_1
 62
     2
  6
CONTINUOUS
 10
-2.032949
 20
4.838150
  0
VERTEX
  8
PLAN_1
 62
     2
  6
CONTINUOUS
 10
-1.974343
 20
4.854189
  0
VERTEX
  8
PLAN_1
 62
     2
  6
CONTINUOUS
 10
-1.974343
 20
4.822728
  0
VERTEX
  8
PLAN_1
 62
     2
  6
CONTINUOUS
 10
-2.032949
 20
4.838150
  0
SEQEND
  8
0
  0
POLYLINE
  8
PLAN_1
 62
     2
  6
CONTINUOUS
 66
     1
 40
0.003000
 41
0.003000
  0
VERTEX
  8
PLAN_1
 62
     2
  6
CONTINUOUS
 10
-0.739343
 20
4.915260
  0
VERTEX
  8
PLAN_1
 62
     2
  6
CONTINUOUS
 10
-0.739343
 20
4.917728
  0
VERTEX
  8
PLAN_1
 62
     2
  6
CONTINUOUS
 10
-0.740579
 20
4.920193
  0
VERTEX
  8
PLAN_1
 62
     2
  6
CONTINUOUS
 10
-0.741193
 20
4.922047
  0
VERTEX
  8
PLAN_1
 62
     2
  6
CONTINUOUS
 10
-0.743047
 20
4.923280
  0
VERTEX
  8
PLAN_1
 62
     2
  6
CONTINUOUS
 10
-0.744280
 20
4.925130
  0
VERTEX
  8
PLAN_1
 62
     2
  6
CONTINUOUS
 10
-0.746748
 20
4.925748
  0
VERTEX
  8
PLAN_1
 62
     2
  6
CONTINUOUS
 10
-0.749213
 20
4.926362
  0
VERTEX
  8
PLAN_1
 62
     2
  6
CONTINUOUS
 10
-0.751681
 20
4.926980
  0
VERTEX
  8
PLAN_1
 62
     2
  6
CONTINUOUS
 10
-0.754150
 20
4.926362
  0
VERTEX
  8
PLAN_1
 62
     2
  6
CONTINUOUS
 10
-0.756618
 20
4.925748
  0
VERTEX
  8
PLAN_1
 62
     2
  6
CONTINUOUS
 10
-0.758469
 20
4.925130
  0
VERTEX
  8
PLAN_1
 62
     2
  6
CONTINUOUS
 10
-0.760319
 20
4.923898
  0
VERTEX
  8
PLAN_1
 62
     2
  6
CONTINUOUS
 10
-0.763402
 20
4.920193
  0
VERTEX
  8
PLAN_1
 62
     2
  6
CONTINUOUS
 10
-0.765870
 20
4.915878
  0
VERTEX
  8
PLAN_1
 62
     2
  6
CONTINUOUS
 10
-0.767102
 20
4.911559
  0
VERTEX
  8
PLAN_1
 62
     2
  6
CONTINUOUS
 10
-0.768339
 20
4.907240
  0
VERTEX
  8
PLAN_1
 62
     2
  6
CONTINUOUS
 10
-0.768953
 20
4.902921
  0
VERTEX
  8
PLAN_1
 62
     2
  6
CONTINUOUS
 10
-0.768953
 20
4.899839
  0
VERTEX
  8
PLAN_1
 62
     2
  6
CONTINUOUS
 10
-0.767720
 20
4.901071
  0
VERTEX
  8
PLAN_1
 62
     2
  6
CONTINUOUS
 10
-0.766488
 20
4.902307
  0
VERTEX
  8
PLAN_1
 62
     2
  6
CONTINUOUS
 10
-0.765252
 20
4.904157
  0
VERTEX
  8
PLAN_1
 62
     2
  6
CONTINUOUS
 10
-0.762787
 20
4.905390
  0
VERTEX
  8
PLAN_1
 62
     2
  6
CONTINUOUS
 10
-0.760937
 20
4.906622
  0
VERTEX
  8
PLAN_1
 62
     2
  6
CONTINUOUS
 10
-0.757850
 20
4.907858
  0
VERTEX
  8
PLAN_1
 62
     2
  6
CONTINUOUS
 10
-0.754768
 20
4.908472
  0
VERTEX
  8
PLAN_1
 62
     2
  6
CONTINUOUS
 10
-0.751681
 20
4.908472
  0
VERTEX
  8
PLAN_1
 62
     2
  6
CONTINUOUS
 10
-0.747980
 20
4.908472
  0
VERTEX
  8
PLAN_1
 62
     2
  6
CONTINUOUS
 10
-0.744280
 20
4.907240
  0
VERTEX
  8
PLAN_1
 62
     2
  6
CONTINUOUS
 10
-0.740579
 20
4.906008
  0
VERTEX
  8
PLAN_1
 62
     2
  6
CONTINUOUS
 10
-0.736878
 20
4.903539
  0
VERTEX
  8
PLAN_1
 62
     2
  6
CONTINUOUS
 10
-0.733177
 20
4.900453
  0
VERTEX
  8
PLAN_1
 62
     2
  6
CONTINUOUS
 10
-0.730709
 20
4.896138
  0
VERTEX
  8
PLAN_1
 62
     2
  6
CONTINUOUS
 10
-0.730091
 20
4.893669
  0
VERTEX
  8
PLAN_1
 62
     2
  6
CONTINUOUS
 10
-0.729472
 20
4.891201
  0
VERTEX
  8
PLAN_1
 62
     2
  6
CONTINUOUS
 10
-0.728858
 20
4.888118
  0
VERTEX
  8
PLAN_1
 62
     2
  6
CONTINUOUS
 10
-0.728858
 20
4.885031
  0
VERTEX
  8
PLAN_1
 62
     2
  6
CONTINUOUS
 10
-0.728858
 20
4.882563
  0
VERTEX
  8
PLAN_1
 62
     2
  6
CONTINUOUS
 10
-0.728858
 20
4.880098
  0
VERTEX
  8
PLAN_1
 62
     2
  6
CONTINUOUS
 10
-0.729472
 20
4.877630
  0
VERTEX
  8
PLAN_1
 62
     2
  6
CONTINUOUS
 10
-0.730091
 20
4.875161
  0
VERTEX
  8
PLAN_1
 62
     2
  6
CONTINUOUS
 10
-0.731323
 20
4.873311
  0
VERTEX
  8
PLAN_1
 62
     2
  6
CONTINUOUS
 10
-0.732559
 20
4.870843
  0
VERTEX
  8
PLAN_1
 62
     2
  6
CONTINUOUS
 10
-0.733791
 20
4.868992
  0
VERTEX
  8
PLAN_1
 62
     2
  6
CONTINUOUS
 10
-0.735642
 20
4.867142
  0
VERTEX
  8
PLAN_1
 62
     2
  6
CONTINUOUS
 10
-0.736878
 20
4.865291
  0
VERTEX
  8
PLAN_1
 62
     2
  6
CONTINUOUS
 10
-0.738728
 20
4.864059
  0
VERTEX
  8
PLAN_1
 62
     2
  6
CONTINUOUS
 10
-0.740579
 20
4.862823
  0
VERTEX
  8
PLAN_1
 62
     2
  6
CONTINUOUS
 10
-0.742429
 20
4.861591
  0
VERTEX
  8
PLAN_1
 62
     2
  6
CONTINUOUS
 10
-0.744898
 20
4.860972
  0
VERTEX
  8
PLAN_1
 62
     2
  6
CONTINUOUS
 10
-0.747362
 20
4.860358
  0
VERTEX
  8
PLAN_1
 62
     2
  6
CONTINUOUS
 10
-0.750449
 20
4.859740
  0
VERTEX
  8
PLAN_1
 62
     2
  6
CONTINUOUS
 10
-0.754150
 20
4.859740
  0
VERTEX
  8
PLAN_1
 62
     2
  6
CONTINUOUS
 10
-0.756000
 20
4.859740
  0
VERTEX
  8
PLAN_1
 62
     2
  6
CONTINUOUS
 10
-0.758469
 20
4.860358
  0
VERTEX
  8
PLAN_1
 62
     2
  6
CONTINUOUS
 10
-0.760937
 20
4.860972
  0
VERTEX
  8
PLAN_1
 62
     2
  6
CONTINUOUS
 10
-0.763402
 20
4.862209
  0
VERTEX
  8
PLAN_1
 62
     2
  6
CONTINUOUS
 10
-0.765870
 20
4.863441
  0
VERTEX
  8
PLAN_1
 62
     2
  6
CONTINUOUS
 10
-0.768339
 20
4.865291
  0
VERTEX
  8
PLAN_1
 62
     2
  6
CONTINUOUS
 10
-0.770807
 20
4.867760
  0
VERTEX
  8
PLAN_1
 62
     2
  6
CONTINUOUS
 10
-0.772657
 20
4.870228
  0
VERTEX
  8
PLAN_1
 62
     2
  6
CONTINUOUS
 10
-0.774508
 20
4.873311
  0
VERTEX
  8
PLAN_1
 62
     2
  6
CONTINUOUS
 10
-0.775740
 20
4.875780
  0
VERTEX
  8
PLAN_1
 62
     2
  6
CONTINUOUS
 10
-0.776358
 20
4.878862
  0
VERTEX
  8
PLAN_1
 62
     2
  6
CONTINUOUS
 10
-0.777591
 20
4.881949
  0
VERTEX
  8
PLAN_1
 62
     2
  6
CONTINUOUS
 10
-0.778209
 20
4.885650
  0
VERTEX
  8
PLAN_1
 62
     2
  6
CONTINUOUS
 10
-0.778209
 20
4.888732
  0
VERTEX
  8
PLAN_1
 62
     2
  6
CONTINUOUS
 10
-0.778209
 20
4.892437
  0
VERTEX
  8
PLAN_1
 62
     2
  6
CONTINUOUS
 10
-0.778823
 20
4.896138
  0
VERTEX
  8
PLAN_1
 62
     2
  6
CONTINUOUS
 10
-0.778209
 20
4.902307
  0
VERTEX
  8
PLAN_1
 62
     2
  6
CONTINUOUS
 10
-0.777591
 20
4.908472
  0
VERTEX
  8
PLAN_1
 62
     2
  6
CONTINUOUS
 10
-0.775740
 20
4.915260
  0
VERTEX
  8
PLAN_1
 62
     2
  6
CONTINUOUS
 10
-0.773272
 20
4.921429
  0
VERTEX
  8
PLAN_1
 62
     2
  6
CONTINUOUS
 10
-0.771421
 20
4.924512
  0
VERTEX
  8
PLAN_1
 62
     2
  6
CONTINUOUS
 10
-0.769571
 20
4.926980
  0
VERTEX
  8
PLAN_1
 62
     2
  6
CONTINUOUS
 10
-0.767720
 20
4.929449
  0
VERTEX
  8
PLAN_1
 62
     2
  6
CONTINUOUS
 10
-0.764638
 20
4.931299
  0
VERTEX
  8
PLAN_1
 62
     2
  6
CONTINUOUS
 10
-0.762169
 20
4.932531
  0
VERTEX
  8
PLAN_1
 62
     2
  6
CONTINUOUS
 10
-0.759083
 20
4.933768
  0
VERTEX
  8
PLAN_1
 62
     2
  6
CONTINUOUS
 10
-0.755382
 20
4.935000
  0
VERTEX
  8
PLAN_1
 62
     2
  6
CONTINUOUS
 10
-0.751681
 20
4.935000
  0
VERTEX
  8
PLAN_1
 62
     2
  6
CONTINUOUS
 10
-0.747980
 20
4.935000
  0
VERTEX
  8
PLAN_1
 62
     2
  6
CONTINUOUS
 10
-0.744898
 20
4.933768
  0
VERTEX
  8
PLAN_1
 62
     2
  6
CONTINUOUS
 10
-0.741193
 20
4.932531
  0
VERTEX
  8
PLAN_1
 62
     2
  6
CONTINUOUS
 10
-0.738110
 20
4.930681
  0
VERTEX
  8
PLAN_1
 62
     2
  6
CONTINUOUS
 10
-0.735028
 20
4.928213
  0
VERTEX
  8
PLAN_1
 62
     2
  6
CONTINUOUS
 10
-0.732559
 20
4.925130
  0
VERTEX
  8
PLAN_1
 62
     2
  6
CONTINUOUS
 10
-0.730709
 20
4.920811
  0
VERTEX
  8
PLAN_1
 62
     2
  6
CONTINUOUS
 10
-0.730091
 20
4.915260
  0
VERTEX
  8
PLAN_1
 62
     2
  6
CONTINUOUS
 10
-0.739343
 20
4.915260
  0
SEQEND
  8
0
  0
POLYLINE
  8
PLAN_1
 62
     2
  6
CONTINUOUS
 66
     1
 40
0.003000
 41
0.003000
  0
VERTEX
  8
PLAN_1
 62
     2
  6
CONTINUOUS
 10
-0.752299
 20
4.868378
  0
VERTEX
  8
PLAN_1
 62
     2
  6
CONTINUOUS
 10
-0.749213
 20
4.868378
  0
VERTEX
  8
PLAN_1
 62
     2
  6
CONTINUOUS
 10
-0.746748
 20
4.869610
  0
VERTEX
  8
PLAN_1
 62
     2
  6
CONTINUOUS
 10
-0.744280
 20
4.870843
  0
VERTEX
  8
PLAN_1
 62
     2
  6
CONTINUOUS
 10
-0.741811
 20
4.872693
  0
VERTEX
  8
PLAN_1
 62
     2
  6
CONTINUOUS
 10
-0.740579
 20
4.875161
  0
VERTEX
  8
PLAN_1
 62
     2
  6
CONTINUOUS
 10
-0.739343
 20
4.878248
  0
VERTEX
  8
PLAN_1
 62
     2
  6
CONTINUOUS
 10
-0.738110
 20
4.881331
  0
VERTEX
  8
PLAN_1
 62
     2
  6
CONTINUOUS
 10
-0.738110
 20
4.885031
  0
VERTEX
  8
PLAN_1
 62
     2
  6
CONTINUOUS
 10
-0.738110
 20
4.887500
  0
VERTEX
  8
PLAN_1
 62
     2
  6
CONTINUOUS
 10
-0.738728
 20
4.889969
  0
VERTEX
  8
PLAN_1
 62
     2
  6
CONTINUOUS
 10
-0.739961
 20
4.892437
  0
VERTEX
  8
PLAN_1
 62
     2
  6
CONTINUOUS
 10
-0.741193
 20
4.894902
  0
VERTEX
  8
PLAN_1
 62
     2
  6
CONTINUOUS
 10
-0.743047
 20
4.897370
  0
VERTEX
  8
PLAN_1
 62
     2
  6
CONTINUOUS
 10
-0.745512
 20
4.898602
  0
VERTEX
  8
PLAN_1
 62
     2
  6
CONTINUOUS
 10
-0.749213
 20
4.899839
  0
VERTEX
  8
PLAN_1
 62
     2
  6
CONTINUOUS
 10
-0.752917
 20
4.900453
  0
VERTEX
  8
PLAN_1
 62
     2
  6
CONTINUOUS
 10
-0.756618
 20
4.899839
  0
VERTEX
  8
PLAN_1
 62
     2
  6
CONTINUOUS
 10
-0.759701
 20
4.899220
  0
VERTEX
  8
PLAN_1
 62
     2
  6
CONTINUOUS
 10
-0.762169
 20
4.897370
  0
VERTEX
  8
PLAN_1
 62
     2
  6
CONTINUOUS
 10
-0.764020
 20
4.895520
  0
VERTEX
  8
PLAN_1
 62
     2
  6
CONTINUOUS
 10
-0.765870
 20
4.893051
  0
VERTEX
  8
PLAN_1
 62
     2
  6
CONTINUOUS
 10
-0.767102
 20
4.890583
  0
VERTEX
  8
PLAN_1
 62
     2
  6
CONTINUOUS
 10
-0.767720
 20
4.887500
  0
VERTEX
  8
PLAN_1
 62
     2
  6
CONTINUOUS
 10
-0.767720
 20
4.884417
  0
VERTEX
  8
PLAN_1
 62
     2
  6
CONTINUOUS
 10
-0.767720
 20
4.881331
  0
VERTEX
  8
PLAN_1
 62
     2
  6
CONTINUOUS
 10
-0.767102
 20
4.878248
  0
VERTEX
  8
PLAN_1
 62
     2
  6
CONTINUOUS
 10
-0.765870
 20
4.875780
  0
VERTEX
  8
PLAN_1
 62
     2
  6
CONTINUOUS
 10
-0.764020
 20
4.873311
  0
VERTEX
  8
PLAN_1
 62
     2
  6
CONTINUOUS
 10
-0.762169
 20
4.871461
  0
VERTEX
  8
PLAN_1
 62
     2
  6
CONTINUOUS
 10
-0.759083
 20
4.869610
  0
VERTEX
  8
PLAN_1
 62
     2
  6
CONTINUOUS
 10
-0.756000
 20
4.868378
  0
VERTEX
  8
PLAN_1
 62
     2
  6
CONTINUOUS
 10
-0.752299
 20
4.868378
  0
SEQEND
  8
0
  0
POLYLINE
  8
PLAN_1
 62
     2
  6
CONTINUOUS
 66
     1
 40
0.003000
 41
0.003000
  0
VERTEX
  8
PLAN_1
 62
     2
  6
CONTINUOUS
 10
-0.681358
 20
4.915260
  0
VERTEX
  8
PLAN_1
 62
     2
  6
CONTINUOUS
 10
-0.681972
 20
4.917728
  0
VERTEX
  8
PLAN_1
 62
     2
  6
CONTINUOUS
 10
-0.682591
 20
4.920193
  0
VERTEX
  8
PLAN_1
 62
     2
  6
CONTINUOUS
 10
-0.683823
 20
4.922047
  0
VERTEX
  8
PLAN_1
 62
     2
  6
CONTINUOUS
 10
-0.685059
 20
4.923280
  0
VERTEX
  8
PLAN_1
 62
     2
  6
CONTINUOUS
 10
-0.686909
 20
4.925130
  0
VERTEX
  8
PLAN_1
 62
     2
  6
CONTINUOUS
 10
-0.688760
 20
4.925748
  0
VERTEX
  8
PLAN_1
 62
     2
  6
CONTINUOUS
 10
-0.691228
 20
4.926362
  0
VERTEX
  8
PLAN_1
 62
     2
  6
CONTINUOUS
 10
-0.693693
 20
4.926980
  0
VERTEX
  8
PLAN_1
 62
     2
  6
CONTINUOUS
 10
-0.696161
 20
4.926362
  0
VERTEX
  8
PLAN_1
 62
     2
  6
CONTINUOUS
 10
-0.698630
 20
4.925748
  0
VERTEX
  8
PLAN_1
 62
     2
  6
CONTINUOUS
 10
-0.700480
 20
4.925130
  0
VERTEX
  8
PLAN_1
 62
     2
  6
CONTINUOUS
 10
-0.702331
 20
4.923898
  0
VERTEX
  8
PLAN_1
 62
     2
  6
CONTINUOUS
 10
-0.705417
 20
4.920193
  0
VERTEX
  8
PLAN_1
 62
     2
  6
CONTINUOUS
 10
-0.707882
 20
4.915878
  0
VERTEX
  8
PLAN_1
 62
     2
  6
CONTINUOUS
 10
-0.709732
 20
4.911559
  0
VERTEX
  8
PLAN_1
 62
     2
  6
CONTINUOUS
 10
-0.710350
 20
4.907240
  0
VERTEX
  8
PLAN_1
 62
     2
  6
CONTINUOUS
 10
-0.710969
 20
4.902921
  0
VERTEX
  8
PLAN_1
 62
     2
  6
CONTINUOUS
 10
-0.710969
 20
4.899839
  0
VERTEX
  8
PLAN_1
 62
     2
  6
CONTINUOUS
 10
-0.709732
 20
4.901071
  0
VERTEX
  8
PLAN_1
 62
     2
  6
CONTINUOUS
 10
-0.708500
 20
4.902307
  0
VERTEX
  8
PLAN_1
 62
     2
  6
CONTINUOUS
 10
-0.707268
 20
4.904157
  0
VERTEX
  8
PLAN_1
 62
     2
  6
CONTINUOUS
 10
-0.705417
 20
4.905390
  0
VERTEX
  8
PLAN_1
 62
     2
  6
CONTINUOUS
 10
-0.702949
 20
4.906622
  0
VERTEX
  8
PLAN_1
 62
     2
  6
CONTINUOUS
 10
-0.700480
 20
4.907858
  0
VERTEX
  8
PLAN_1
 62
     2
  6
CONTINUOUS
 10
-0.697398
 20
4.908472
  0
VERTEX
  8
PLAN_1
 62
     2
  6
CONTINUOUS
 10
-0.693693
 20
4.908472
  0
VERTEX
  8
PLAN_1
 62
     2
  6
CONTINUOUS
 10
-0.689992
 20
4.908472
  0
VERTEX
  8
PLAN_1
 62
     2
  6
CONTINUOUS
 10
-0.686291
 20
4.907240
  0
VERTEX
  8
PLAN_1
 62
     2
  6
CONTINUOUS
 10
-0.682591
 20
4.906008
  0
VERTEX
  8
PLAN_1
 62
     2
  6
CONTINUOUS
 10
-0.678890
 20
4.903539
  0
VERTEX
  8
PLAN_1
 62
     2
  6
CONTINUOUS
 10
-0.675807
 20
4.900453
  0
VERTEX
  8
PLAN_1
 62
     2
  6
CONTINUOUS
 10
-0.672720
 20
4.896138
  0
VERTEX
  8
PLAN_1
 62
     2
  6
CONTINUOUS
 10
-0.672102
 20
4.893669
  0
VERTEX
  8
PLAN_1
 62
     2
  6
CONTINUOUS
 10
-0.671488
 20
4.891201
  0
VERTEX
  8
PLAN_1
 62
     2
  6
CONTINUOUS
 10
-0.670870
 20
4.888118
  0
VERTEX
  8
PLAN_1
 62
     2
  6
CONTINUOUS
 10
-0.670870
 20
4.885031
  0
VERTEX
  8
PLAN_1
 62
     2
  6
CONTINUOUS
 10
-0.670870
 20
4.882563
  0
VERTEX
  8
PLAN_1
 62
     2
  6
CONTINUOUS
 10
-0.670870
 20
4.880098
  0
VERTEX
  8
PLAN_1
 62
     2
  6
CONTINUOUS
 10
-0.671488
 20
4.877630
  0
VERTEX
  8
PLAN_1
 62
     2
  6
CONTINUOUS
 10
-0.672102
 20
4.875161
  0
VERTEX
  8
PLAN_1
 62
     2
  6
CONTINUOUS
 10
-0.673339
 20
4.873311
  0
VERTEX
  8
PLAN_1
 62
     2
  6
CONTINUOUS
 10
-0.674571
 20
4.870843
  0
VERTEX
  8
PLAN_1
 62
     2
  6
CONTINUOUS
 10
-0.675807
 20
4.868992
  0
VERTEX
  8
PLAN_1
 62
     2
  6
CONTINUOUS
 10
-0.677657
 20
4.867142
  0
VERTEX
  8
PLAN_1
 62
     2
  6
CONTINUOUS
 10
-0.678890
 20
4.865291
  0
VERTEX
  8
PLAN_1
 62
     2
  6
CONTINUOUS
 10
-0.680740
 20
4.864059
  0
VERTEX
  8
PLAN_1
 62
     2
  6
CONTINUOUS
 10
-0.682591
 20
4.862823
  0
VERTEX
  8
PLAN_1
 62
     2
  6
CONTINUOUS
 10
-0.684441
 20
4.861591
  0
VERTEX
  8
PLAN_1
 62
     2
  6
CONTINUOUS
 10
-0.686909
 20
4.860972
  0
VERTEX
  8
PLAN_1
 62
     2
  6
CONTINUOUS
 10
-0.689378
 20
4.860358
  0
VERTEX
  8
PLAN_1
 62
     2
  6
CONTINUOUS
 10
-0.692461
 20
4.859740
  0
VERTEX
  8
PLAN_1
 62
     2
  6
CONTINUOUS
 10
-0.696161
 20
4.859740
  0
VERTEX
  8
PLAN_1
 62
     2
  6
CONTINUOUS
 10
-0.698630
 20
4.859740
  0
VERTEX
  8
PLAN_1
 62
     2
  6
CONTINUOUS
 10
-0.700480
 20
4.860358
  0
VERTEX
  8
PLAN_1
 62
     2
  6
CONTINUOUS
 10
-0.702949
 20
4.860972
  0
VERTEX
  8
PLAN_1
 62
     2
  6
CONTINUOUS
 10
-0.706031
 20
4.862209
  0
VERTEX
  8
PLAN_1
 62
     2
  6
CONTINUOUS
 10
-0.708500
 20
4.863441
  0
VERTEX
  8
PLAN_1
 62
     2
  6
CONTINUOUS
 10
-0.710969
 20
4.865291
  0
VERTEX
  8
PLAN_1
 62
     2
  6
CONTINUOUS
 10
-0.712819
 20
4.867760
  0
VERTEX
  8
PLAN_1
 62
     2
  6
CONTINUOUS
 10
-0.715287
 20
4.870228
  0
VERTEX
  8
PLAN_1
 62
     2
  6
CONTINUOUS
 10
-0.716520
 20
4.873311
  0
VERTEX
  8
PLAN_1
 62
     2
  6
CONTINUOUS
 10
-0.717752
 20
4.875780
  0
VERTEX
  8
PLAN_1
 62
     2
  6
CONTINUOUS
 10
-0.718988
 20
4.878862
  0
VERTEX
  8
PLAN_1
 62
     2
  6
CONTINUOUS
 10
-0.719602
 20
4.881949
  0
VERTEX
  8
PLAN_1
 62
     2
  6
CONTINUOUS
 10
-0.720220
 20
4.885650
  0
VERTEX
  8
PLAN_1
 62
     2
  6
CONTINUOUS
 10
-0.720220
 20
4.888732
  0
VERTEX
  8
PLAN_1
 62
     2
  6
CONTINUOUS
 10
-0.720839
 20
4.892437
  0
VERTEX
  8
PLAN_1
 62
     2
  6
CONTINUOUS
 10
-0.720839
 20
4.896138
  0
VERTEX
  8
PLAN_1
 62
     2
  6
CONTINUOUS
 10
-0.720220
 20
4.902307
  0
VERTEX
  8
PLAN_1
 62
     2
  6
CONTINUOUS
 10
-0.719602
 20
4.908472
  0
VERTEX
  8
PLAN_1
 62
     2
  6
CONTINUOUS
 10
-0.717752
 20
4.915260
  0
VERTEX
  8
PLAN_1
 62
     2
  6
CONTINUOUS
 10
-0.715287
 20
4.921429
  0
VERTEX
  8
PLAN_1
 62
     2
  6
CONTINUOUS
 10
-0.713437
 20
4.924512
  0
VERTEX
  8
PLAN_1
 62
     2
  6
CONTINUOUS
 10
-0.711583
 20
4.926980
  0
VERTEX
  8
PLAN_1
 62
     2
  6
CONTINUOUS
 10
-0.709732
 20
4.929449
  0
VERTEX
  8
PLAN_1
 62
     2
  6
CONTINUOUS
 10
-0.707268
 20
4.931299
  0
VERTEX
  8
PLAN_1
 62
     2
  6
CONTINUOUS
 10
-0.704181
 20
4.932531
  0
VERTEX
  8
PLAN_1
 62
     2
  6
CONTINUOUS
 10
-0.701098
 20
4.933768
  0
VERTEX
  8
PLAN_1
 62
     2
  6
CONTINUOUS
 10
-0.697398
 20
4.935000
  0
VERTEX
  8
PLAN_1
 62
     2
  6
CONTINUOUS
 10
-0.693693
 20
4.935000
  0
VERTEX
  8
PLAN_1
 62
     2
  6
CONTINUOUS
 10
-0.689992
 20
4.935000
  0
VERTEX
  8
PLAN_1
 62
     2
  6
CONTINUOUS
 10
-0.686909
 20
4.933768
  0
VERTEX
  8
PLAN_1
 62
     2
  6
CONTINUOUS
 10
-0.683209
 20
4.932531
  0
VERTEX
  8
PLAN_1
 62
     2
  6
CONTINUOUS
 10
-0.680122
 20
4.930681
  0
VERTEX
  8
PLAN_1
 62
     2
  6
CONTINUOUS
 10
-0.677039
 20
4.928213
  0
VERTEX
  8
PLAN_1
 62
     2
  6
CONTINUOUS
 10
-0.674571
 20
4.925130
  0
VERTEX
  8
PLAN_1
 62
     2
  6
CONTINUOUS
 10
-0.673339
 20
4.920811
  0
VERTEX
  8
PLAN_1
 62
     2
  6
CONTINUOUS
 10
-0.672102
 20
4.915260
  0
VERTEX
  8
PLAN_1
 62
     2
  6
CONTINUOUS
 10
-0.681358
 20
4.915260
  0
SEQEND
  8
0
  0
POLYLINE
  8
PLAN_1
 62
     2
  6
CONTINUOUS
 66
     1
 40
0.003000
 41
0.003000
  0
VERTEX
  8
PLAN_1
 62
     2
  6
CONTINUOUS
 10
-0.694311
 20
4.868378
  0
VERTEX
  8
PLAN_1
 62
     2
  6
CONTINUOUS
 10
-0.691228
 20
4.868378
  0
VERTEX
  8
PLAN_1
 62
     2
  6
CONTINUOUS
 10
-0.688760
 20
4.869610
  0
VERTEX
  8
PLAN_1
 62
     2
  6
CONTINUOUS
 10
-0.686291
 20
4.870843
  0
VERTEX
  8
PLAN_1
 62
     2
  6
CONTINUOUS
 10
-0.683823
 20
4.872693
  0
VERTEX
  8
PLAN_1
 62
     2
  6
CONTINUOUS
 10
-0.682591
 20
4.875161
  0
VERTEX
  8
PLAN_1
 62
     2
  6
CONTINUOUS
 10
-0.681358
 20
4.878248
  0
VERTEX
  8
PLAN_1
 62
     2
  6
CONTINUOUS
 10
-0.680740
 20
4.881331
  0
VERTEX
  8
PLAN_1
 62
     2
  6
CONTINUOUS
 10
-0.680122
 20
4.885031
  0
VERTEX
  8
PLAN_1
 62
     2
  6
CONTINUOUS
 10
-0.680122
 20
4.887500
  0
VERTEX
  8
PLAN_1
 62
     2
  6
CONTINUOUS
 10
-0.680740
 20
4.889969
  0
VERTEX
  8
PLAN_1
 62
     2
  6
CONTINUOUS
 10
-0.681972
 20
4.892437
  0
VERTEX
  8
PLAN_1
 62
     2
  6
CONTINUOUS
 10
-0.683209
 20
4.894902
  0
VERTEX
  8
PLAN_1
 62
     2
  6
CONTINUOUS
 10
-0.685059
 20
4.897370
  0
VERTEX
  8
PLAN_1
 62
     2
  6
CONTINUOUS
 10
-0.688142
 20
4.898602
  0
VERTEX
  8
PLAN_1
 62
     2
  6
CONTINUOUS
 10
-0.691228
 20
4.899839
  0
VERTEX
  8
PLAN_1
 62
     2
  6
CONTINUOUS
 10
-0.694929
 20
4.900453
  0
VERTEX
  8
PLAN_1
 62
     2
  6
CONTINUOUS
 10
-0.698630
 20
4.899839
  0
VERTEX
  8
PLAN_1
 62
     2
  6
CONTINUOUS
 10
-0.701713
 20
4.899220
  0
VERTEX
  8
PLAN_1
 62
     2
  6
CONTINUOUS
 10
-0.704181
 20
4.897370
  0
VERTEX
  8
PLAN_1
 62
     2
  6
CONTINUOUS
 10
-0.706031
 20
4.895520
  0
VERTEX
  8
PLAN_1
 62
     2
  6
CONTINUOUS
 10
-0.707882
 20
4.893051
  0
VERTEX
  8
PLAN_1
 62
     2
  6
CONTINUOUS
 10
-0.709118
 20
4.890583
  0
VERTEX
  8
PLAN_1
 62
     2
  6
CONTINUOUS
 10
-0.709732
 20
4.887500
  0
VERTEX
  8
PLAN_1
 62
     2
  6
CONTINUOUS
 10
-0.709732
 20
4.884417
  0
VERTEX
  8
PLAN_1
 62
     2
  6
CONTINUOUS
 10
-0.709732
 20
4.881331
  0
VERTEX
  8
PLAN_1
 62
     2
  6
CONTINUOUS
 10
-0.709118
 20
4.878248
  0
VERTEX
  8
PLAN_1
 62
     2
  6
CONTINUOUS
 10
-0.707882
 20
4.875780
  0
VERTEX
  8
PLAN_1
 62
     2
  6
CONTINUOUS
 10
-0.706031
 20
4.873311
  0
VERTEX
  8
PLAN_1
 62
     2
  6
CONTINUOUS
 10
-0.704181
 20
4.871461
  0
VERTEX
  8
PLAN_1
 62
     2
  6
CONTINUOUS
 10
-0.701713
 20
4.869610
  0
VERTEX
  8
PLAN_1
 62
     2
  6
CONTINUOUS
 10
-0.698012
 20
4.868378
  0
VERTEX
  8
PLAN_1
 62
     2
  6
CONTINUOUS
 10
-0.694311
 20
4.868378
  0
SEQEND
  8
0
  0
POLYLINE
  8
PLAN_1
 62
     2
  6
CONTINUOUS
 66
     1
 40
0.004315
 41
0.004315
  0
VERTEX
  8
PLAN_1
 62
     2
  6
CONTINUOUS
 10
-2.032949
 20
4.861591
  0
VERTEX
  8
PLAN_1
 62
     2
  6
CONTINUOUS
 10
-2.032949
 20
4.705520
  0
SEQEND
  8
0
  0
POLYLINE
  8
PLAN_1
 62
     2
  6
CONTINUOUS
 66
     1
 40
0.004315
 41
0.004315
  0
VERTEX
  8
PLAN_1
 62
     2
  6
CONTINUOUS
 10
0.583870
 20
4.862209
  0
VERTEX
  8
PLAN_1
 62
     2
  6
CONTINUOUS
 10
0.583870
 20
0.700713
  0
SEQEND
  8
0
  0
POLYLINE
  8
PLAN_1
 62
     2
  6
CONTINUOUS
 66
     1
 40
0.004315
 41
0.004315
  0
VERTEX
  8
PLAN_1
 62
     2
  6
CONTINUOUS
 10
-2.205059
 20
3.946752
  0
VERTEX
  8
PLAN_1
 62
     2
  6
CONTINUOUS
 10
-1.708469
 20
3.946752
  0
SEQEND
  8
0
  0
SOLID
  8
PLAN_1
 62
     2
 10
-2.175449
 20
3.946752
 11
-2.234051
 21
3.962791
 12
-2.175449
 22
3.946752
 13
-2.234051
 23
3.931331
  0
POLYLINE
  8
PLAN_1
 62
     2
  6
CONTINUOUS
 66
     1
 40
0.003000
 41
0.003000
  0
VERTEX
  8
PLAN_1
 62
     2
  6
CONTINUOUS
 10
-2.175449
 20
3.946752
  0
VERTEX
  8
PLAN_1
 62
     2
  6
CONTINUOUS
 10
-2.234051
 20
3.962791
  0
VERTEX
  8
PLAN_1
 62
     2
  6
CONTINUOUS
 10
-2.234051
 20
3.931331
  0
VERTEX
  8
PLAN_1
 62
     2
  6
CONTINUOUS
 10
-2.175449
 20
3.946752
  0
SEQEND
  8
0
  0
SOLID
  8
PLAN_1
 62
     2
 10
-1.932398
 20
3.946752
 11
-1.873177
 21
3.962791
 12
-1.932398
 22
3.946752
 13
-1.873177
 23
3.931331
  0
POLYLINE
  8
PLAN_1
 62
     2
  6
CONTINUOUS
 66
     1
 40
0.003000
 41
0.003000
  0
VERTEX
  8
PLAN_1
 62
     2
  6
CONTINUOUS
 10
-1.932398
 20
3.946752
  0
VERTEX
  8
PLAN_1
 62
     2
  6
CONTINUOUS
 10
-1.873177
 20
3.962791
  0
VERTEX
  8
PLAN_1
 62
     2
  6
CONTINUOUS
 10
-1.873177
 20
3.931331
  0
VERTEX
  8
PLAN_1
 62
     2
  6
CONTINUOUS
 10
-1.932398
 20
3.946752
  0
SEQEND
  8
0
  0
POLYLINE
  8
PLAN_1
 62
     2
  6
CONTINUOUS
 66
     1
 40
0.003000
 41
0.003000
  0
VERTEX
  8
PLAN_1
 62
     2
  6
CONTINUOUS
 10
-1.772008
 20
3.975748
  0
VERTEX
  8
PLAN_1
 62
     2
  6
CONTINUOUS
 10
-1.833079
 20
3.975748
  0
VERTEX
  8
PLAN_1
 62
     2
  6
CONTINUOUS
 10
-1.838630
 20
3.970193
  0
VERTEX
  8
PLAN_1
 62
     2
  6
CONTINUOUS
 10
-1.843563
 20
3.975130
  0
VERTEX
  8
PLAN_1
 62
     2
  6
CONTINUOUS
 10
-1.839248
 20
3.980063
  0
VERTEX
  8
PLAN_1
 62
     2
  6
CONTINUOUS
 10
-1.839248
 20
4.042988
  0
VERTEX
  8
PLAN_1
 62
     2
  6
CONTINUOUS
 10
-1.776323
 20
4.042988
  0
VERTEX
  8
PLAN_1
 62
     2
  6
CONTINUOUS
 10
-1.771390
 20
4.047921
  0
VERTEX
  8
PLAN_1
 62
     2
  6
CONTINUOUS
 10
-1.766453
 20
4.042988
  0
VERTEX
  8
PLAN_1
 62
     2
  6
CONTINUOUS
 10
-1.772008
 20
4.036819
  0
VERTEX
  8
PLAN_1
 62
     2
  6
CONTINUOUS
 10
-1.772008
 20
3.975748
  0
SEQEND
  8
0
  0
SOLID
  8
PLAN_1
 62
     2
 10
-1.826909
 20
3.982531
 11
-1.778791
 21
3.982531
 12
-1.826909
 22
3.982531
 13
-1.778791
 23
4.030031
  0
POLYLINE
  8
PLAN_1
 62
     2
  6
CONTINUOUS
 66
     1
 40
0.003000
 41
0.003000
  0
VERTEX
  8
PLAN_1
 62
     2
  6
CONTINUOUS
 10
-1.826909
 20
3.982531
  0
VERTEX
  8
PLAN_1
 62
     2
  6
CONTINUOUS
 10
-1.778791
 20
3.982531
  0
VERTEX
  8
PLAN_1
 62
     2
  6
CONTINUOUS
 10
-1.778791
 20
4.030031
  0
VERTEX
  8
PLAN_1
 62
     2
  6
CONTINUOUS
 10
-1.826909
 20
3.982531
  0
SEQEND
  8
0
  0
SOLID
  8
PLAN_1
 62
     2
 10
-1.832461
 20
4.036201
 11
-1.832461
 21
3.986850
 12
-1.832461
 22
4.036201
 13
-1.783110
 23
4.036201
  0
POLYLINE
  8
PLAN_1
 62
     2
  6
CONTINUOUS
 66
     1
 40
0.003000
 41
0.003000
  0
VERTEX
  8
PLAN_1
 62
     2
  6
CONTINUOUS
 10
-1.832461
 20
4.036201
  0
VERTEX
  8
PLAN_1
 62
     2
  6
CONTINUOUS
 10
-1.832461
 20
3.986850
  0
VERTEX
  8
PLAN_1
 62
     2
  6
CONTINUOUS
 10
-1.783110
 20
4.036201
  0
VERTEX
  8
PLAN_1
 62
     2
  6
CONTINUOUS
 10
-1.832461
 20
4.036201
  0
SEQEND
  8
0
  0
POLYLINE
  8
PLAN_1
 62
     2
  6
CONTINUOUS
 66
     1
 40
0.003000
 41
0.003000
  0
VERTEX
  8
PLAN_1
 62
     2
  6
CONTINUOUS
 10
-1.722039
 20
4.024480
  0
VERTEX
  8
PLAN_1
 62
     2
  6
CONTINUOUS
 10
-1.722657
 20
4.026331
  0
VERTEX
  8
PLAN_1
 62
     2
  6
CONTINUOUS
 10
-1.723272
 20
4.028799
  0
VERTEX
  8
PLAN_1
 62
     2
  6
CONTINUOUS
 10
-1.724508
 20
4.030650
  0
VERTEX
  8
PLAN_1
 62
     2
  6
CONTINUOUS
 10
-1.725740
 20
4.032500
  0
VERTEX
  8
PLAN_1
 62
     2
  6
CONTINUOUS
 10
-1.727591
 20
4.033732
  0
VERTEX
  8
PLAN_1
 62
     2
  6
CONTINUOUS
 10
-1.729441
 20
4.034350
  0
VERTEX
  8
PLAN_1
 62
     2
  6
CONTINUOUS
 10
-1.731909
 20
4.034969
  0
VERTEX
  8
PLAN_1
 62
     2
  6
CONTINUOUS
 10
-1.734378
 20
4.035583
  0
VERTEX
  8
PLAN_1
 62
     2
  6
CONTINUOUS
 10
-1.737461
 20
4.034969
  0
VERTEX
  8
PLAN_1
 62
     2
  6
CONTINUOUS
 10
-1.739311
 20
4.034350
  0
VERTEX
  8
PLAN_1
 62
     2
  6
CONTINUOUS
 10
-1.741780
 20
4.033732
  0
VERTEX
  8
PLAN_1
 62
     2
  6
CONTINUOUS
 10
-1.743630
 20
4.032500
  0
VERTEX
  8
PLAN_1
 62
     2
  6
CONTINUOUS
 10
-1.746098
 20
4.028799
  0
VERTEX
  8
PLAN_1
 62
     2
  6
CONTINUOUS
 10
-1.748563
 20
4.024480
  0
VERTEX
  8
PLAN_1
 62
     2
  6
CONTINUOUS
 10
-1.750417
 20
4.020161
  0
VERTEX
  8
PLAN_1
 62
     2
  6
CONTINUOUS
 10
-1.751031
 20
4.015843
  0
VERTEX
  8
PLAN_1
 62
     2
  6
CONTINUOUS
 10
-1.751650
 20
4.011528
  0
VERTEX
  8
PLAN_1
 62
     2
  6
CONTINUOUS
 10
-1.752268
 20
4.008441
  0
VERTEX
  8
PLAN_1
 62
     2
  6
CONTINUOUS
 10
-1.751650
 20
4.008441
  0
VERTEX
  8
PLAN_1
 62
     2
  6
CONTINUOUS
 10
-1.751031
 20
4.009677
  0
VERTEX
  8
PLAN_1
 62
     2
  6
CONTINUOUS
 10
-1.749181
 20
4.010909
  0
VERTEX
  8
PLAN_1
 62
     2
  6
CONTINUOUS
 10
-1.747949
 20
4.012760
  0
VERTEX
  8
PLAN_1
 62
     2
  6
CONTINUOUS
 10
-1.746098
 20
4.013992
  0
VERTEX
  8
PLAN_1
 62
     2
  6
CONTINUOUS
 10
-1.743630
 20
4.015228
  0
VERTEX
  8
PLAN_1
 62
     2
  6
CONTINUOUS
 10
-1.741161
 20
4.016461
  0
VERTEX
  8
PLAN_1
 62
     2
  6
CONTINUOUS
 10
-1.738079
 20
4.017079
  0
VERTEX
  8
PLAN_1
 62
     2
  6
CONTINUOUS
 10
-1.734378
 20
4.017079
  0
VERTEX
  8
PLAN_1
 62
     2
  6
CONTINUOUS
 10
-1.730677
 20
4.017079
  0
VERTEX
  8
PLAN_1
 62
     2
  6
CONTINUOUS
 10
-1.726972
 20
4.015843
  0
VERTEX
  8
PLAN_1
 62
     2
  6
CONTINUOUS
 10
-1.723272
 20
4.014610
  0
VERTEX
  8
PLAN_1
 62
     2
  6
CONTINUOUS
 10
-1.719571
 20
4.012142
  0
VERTEX
  8
PLAN_1
 62
     2
  6
CONTINUOUS
 10
-1.716488
 20
4.009059
  0
VERTEX
  8
PLAN_1
 62
     2
  6
CONTINUOUS
 10
-1.714020
 20
4.004740
  0
VERTEX
  8
PLAN_1
 62
     2
  6
CONTINUOUS
 10
-1.712787
 20
4.002272
  0
VERTEX
  8
PLAN_1
 62
     2
  6
CONTINUOUS
 10
-1.712169
 20
3.999807
  0
VERTEX
  8
PLAN_1
 62
     2
  6
CONTINUOUS
 10
-1.711551
 20
3.997339
  0
VERTEX
  8
PLAN_1
 62
     2
  6
CONTINUOUS
 10
-1.711551
 20
3.993638
  0
VERTEX
  8
PLAN_1
 62
     2
  6
CONTINUOUS
 10
-1.711551
 20
3.991169
  0
VERTEX
  8
PLAN_1
 62
     2
  6
CONTINUOUS
 10
-1.712169
 20
3.988701
  0
VERTEX
  8
PLAN_1
 62
     2
  6
CONTINUOUS
 10
-1.712169
 20
3.986232
  0
VERTEX
  8
PLAN_1
 62
     2
  6
CONTINUOUS
 10
-1.713402
 20
3.983768
  0
VERTEX
  8
PLAN_1
 62
     2
  6
CONTINUOUS
 10
-1.714020
 20
3.981917
  0
VERTEX
  8
PLAN_1
 62
     2
  6
CONTINUOUS
 10
-1.715252
 20
3.979449
  0
VERTEX
  8
PLAN_1
 62
     2
  6
CONTINUOUS
 10
-1.716488
 20
3.977598
  0
VERTEX
  8
PLAN_1
 62
     2
  6
CONTINUOUS
 10
-1.718339
 20
3.975748
  0
VERTEX
  8
PLAN_1
 62
     2
  6
CONTINUOUS
 10
-1.720189
 20
3.973898
  0
VERTEX
  8
PLAN_1
 62
     2
  6
CONTINUOUS
 10
-1.721421
 20
3.972661
  0
VERTEX
  8
PLAN_1
 62
     2
  6
CONTINUOUS
 10
-1.723272
 20
3.971429
  0
VERTEX
  8
PLAN_1
 62
     2
  6
CONTINUOUS
 10
-1.725122
 20
3.970193
  0
VERTEX
  8
PLAN_1
 62
     2
  6
CONTINUOUS
 10
-1.727591
 20
3.969579
  0
VERTEX
  8
PLAN_1
 62
     2
  6
CONTINUOUS
 10
-1.730059
 20
3.968961
  0
VERTEX
  8
PLAN_1
 62
     2
  6
CONTINUOUS
 10
-1.733142
 20
3.968343
  0
VERTEX
  8
PLAN_1
 62
     2
  6
CONTINUOUS
 10
-1.736843
 20
3.968343
  0
VERTEX
  8
PLAN_1
 62
     2
  6
CONTINUOUS
 10
-1.739311
 20
3.968343
  0
VERTEX
  8
PLAN_1
 62
     2
  6
CONTINUOUS
 10
-1.741780
 20
3.968961
  0
VERTEX
  8
PLAN_1
 62
     2
  6
CONTINUOUS
 10
-1.744248
 20
3.969579
  0
VERTEX
  8
PLAN_1
 62
     2
  6
CONTINUOUS
 10
-1.746713
 20
3.970811
  0
VERTEX
  8
PLAN_1
 62
     2
  6
CONTINUOUS
 10
-1.749181
 20
3.972047
  0
VERTEX
  8
PLAN_1
 62
     2
  6
CONTINUOUS
 10
-1.751650
 20
3.973898
  0
VERTEX
  8
PLAN_1
 62
     2
  6
CONTINUOUS
 10
-1.753500
 20
3.976362
  0
VERTEX
  8
PLAN_1
 62
     2
  6
CONTINUOUS
 10
-1.755969
 20
3.978831
  0
VERTEX
  8
PLAN_1
 62
     2
  6
CONTINUOUS
 10
-1.757201
 20
3.981917
  0
VERTEX
  8
PLAN_1
 62
     2
  6
CONTINUOUS
 10
-1.758437
 20
3.984382
  0
VERTEX
  8
PLAN_1
 62
     2
  6
CONTINUOUS
 10
-1.759669
 20
3.987469
  0
VERTEX
  8
PLAN_1
 62
     2
  6
CONTINUOUS
 10
-1.760287
 20
3.990551
  0
VERTEX
  8
PLAN_1
 62
     2
  6
CONTINUOUS
 10
-1.760902
 20
3.994252
  0
VERTEX
  8
PLAN_1
 62
     2
  6
CONTINUOUS
 10
-1.760902
 20
3.997339
  0
VERTEX
  8
PLAN_1
 62
     2
  6
CONTINUOUS
 10
-1.761520
 20
4.001039
  0
VERTEX
  8
PLAN_1
 62
     2
  6
CONTINUOUS
 10
-1.761520
 20
4.004740
  0
VERTEX
  8
PLAN_1
 62
     2
  6
CONTINUOUS
 10
-1.760902
 20
4.010909
  0
VERTEX
  8
PLAN_1
 62
     2
  6
CONTINUOUS
 10
-1.760287
 20
4.017079
  0
VERTEX
  8
PLAN_1
 62
     2
  6
CONTINUOUS
 10
-1.758437
 20
4.023862
  0
VERTEX
  8
PLAN_1
 62
     2
  6
CONTINUOUS
 10
-1.755969
 20
4.030031
  0
VERTEX
  8
PLAN_1
 62
     2
  6
CONTINUOUS
 10
-1.754732
 20
4.033118
  0
VERTEX
  8
PLAN_1
 62
     2
  6
CONTINUOUS
 10
-1.752268
 20
4.035583
  0
VERTEX
  8
PLAN_1
 62
     2
  6
CONTINUOUS
 10
-1.750417
 20
4.038051
  0
VERTEX
  8
PLAN_1
 62
     2
  6
CONTINUOUS
 10
-1.747949
 20
4.039902
  0
VERTEX
  8
PLAN_1
 62
     2
  6
CONTINUOUS
 10
-1.744862
 20
4.041138
  0
VERTEX
  8
PLAN_1
 62
     2
  6
CONTINUOUS
 10
-1.741780
 20
4.042370
  0
VERTEX
  8
PLAN_1
 62
     2
  6
CONTINUOUS
 10
-1.738079
 20
4.043602
  0
VERTEX
  8
PLAN_1
 62
     2
  6
CONTINUOUS
 10
-1.734378
 20
4.043602
  0
VERTEX
  8
PLAN_1
 62
     2
  6
CONTINUOUS
 10
-1.731291
 20
4.043602
  0
VERTEX
  8
PLAN_1
 62
     2
  6
CONTINUOUS
 10
-1.727591
 20
4.042370
  0
VERTEX
  8
PLAN_1
 62
     2
  6
CONTINUOUS
 10
-1.723890
 20
4.041138
  0
VERTEX
  8
PLAN_1
 62
     2
  6
CONTINUOUS
 10
-1.720807
 20
4.039287
  0
VERTEX
  8
PLAN_1
 62
     2
  6
CONTINUOUS
 10
-1.717720
 20
4.036819
  0
VERTEX
  8
PLAN_1
 62
     2
  6
CONTINUOUS
 10
-1.715870
 20
4.033732
  0
VERTEX
  8
PLAN_1
 62
     2
  6
CONTINUOUS
 10
-1.714020
 20
4.029417
  0
VERTEX
  8
PLAN_1
 62
     2
  6
CONTINUOUS
 10
-1.712787
 20
4.024480
  0
VERTEX
  8
PLAN_1
 62
     2
  6
CONTINUOUS
 10
-1.722039
 20
4.024480
  0
SEQEND
  8
0
  0
POLYLINE
  8
PLAN_1
 62
     2
  6
CONTINUOUS
 66
     1
 40
0.003000
 41
0.003000
  0
VERTEX
  8
PLAN_1
 62
     2
  6
CONTINUOUS
 10
-1.735610
 20
3.976980
  0
VERTEX
  8
PLAN_1
 62
     2
  6
CONTINUOUS
 10
-1.731909
 20
3.976980
  0
VERTEX
  8
PLAN_1
 62
     2
  6
CONTINUOUS
 10
-1.729441
 20
3.978213
  0
VERTEX
  8
PLAN_1
 62
     2
  6
CONTINUOUS
 10
-1.726972
 20
3.979449
  0
VERTEX
  8
PLAN_1
 62
     2
  6
CONTINUOUS
 10
-1.725122
 20
3.981299
  0
VERTEX
  8
PLAN_1
 62
     2
  6
CONTINUOUS
 10
-1.723272
 20
3.983768
  0
VERTEX
  8
PLAN_1
 62
     2
  6
CONTINUOUS
 10
-1.722039
 20
3.986850
  0
VERTEX
  8
PLAN_1
 62
     2
  6
CONTINUOUS
 10
-1.721421
 20
3.989937
  0
VERTEX
  8
PLAN_1
 62
     2
  6
CONTINUOUS
 10
-1.720807
 20
3.993638
  0
VERTEX
  8
PLAN_1
 62
     2
  6
CONTINUOUS
 10
-1.721421
 20
3.996102
  0
VERTEX
  8
PLAN_1
 62
     2
  6
CONTINUOUS
 10
-1.721421
 20
3.998571
  0
VERTEX
  8
PLAN_1
 62
     2
  6
CONTINUOUS
 10
-1.722657
 20
4.001039
  0
VERTEX
  8
PLAN_1
 62
     2
  6
CONTINUOUS
 10
-1.723890
 20
4.003508
  0
VERTEX
  8
PLAN_1
 62
     2
  6
CONTINUOUS
 10
-1.726358
 20
4.005972
  0
VERTEX
  8
PLAN_1
 62
     2
  6
CONTINUOUS
 10
-1.728823
 20
4.007209
  0
VERTEX
  8
PLAN_1
 62
     2
  6
CONTINUOUS
 10
-1.731909
 20
4.008441
  0
VERTEX
  8
PLAN_1
 62
     2
  6
CONTINUOUS
 10
-1.735610
 20
4.009059
  0
VERTEX
  8
PLAN_1
 62
     2
  6
CONTINUOUS
 10
-1.739311
 20
4.008441
  0
VERTEX
  8
PLAN_1
 62
     2
  6
CONTINUOUS
 10
-1.742398
 20
4.007823
  0
VERTEX
  8
PLAN_1
 62
     2
  6
CONTINUOUS
 10
-1.744862
 20
4.005972
  0
VERTEX
  8
PLAN_1
 62
     2
  6
CONTINUOUS
 10
-1.746713
 20
4.004122
  0
VERTEX
  8
PLAN_1
 62
     2
  6
CONTINUOUS
 10
-1.748563
 20
4.001657
  0
VERTEX
  8
PLAN_1
 62
     2
  6
CONTINUOUS
 10
-1.749799
 20
3.999189
  0
VERTEX
  8
PLAN_1
 62
     2
  6
CONTINUOUS
 10
-1.750417
 20
3.996102
  0
VERTEX
  8
PLAN_1
 62
     2
  6
CONTINUOUS
 10
-1.750417
 20
3.993020
  0
VERTEX
  8
PLAN_1
 62
     2
  6
CONTINUOUS
 10
-1.750417
 20
3.989937
  0
VERTEX
  8
PLAN_1
 62
     2
  6
CONTINUOUS
 10
-1.749799
 20
3.986850
  0
VERTEX
  8
PLAN_1
 62
     2
  6
CONTINUOUS
 10
-1.748563
 20
3.984382
  0
VERTEX
  8
PLAN_1
 62
     2
  6
CONTINUOUS
 10
-1.747331
 20
3.981917
  0
VERTEX
  8
PLAN_1
 62
     2
  6
CONTINUOUS
 10
-1.744862
 20
3.980063
  0
VERTEX
  8
PLAN_1
 62
     2
  6
CONTINUOUS
 10
-1.742398
 20
3.978213
  0
VERTEX
  8
PLAN_1
 62
     2
  6
CONTINUOUS
 10
-1.739311
 20
3.976980
  0
VERTEX
  8
PLAN_1
 62
     2
  6
CONTINUOUS
 10
-1.735610
 20
3.976980
  0
SEQEND
  8
0
  0
POLYLINE
  8
PLAN_1
 62
     2
  6
CONTINUOUS
 66
     1
 40
0.004315
 41
0.004315
  0
VERTEX
  8
PLAN_1
 62
     2
  6
CONTINUOUS
 10
0.740559
 20
-2.861169
  0
VERTEX
  8
PLAN_1
 62
     2
  6
CONTINUOUS
 10
0.740559
 20
0.856169
  0
SEQEND
  8
0
  0
SOLID
  8
PLAN_1
 62
     2
 10
0.740559
 20
0.885780
 11
0.725138
 21
0.826559
 12
0.740559
 22
0.885780
 13
0.756598
 23
0.826559
  0
POLYLINE
  8
PLAN_1
 62
     2
  6
CONTINUOUS
 66
     1
 40
0.003000
 41
0.003000
  0
VERTEX
  8
PLAN_1
 62
     2
  6
CONTINUOUS
 10
0.740559
 20
0.885780
  0
VERTEX
  8
PLAN_1
 62
     2
  6
CONTINUOUS
 10
0.725138
 20
0.826559
  0
VERTEX
  8
PLAN_1
 62
     2
  6
CONTINUOUS
 10
0.756598
 20
0.826559
  0
VERTEX
  8
PLAN_1
 62
     2
  6
CONTINUOUS
 10
0.740559
 20
0.885780
  0
SEQEND
  8
0
  0
SOLID
  8
PLAN_1
 62
     2
 10
0.740559
 20
-2.890780
 11
0.725138
 21
-2.831559
 12
0.740559
 22
-2.890780
 13
0.756598
 23
-2.831559
  0
POLYLINE
  8
PLAN_1
 62
     2
  6
CONTINUOUS
 66
     1
 40
0.003000
 41
0.003000
  0
VERTEX
  8
PLAN_1
 62
     2
  6
CONTINUOUS
 10
0.740559
 20
-2.890780
  0
VERTEX
  8
PLAN_1
 62
     2
  6
CONTINUOUS
 10
0.725138
 20
-2.831559
  0
VERTEX
  8
PLAN_1
 62
     2
  6
CONTINUOUS
 10
0.756598
 20
-2.831559
  0
VERTEX
  8
PLAN_1
 62
     2
  6
CONTINUOUS
 10
0.740559
 20
-2.890780
  0
SEQEND
  8
0
  0
POLYLINE
  8
PLAN_1
 62
     2
  6
CONTINUOUS
 66
     1
 40
0.003000
 41
0.003000
  0
VERTEX
  8
PLAN_1
 62
     2
  6
CONTINUOUS
 10
0.669000
 20
-1.056169
  0
VERTEX
  8
PLAN_1
 62
     2
  6
CONTINUOUS
 10
0.664063
 20
-1.055551
  0
VERTEX
  8
PLAN_1
 62
     2
  6
CONTINUOUS
 10
0.659748
 20
-1.054319
  0
VERTEX
  8
PLAN_1
 62
     2
  6
CONTINUOUS
 10
0.655429
 20
-1.052469
  0
VERTEX
  8
PLAN_1
 62
     2
  6
CONTINUOUS
 10
0.651728
 20
-1.050000
  0
VERTEX
  8
PLAN_1
 62
     2
  6
CONTINUOUS
 10
0.648642
 20
-1.046917
  0
VERTEX
  8
PLAN_1
 62
     2
  6
CONTINUOUS
 10
0.646177
 20
-1.042598
  0
VERTEX
  8
PLAN_1
 62
     2
  6
CONTINUOUS
 10
0.644323
 20
-1.038280
  0
VERTEX
  8
PLAN_1
 62
     2
  6
CONTINUOUS
 10
0.644323
 20
-1.032728
  0
VERTEX
  8
PLAN_1
 62
     2
  6
CONTINUOUS
 10
0.644323
 20
-1.028409
  0
VERTEX
  8
PLAN_1
 62
     2
  6
CONTINUOUS
 10
0.644941
 20
-1.024709
  0
VERTEX
  8
PLAN_1
 62
     2
  6
CONTINUOUS
 10
0.646177
 20
-1.021622
  0
VERTEX
  8
PLAN_1
 62
     2
  6
CONTINUOUS
 10
0.648028
 20
-1.018539
  0
VERTEX
  8
PLAN_1
 62
     2
  6
CONTINUOUS
 10
0.649878
 20
-1.016071
  0
VERTEX
  8
PLAN_1
 62
     2
  6
CONTINUOUS
 10
0.651728
 20
-1.014220
  0
VERTEX
  8
PLAN_1
 62
     2
  6
CONTINUOUS
 10
0.654193
 20
-1.012370
  0
VERTEX
  8
PLAN_1
 62
     2
  6
CONTINUOUS
 10
0.656661
 20
-1.011138
  0
VERTEX
  8
PLAN_1
 62
     2
  6
CONTINUOUS
 10
0.662213
 20
-1.008669
  0
VERTEX
  8
PLAN_1
 62
     2
  6
CONTINUOUS
 10
0.667768
 20
-1.007437
  0
VERTEX
  8
PLAN_1
 62
     2
  6
CONTINUOUS
 10
0.673319
 20
-1.006819
  0
VERTEX
  8
PLAN_1
 62
     2
  6
CONTINUOUS
 10
0.678252
 20
-1.006819
  0
VERTEX
  8
PLAN_1
 62
     2
  6
CONTINUOUS
 10
0.681953
 20
-1.006819
  0
VERTEX
  8
PLAN_1
 62
     2
  6
CONTINUOUS
 10
0.687508
 20
-1.007437
  0
VERTEX
  8
PLAN_1
 62
     2
  6
CONTINUOUS
 10
0.694291
 20
-1.008669
  0
VERTEX
  8
PLAN_1
 62
     2
  6
CONTINUOUS
 10
0.701693
 20
-1.010520
  0
VERTEX
  8
PLAN_1
 62
     2
  6
CONTINUOUS
 10
0.704780
 20
-1.012370
  0
VERTEX
  8
PLAN_1
 62
     2
  6
CONTINUOUS
 10
0.708480
 20
-1.014220
  0
VERTEX
  8
PLAN_1
 62
     2
  6
CONTINUOUS
 10
0.710949
 20
-1.016071
  0
VERTEX
  8
PLAN_1
 62
     2
  6
CONTINUOUS
 10
0.714031
 20
-1.018539
  0
VERTEX
  8
PLAN_1
 62
     2
  6
CONTINUOUS
 10
0.715882
 20
-1.021622
  0
VERTEX
  8
PLAN_1
 62
     2
  6
CONTINUOUS
 10
0.717732
 20
-1.025323
  0
VERTEX
  8
PLAN_1
 62
     2
  6
CONTINUOUS
 10
0.718969
 20
-1.029028
  0
VERTEX
  8
PLAN_1
 62
     2
  6
CONTINUOUS
 10
0.718969
 20
-1.033343
  0
VERTEX
  8
PLAN_1
 62
     2
  6
CONTINUOUS
 10
0.718350
 20
-1.039512
  0
VERTEX
  8
PLAN_1
 62
     2
  6
CONTINUOUS
 10
0.717118
 20
-1.044449
  0
VERTEX
  8
PLAN_1
 62
     2
  6
CONTINUOUS
 10
0.714650
 20
-1.048150
  0
VERTEX
  8
PLAN_1
 62
     2
  6
CONTINUOUS
 10
0.712181
 20
-1.050618
  0
VERTEX
  8
PLAN_1
 62
     2
  6
CONTINUOUS
 10
0.709098
 20
-1.053083
  0
VERTEX
  8
PLAN_1
 62
     2
  6
CONTINUOUS
 10
0.705398
 20
-1.054319
  0
VERTEX
  8
PLAN_1
 62
     2
  6
CONTINUOUS
 10
0.702311
 20
-1.054937
  0
VERTEX
  8
PLAN_1
 62
     2
  6
CONTINUOUS
 10
0.699843
 20
-1.054937
  0
VERTEX
  8
PLAN_1
 62
     2
  6
CONTINUOUS
 10
0.699843
 20
-1.046299
  0
VERTEX
  8
PLAN_1
 62
     2
  6
CONTINUOUS
 10
0.702311
 20
-1.045681
  0
VERTEX
  8
PLAN_1
 62
     2
  6
CONTINUOUS
 10
0.704780
 20
-1.045063
  0
VERTEX
  8
PLAN_1
 62
     2
  6
CONTINUOUS
 10
0.706630
 20
-1.043831
  0
VERTEX
  8
PLAN_1
 62
     2
  6
CONTINUOUS
 10
0.708480
 20
-1.042598
  0
VERTEX
  8
PLAN_1
 62
     2
  6
CONTINUOUS
 10
0.709713
 20
-1.040748
  0
VERTEX
  8
PLAN_1
 62
     2
  6
CONTINUOUS
 10
0.710949
 20
-1.038898
  0
VERTEX
  8
PLAN_1
 62
     2
  6
CONTINUOUS
 10
0.711563
 20
-1.036429
  0
VERTEX
  8
PLAN_1
 62
     2
  6
CONTINUOUS
 10
0.711563
 20
-1.033961
  0
VERTEX
  8
PLAN_1
 62
     2
  6
CONTINUOUS
 10
0.710949
 20
-1.030260
  0
VERTEX
  8
PLAN_1
 62
     2
  6
CONTINUOUS
 10
0.709713
 20
-1.027177
  0
VERTEX
  8
PLAN_1
 62
     2
  6
CONTINUOUS
 10
0.707862
 20
-1.024091
  0
VERTEX
  8
PLAN_1
 62
     2
  6
CONTINUOUS
 10
0.704780
 20
-1.022240
  0
VERTEX
  8
PLAN_1
 62
     2
  6
CONTINUOUS
 10
0.701079
 20
-1.019772
  0
VERTEX
  8
PLAN_1
 62
     2
  6
CONTINUOUS
 10
0.696760
 20
-1.018539
  0
VERTEX
  8
PLAN_1
 62
     2
  6
CONTINUOUS
 10
0.690591
 20
-1.017307
  0
VERTEX
  8
PLAN_1
 62
     2
  6
CONTINUOUS
 10
0.684421
 20
-1.016071
  0
VERTEX
  8
PLAN_1
 62
     2
  6
CONTINUOUS
 10
0.683807
 20
-1.016071
  0
VERTEX
  8
PLAN_1
 62
     2
  6
CONTINUOUS
 10
0.686272
 20
-1.017307
  0
VERTEX
  8
PLAN_1
 62
     2
  6
CONTINUOUS
 10
0.687508
 20
-1.019157
  0
VERTEX
  8
PLAN_1
 62
     2
  6
CONTINUOUS
 10
0.689358
 20
-1.021008
  0
VERTEX
  8
PLAN_1
 62
     2
  6
CONTINUOUS
 10
0.690591
 20
-1.023472
  0
VERTEX
  8
PLAN_1
 62
     2
  6
CONTINUOUS
 10
0.691209
 20
-1.025323
  0
VERTEX
  8
PLAN_1
 62
     2
  6
CONTINUOUS
 10
0.692441
 20
-1.027791
  0
VERTEX
  8
PLAN_1
 62
     2
  6
CONTINUOUS
 10
0.692441
 20
-1.030260
  0
VERTEX
  8
PLAN_1
 62
     2
  6
CONTINUOUS
 10
0.693059
 20
-1.033343
  0
VERTEX
  8
PLAN_1
 62
     2
  6
CONTINUOUS
 10
0.692441
 20
-1.037661
  0
VERTEX
  8
PLAN_1
 62
     2
  6
CONTINUOUS
 10
0.691209
 20
-1.042598
  0
VERTEX
  8
PLAN_1
 62
     2
  6
CONTINUOUS
 10
0.689358
 20
-1.046299
  0
VERTEX
  8
PLAN_1
 62
     2
  6
CONTINUOUS
 10
0.686272
 20
-1.049382
  0
VERTEX
  8
PLAN_1
 62
     2
  6
CONTINUOUS
 10
0.683189
 20
-1.052469
  0
VERTEX
  8
PLAN_1
 62
     2
  6
CONTINUOUS
 10
0.678870
 20
-1.054319
  0
VERTEX
  8
PLAN_1
 62
     2
  6
CONTINUOUS
 10
0.674551
 20
-1.055551
  0
VERTEX
  8
PLAN_1
 62
     2
  6
CONTINUOUS
 10
0.669000
 20
-1.056169
  0
SEQEND
  8
0
  0
POLYLINE
  8
PLAN_1
 62
     2
  6
CONTINUOUS
 66
     1
 40
0.003000
 41
0.003000
  0
VERTEX
  8
PLAN_1
 62
     2
  6
CONTINUOUS
 10
0.667768
 20
-1.017921
  0
VERTEX
  8
PLAN_1
 62
     2
  6
CONTINUOUS
 10
0.664681
 20
-1.017921
  0
VERTEX
  8
PLAN_1
 62
     2
  6
CONTINUOUS
 10
0.662213
 20
-1.018539
  0
VERTEX
  8
PLAN_1
 62
     2
  6
CONTINUOUS
 10
0.659130
 20
-1.019772
  0
VERTEX
  8
PLAN_1
 62
     2
  6
CONTINUOUS
 10
0.657280
 20
-1.021008
  0
VERTEX
  8
PLAN_1
 62
     2
  6
CONTINUOUS
 10
0.654811
 20
-1.023472
  0
VERTEX
  8
PLAN_1
 62
     2
  6
CONTINUOUS
 10
0.653579
 20
-1.025941
  0
VERTEX
  8
PLAN_1
 62
     2
  6
CONTINUOUS
 10
0.652343
 20
-1.029028
  0
VERTEX
  8
PLAN_1
 62
     2
  6
CONTINUOUS
 10
0.652343
 20
-1.032728
  0
VERTEX
  8
PLAN_1
 62
     2
  6
CONTINUOUS
 10
0.652343
 20
-1.035811
  0
VERTEX
  8
PLAN_1
 62
     2
  6
CONTINUOUS
 10
0.653579
 20
-1.038280
  0
VERTEX
  8
PLAN_1
 62
     2
  6
CONTINUOUS
 10
0.654811
 20
-1.040748
  0
VERTEX
  8
PLAN_1
 62
     2
  6
CONTINUOUS
 10
0.656661
 20
-1.042598
  0
VERTEX
  8
PLAN_1
 62
     2
  6
CONTINUOUS
 10
0.659130
 20
-1.044449
  0
VERTEX
  8
PLAN_1
 62
     2
  6
CONTINUOUS
 10
0.662213
 20
-1.045681
  0
VERTEX
  8
PLAN_1
 62
     2
  6
CONTINUOUS
 10
0.665299
 20
-1.046299
  0
VERTEX
  8
PLAN_1
 62
     2
  6
CONTINUOUS
 10
0.669000
 20
-1.046299
  0
VERTEX
  8
PLAN_1
 62
     2
  6
CONTINUOUS
 10
0.673319
 20
-1.046299
  0
VERTEX
  8
PLAN_1
 62
     2
  6
CONTINUOUS
 10
0.677020
 20
-1.045063
  0
VERTEX
  8
PLAN_1
 62
     2
  6
CONTINUOUS
 10
0.680102
 20
-1.043213
  0
VERTEX
  8
PLAN_1
 62
     2
  6
CONTINUOUS
 10
0.681953
 20
-1.041362
  0
VERTEX
  8
PLAN_1
 62
     2
  6
CONTINUOUS
 10
0.683189
 20
-1.038898
  0
VERTEX
  8
PLAN_1
 62
     2
  6
CONTINUOUS
 10
0.683807
 20
-1.036429
  0
VERTEX
  8
PLAN_1
 62
     2
  6
CONTINUOUS
 10
0.684421
 20
-1.033961
  0
VERTEX
  8
PLAN_1
 62
     2
  6
CONTINUOUS
 10
0.684421
 20
-1.031492
  0
VERTEX
  8
PLAN_1
 62
     2
  6
CONTINUOUS
 10
0.684421
 20
-1.029642
  0
VERTEX
  8
PLAN_1
 62
     2
  6
CONTINUOUS
 10
0.683807
 20
-1.027791
  0
VERTEX
  8
PLAN_1
 62
     2
  6
CONTINUOUS
 10
0.683189
 20
-1.025323
  0
VERTEX
  8
PLAN_1
 62
     2
  6
CONTINUOUS
 10
0.681953
 20
-1.022858
  0
VERTEX
  8
PLAN_1
 62
     2
  6
CONTINUOUS
 10
0.679488
 20
-1.021008
  0
VERTEX
  8
PLAN_1
 62
     2
  6
CONTINUOUS
 10
0.676402
 20
-1.019157
  0
VERTEX
  8
PLAN_1
 62
     2
  6
CONTINUOUS
 10
0.672701
 20
-1.017921
  0
VERTEX
  8
PLAN_1
 62
     2
  6
CONTINUOUS
 10
0.667768
 20
-1.017921
  0
SEQEND
  8
0
  0
POLYLINE
  8
PLAN_1
 62
     2
  6
CONTINUOUS
 66
     1
 40
0.003000
 41
0.003000
  0
VERTEX
  8
PLAN_1
 62
     2
  6
CONTINUOUS
 10
0.674551
 20
-0.987079
  0
VERTEX
  8
PLAN_1
 62
     2
  6
CONTINUOUS
 10
0.673937
 20
-0.985843
  0
VERTEX
  8
PLAN_1
 62
     2
  6
CONTINUOUS
 10
0.672701
 20
-0.984610
  0
VERTEX
  8
PLAN_1
 62
     2
  6
CONTINUOUS
 10
0.672083
 20
-0.983378
  0
VERTEX
  8
PLAN_1
 62
     2
  6
CONTINUOUS
 10
0.671469
 20
-0.981528
  0
VERTEX
  8
PLAN_1
 62
     2
  6
CONTINUOUS
 10
0.670850
 20
-0.979677
  0
VERTEX
  8
PLAN_1
 62
     2
  6
CONTINUOUS
 10
0.670232
 20
-0.977823
  0
VERTEX
  8
PLAN_1
 62
     2
  6
CONTINUOUS
 10
0.670232
 20
-0.975358
  0
VERTEX
  8
PLAN_1
 62
     2
  6
CONTINUOUS
 10
0.670232
 20
-0.972890
  0
VERTEX
  8
PLAN_1
 62
     2
  6
CONTINUOUS
 10
0.670232
 20
-0.968571
  0
VERTEX
  8
PLAN_1
 62
     2
  6
CONTINUOUS
 10
0.671469
 20
-0.964252
  0
VERTEX
  8
PLAN_1
 62
     2
  6
CONTINUOUS
 10
0.673319
 20
-0.960551
  0
VERTEX
  8
PLAN_1
 62
     2
  6
CONTINUOUS
 10
0.676402
 20
-0.956850
  0
VERTEX
  8
PLAN_1
 62
     2
  6
CONTINUOUS
 10
0.679488
 20
-0.953768
  0
VERTEX
  8
PLAN_1
 62
     2
  6
CONTINUOUS
 10
0.683189
 20
-0.951299
  0
VERTEX
  8
PLAN_1
 62
     2
  6
CONTINUOUS
 10
0.688122
 20
-0.949449
  0
VERTEX
  8
PLAN_1
 62
     2
  6
CONTINUOUS
 10
0.693677
 20
-0.948831
  0
VERTEX
  8
PLAN_1
 62
     2
  6
CONTINUOUS
 10
0.696760
 20
-0.949449
  0
VERTEX
  8
PLAN_1
 62
     2
  6
CONTINUOUS
 10
0.701079
 20
-0.950063
  0
VERTEX
  8
PLAN_1
 62
     2
  6
CONTINUOUS
 10
0.705398
 20
-0.951299
  0
VERTEX
  8
PLAN_1
 62
     2
  6
CONTINUOUS
 10
0.709098
 20
-0.953768
  0
VERTEX
  8
PLAN_1
 62
     2
  6
CONTINUOUS
 10
0.711563
 20
-0.955618
  0
VERTEX
  8
PLAN_1
 62
     2
  6
CONTINUOUS
 10
0.713417
 20
-0.957469
  0
VERTEX
  8
PLAN_1
 62
     2
  6
CONTINUOUS
 10
0.714650
 20
-0.959319
  0
VERTEX
  8
PLAN_1
 62
     2
  6
CONTINUOUS
 10
0.716500
 20
-0.961787
  0
VERTEX
  8
PLAN_1
 62
     2
  6
CONTINUOUS
 10
0.717732
 20
-0.964870
  0
VERTEX
  8
PLAN_1
 62
     2
  6
CONTINUOUS
 10
0.718350
 20
-0.967953
  0
VERTEX
  8
PLAN_1
 62
     2
  6
CONTINUOUS
 10
0.718969
 20
-0.971657
  0
VERTEX
  8
PLAN_1
 62
     2
  6
CONTINUOUS
 10
0.718969
 20
-0.975358
  0
VERTEX
  8
PLAN_1
 62
     2
  6
CONTINUOUS
 10
0.718969
 20
-0.979059
  0
VERTEX
  8
PLAN_1
 62
     2
  6
CONTINUOUS
 10
0.718350
 20
-0.983378
  0
VERTEX
  8
PLAN_1
 62
     2
  6
CONTINUOUS
 10
0.717118
 20
-0.987079
  0
VERTEX
  8
PLAN_1
 62
     2
  6
CONTINUOUS
 10
0.715268
 20
-0.990161
  0
VERTEX
  8
PLAN_1
 62
     2
  6
CONTINUOUS
 10
0.712799
 20
-0.993248
  0
VERTEX
  8
PLAN_1
 62
     2
  6
CONTINUOUS
 10
0.709098
 20
-0.996331
  0
VERTEX
  8
PLAN_1
 62
     2
  6
CONTINUOUS
 10
0.704780
 20
-0.998181
  0
VERTEX
  8
PLAN_1
 62
     2
  6
CONTINUOUS
 10
0.699228
 20
-0.999417
  0
VERTEX
  8
PLAN_1
 62
     2
  6
CONTINUOUS
 10
0.699228
 20
-0.989547
  0
VERTEX
  8
PLAN_1
 62
     2
  6
CONTINUOUS
 10
0.701693
 20
-0.988929
  0
VERTEX
  8
PLAN_1
 62
     2
  6
CONTINUOUS
 10
0.704780
 20
-0.988311
  0
VERTEX
  8
PLAN_1
 62
     2
  6
CONTINUOUS
 10
0.706630
 20
-0.986461
  0
VERTEX
  8
PLAN_1
 62
     2
  6
CONTINUOUS
 10
0.708480
 20
-0.984610
  0
VERTEX
  8
PLAN_1
 62
     2
  6
CONTINUOUS
 10
0.709713
 20
-0.982760
  0
VERTEX
  8
PLAN_1
 62
     2
  6
CONTINUOUS
 10
0.710331
 20
-0.980291
  0
VERTEX
  8
PLAN_1
 62
     2
  6
CONTINUOUS
 10
0.710949
 20
-0.977209
  0
VERTEX
  8
PLAN_1
 62
     2
  6
CONTINUOUS
 10
0.711563
 20
-0.974122
  0
VERTEX
  8
PLAN_1
 62
     2
  6
CONTINUOUS
 10
0.710949
 20
-0.971039
  0
VERTEX
  8
PLAN_1
 62
     2
  6
CONTINUOUS
 10
0.709713
 20
-0.967953
  0
VERTEX
  8
PLAN_1
 62
     2
  6
CONTINUOUS
 10
0.708480
 20
-0.965488
  0
VERTEX
  8
PLAN_1
 62
     2
  6
CONTINUOUS
 10
0.706630
 20
-0.963020
  0
VERTEX
  8
PLAN_1
 62
     2
  6
CONTINUOUS
 10
0.704161
 20
-0.961169
  0
VERTEX
  8
PLAN_1
 62
     2
  6
CONTINUOUS
 10
0.701079
 20
-0.959937
  0
VERTEX
  8
PLAN_1
 62
     2
  6
CONTINUOUS
 10
0.697992
 20
-0.959319
  0
VERTEX
  8
PLAN_1
 62
     2
  6
CONTINUOUS
 10
0.694291
 20
-0.958701
  0
VERTEX
  8
PLAN_1
 62
     2
  6
CONTINUOUS
 10
0.690591
 20
-0.959319
  0
VERTEX
  8
PLAN_1
 62
     2
  6
CONTINUOUS
 10
0.687508
 20
-0.959937
  0
VERTEX
  8
PLAN_1
 62
     2
  6
CONTINUOUS
 10
0.685039
 20
-0.961787
  0
VERTEX
  8
PLAN_1
 62
     2
  6
CONTINUOUS
 10
0.682571
 20
-0.963638
  0
VERTEX
  8
PLAN_1
 62
     2
  6
CONTINUOUS
 10
0.680720
 20
-0.966102
  0
VERTEX
  8
PLAN_1
 62
     2
  6
CONTINUOUS
 10
0.679488
 20
-0.968571
  0
VERTEX
  8
PLAN_1
 62
     2
  6
CONTINUOUS
 10
0.678870
 20
-0.971657
  0
VERTEX
  8
PLAN_1
 62
     2
  6
CONTINUOUS
 10
0.678252
 20
-0.975358
  0
VERTEX
  8
PLAN_1
 62
     2
  6
CONTINUOUS
 10
0.678252
 20
-0.977209
  0
VERTEX
  8
PLAN_1
 62
     2
  6
CONTINUOUS
 10
0.678870
 20
-0.979059
  0
VERTEX
  8
PLAN_1
 62
     2
  6
CONTINUOUS
 10
0.679488
 20
-0.980909
  0
VERTEX
  8
PLAN_1
 62
     2
  6
CONTINUOUS
 10
0.680102
 20
-0.982760
  0
VERTEX
  8
PLAN_1
 62
     2
  6
CONTINUOUS
 10
0.681339
 20
-0.983992
  0
VERTEX
  8
PLAN_1
 62
     2
  6
CONTINUOUS
 10
0.682571
 20
-0.985843
  0
VERTEX
  8
PLAN_1
 62
     2
  6
CONTINUOUS
 10
0.683807
 20
-0.987079
  0
VERTEX
  8
PLAN_1
 62
     2
  6
CONTINUOUS
 10
0.685039
 20
-0.988311
  0
VERTEX
  8
PLAN_1
 62
     2
  6
CONTINUOUS
 10
0.685039
 20
-0.996331
  0
VERTEX
  8
PLAN_1
 62
     2
  6
CONTINUOUS
 10
0.645559
 20
-0.990780
  0
VERTEX
  8
PLAN_1
 62
     2
  6
CONTINUOUS
 10
0.645559
 20
-0.953150
  0
VERTEX
  8
PLAN_1
 62
     2
  6
CONTINUOUS
 10
0.654811
 20
-0.953150
  0
VERTEX
  8
PLAN_1
 62
     2
  6
CONTINUOUS
 10
0.654811
 20
-0.983992
  0
VERTEX
  8
PLAN_1
 62
     2
  6
CONTINUOUS
 10
0.674551
 20
-0.987079
  0
SEQEND
  8
0
  0
POLYLINE
  8
PLAN_1
 62
     2
  6
CONTINUOUS
 66
     1
 40
0.004315
 41
0.004315
  0
VERTEX
  8
PLAN_1
 62
     2
  6
CONTINUOUS
 10
0.757213
 20
0.885780
  0
VERTEX
  8
PLAN_1
 62
     2
  6
CONTINUOUS
 10
0.607311
 20
0.885780
  0
SEQEND
  8
0
  0
POLYLINE
  8
PLAN_1
 62
     2
  6
CONTINUOUS
 66
     1
 40
0.004315
 41
0.004315
  0
VERTEX
  8
PLAN_1
 62
     2
  6
CONTINUOUS
 10
0.559811
 20
0.885780
  0
VERTEX
  8
PLAN_1
 62
     2
  6
CONTINUOUS
 10
0.404972
 20
0.885780
  0
SEQEND
  8
0
  0
ENDSEC
  0
EOF
