999
DXF file: C:\Users\sesa63760\Dev\_Creo\CAD\MCADID0004743_3D-CAD\drw0001_1.dxf
999
Pro/ENGINEER 2019471 by Parametric Technology Corporation
  0
SECTION
  2
HEADER
  9
$ACADVER
  1
AC1024
  9
$DWGCODEPAGE
  3
ANSI_1252
  9
$EXTMAX
 10
20.4090417242
 20
28.8642161528
 30
0.0
  9
$EXTMIN
 10
-0.0
 20
0.0
 30
0.0
  9
$LIMMIN
 10
-0.0
 20
0.0
  9
$LIMMAX
 10
20.4090417242
 20
28.8642161528
  9
$VIEWCTR
 10
10.2045208621
 20
14.4321080764
  9
$VIEWSIZE
 40
28.8642161528
  9
$CLAYER
  8
0
  9
$LTSCALE
 40
1.8815192751
  9
$CELTYPE
  6
BYLAYER
  9
$DIMSCALE
 40
1.0
  9
$DIMASZ
 40
0.2429647824
  9
$DIMEXO
 40
1.0
  9
$DIMDLI
 40
1.2999587719
  9
$DIMEXE
 40
1.0
  9
$DIMCEN
 40
0.3078849723
  9
$DIMLFAC
 40
1.0
  9
$DIMBLK
  1
_FILLED
  9
$DIMALT
 70
0
  9
$DIMALTF
 40
0.0393700787
  9
$DIMTXT
 40
0.3401506954
  9
$DIMTOL
 70
1
  9
$DIMLIM
 70
0
  9
$DIMTFAC
 40
1.0
  9
$DIMTP
 40
0.01
  9
$DIMTM
 40
0.01
  9
$DIMGAP
 40
0.625
  9
$DIMDSEP
 70
46
  9
$AUNITS
 70
0
  9
$PDMODE
 70
3
  9
$PDSIZE
 40
0.3125
  9
$HANDSEED
  5
2BF
  9
$TILEMODE
 70
1
  9
$MEASUREMENT
 70
1
  9
$INSUNITS
 70
4
  0
ENDSEC
  0
SECTION
  2
CLASSES
  0
CLASS
  1
ACDBDICTIONARYWDFLT
  2
AcDbDictionaryWithDefault
  3
AutoCAD 2000
 90
0
 91
1
280
0
281
0
  0
CLASS
  1
ACDBPLACEHOLDER
  2
AcDbPlaceHolder
  3
AutoCAD 2000
 90
0
 91
1
280
0
281
0
  0
CLASS
  1
LAYOUT
  2
AcDbLayout
  3
AutoCAD 2000
 90
0
 91
0
280
0
281
0
  0
ENDSEC
  0
SECTION
  2
TABLES
  0
TABLE
  2
VPORT
  5
8
100
AcDbSymbolTable
 70
2
  0
VPORT
  5
1F4
100
AcDbSymbolTableRecord
100
AcDbViewportTableRecord
  2
*ACTIVE
 70
0
 10
0.0
 20
0.0
 11
1.0
 21
1.0
 12
10.2045208621
 22
14.4321080764
 13
0.0
 23
0.0
 14
1.0
 24
1.0
 15
0.0
 25
0.0
 16
0.0
 26
0.0
 36
1.0
 17
0.0
 27
0.0
 37
0.0
 40
28.8642161528
 41
0.7070707071
 42
50.0
 43
0.0
 44
0.0
 50
0.0
 51
0.0
 71
0
 72
100
 73
1
 74
1
 75
0
 76
0
 77
0
 78
0
  0
ENDTAB
  0
TABLE
  2
LTYPE
  5
5
100
AcDbSymbolTable
 70
6
  0
LTYPE
  5
14
100
AcDbSymbolTableRecord
100
AcDbLinetypeTableRecord
  2
BYBLOCK
 70
0
  3

 72
65
 73
0
 40
0.0
  0
LTYPE
  5
15
100
AcDbSymbolTableRecord
100
AcDbLinetypeTableRecord
  2
BYLAYER
 70
0
  3

 72
65
 73
0
 40
0.0
  0
LTYPE
  5
16
100
AcDbSymbolTableRecord
100
AcDbLinetypeTableRecord
  2
CONTINUOUS
 70
64
  3
Solid line
 72
65
 73
0
 40
0.0
  0
LTYPE
  5
1F5
100
AcDbSymbolTableRecord
100
AcDbLinetypeTableRecord
  2
CENTER
 70
64
  3
____ _ ____ _ ____ _ ____ _ ____ _ ____ _ ____
 72
65
 73
4
 40
0.6
 49
0.375
 74
0
 49
-0.075
 74
0
 49
0.075
 74
0
 49
-0.075
 74
0
  0
LTYPE
  5
1F6
100
AcDbSymbolTableRecord
100
AcDbLinetypeTableRecord
  2
HIDDEN
 70
64
  3
- - - - - - - - - - - - - - - - - - - -
 72
65
 73
2
 40
0.2
 49
0.1
 74
0
 49
-0.1
 74
0
  0
LTYPE
  5
1F7
100
AcDbSymbolTableRecord
100
AcDbLinetypeTableRecord
  2
PHANTOM
 70
64
  3
_____ _ _ _____ _ _ _____ _ _ _____
 72
65
 73
6
 40
0.8
 49
0.45
 74
0
 49
-0.05
 74
0
 49
0.1
 74
0
 49
-0.05
 74
0
 49
0.1
 74
0
 49
-0.05
 74
0
  0
LTYPE
  5
1F8
100
AcDbSymbolTableRecord
100
AcDbLinetypeTableRecord
  2
DOT
 70
64
  3
. . . . . . . . . . . . . . . . . . . .
 72
65
 73
2
 40
0.2
 49
0.1
 74
0
 49
-0.1
 74
0
  0
LTYPE
  5
1F9
100
AcDbSymbolTableRecord
100
AcDbLinetypeTableRecord
  2
DASHED
 70
64
  3
- - - - - - - - - - - - - - - - - - - -
 72
65
 73
2
 40
0.2
 49
0.1
 74
0
 49
-0.1
 74
0
  0
ENDTAB
  0
TABLE
  2
LAYER
  5
2
100
AcDbSymbolTable
 70
36
  0
LAYER
  5
10
100
AcDbSymbolTableRecord
100
AcDbLayerTableRecord
  2
0
 70
0
 62
7
  6
CONTINUOUS
370
-3
390
F
  0
LAYER
  5
1FA
100
AcDbSymbolTableRecord
100
AcDbLayerTableRecord
  2
DEFAULT_1
 70
0
 62
7
  6
CENTER
370
-3
390
F
  0
LAYER
  5
1FB
100
AcDbSymbolTableRecord
100
AcDbLayerTableRecord
  2
DEFAULT_2
 70
0
 62
7
  6
HIDDEN
370
-3
390
F
  0
LAYER
  5
1FC
100
AcDbSymbolTableRecord
100
AcDbLayerTableRecord
  2
DEFAULT_3
 70
0
 62
7
  6
PHANTOM
370
-3
390
F
  0
LAYER
  5
1FD
100
AcDbSymbolTableRecord
100
AcDbLayerTableRecord
  2
00_COMPONENTS
 70
0
 62
7
  6
CONTINUOUS
370
-3
390
F
  0
LAYER
  5
1FE
100
AcDbSymbolTableRecord
100
AcDbLayerTableRecord
  2
01_1_DEFAULT_DATUMS
 70
0
 62
7
  6
CONTINUOUS
370
-3
390
F
  0
LAYER
  5
1FF
100
AcDbSymbolTableRecord
100
AcDbLayerTableRecord
  2
01_PLANES
 70
0
 62
7
  6
CONTINUOUS
370
-3
390
F
  0
LAYER
  5
200
100
AcDbSymbolTableRecord
100
AcDbLayerTableRecord
  2
02_COORD_SYS
 70
0
 62
7
  6
CONTINUOUS
370
-3
390
F
  0
LAYER
  5
201
100
AcDbSymbolTableRecord
100
AcDbLayerTableRecord
  2
03_AXES
 70
0
 62
7
  6
CONTINUOUS
370
-3
390
F
  0
LAYER
  5
202
100
AcDbSymbolTableRecord
100
AcDbLayerTableRecord
  2
04_POINTS
 70
0
 62
7
  6
CONTINUOUS
370
-3
390
F
  0
LAYER
  5
203
100
AcDbSymbolTableRecord
100
AcDbLayerTableRecord
  2
05_CURVES
 70
0
 62
7
  6
CONTINUOUS
370
-3
390
F
  0
LAYER
  5
204
100
AcDbSymbolTableRecord
100
AcDbLayerTableRecord
  2
06_SURFS
 70
0
 62
7
  6
CONTINUOUS
370
-3
390
F
  0
LAYER
  5
205
100
AcDbSymbolTableRecord
100
AcDbLayerTableRecord
  2
07_COSMETICS
 70
0
 62
7
  6
CONTINUOUS
370
-3
390
F
  0
LAYER
  5
206
100
AcDbSymbolTableRecord
100
AcDbLayerTableRecord
  2
10_NOTES
 70
0
 62
7
  6
CONTINUOUS
370
-3
390
F
  0
LAYER
  5
207
100
AcDbSymbolTableRecord
100
AcDbLayerTableRecord
  2
11_NOTES_PUB
 70
0
 62
7
  6
CONTINUOUS
370
-3
390
F
  0
LAYER
  5
208
100
AcDbSymbolTableRecord
100
AcDbLayerTableRecord
  2
13_REF_GTOL
 70
0
 62
7
  6
CONTINUOUS
370
-3
390
F
  0
LAYER
  5
209
100
AcDbSymbolTableRecord
100
AcDbLayerTableRecord
  2
16_MISC
 70
0
 62
7
  6
CONTINUOUS
370
-3
390
F
  0
LAYER
  5
20A
100
AcDbSymbolTableRecord
100
AcDbLayerTableRecord
  2
17_NO_PRINT
 70
0
 62
7
  6
CONTINUOUS
370
-3
390
F
  0
LAYER
  5
20B
100
AcDbSymbolTableRecord
100
AcDbLayerTableRecord
  2
18_DATUM_CAMS_JOINTS
 70
0
 62
7
  6
CONTINUOUS
370
-3
390
F
  0
LAYER
  5
20C
100
AcDbSymbolTableRecord
100
AcDbLayerTableRecord
  2
19_DATUM_FUNCTIONAL
 70
0
 62
7
  6
CONTINUOUS
370
-3
390
F
  0
LAYER
  5
20D
100
AcDbSymbolTableRecord
100
AcDbLayerTableRecord
  2
20_DATUM_KINEMATIC_SCHEME
 70
0
 62
7
  6
CONTINUOUS
370
-3
390
F
  0
ENDTAB
  0
TABLE
  2
STYLE
  5
3
100
AcDbSymbolTable
 70
1
  0
STYLE
  5
11
100
AcDbSymbolTableRecord
100
AcDbTextStyleTableRecord
  2
STANDARD
 70
0
 40
0.0
 41
1.0
 50
0.0
 71
0
 42
0.2
  3
ARIAL.TTF
  4

  0
STYLE
  5
20E
100
AcDbSymbolTableRecord
100
AcDbTextStyleTableRecord
  2
TEXTSTYLE_1
 70
0
 40
0.0
 41
0.8
 50
0.0
 71
0
 42
0.2
  3
gdt
  4

  0
ENDTAB
  0
TABLE
  2
VIEW
  5
6
100
AcDbSymbolTable
 70
0
  0
ENDTAB
  0
TABLE
  2
UCS
  5
7
100
AcDbSymbolTable
 70
0
  0
ENDTAB
  0
TABLE
  2
APPID
  5
9
100
AcDbSymbolTable
 70
1
  0
APPID
  5
20F
100
AcDbSymbolTableRecord
100
AcDbRegAppTableRecord
  2
ACAD
 70
0
  0
ENDTAB
  0
TABLE
  2
BLOCK_RECORD
  5
1
100
AcDbSymbolTable
 70
0
  0
BLOCK_RECORD
  5
210
100
AcDbSymbolTableRecord
100
AcDbBlockTableRecord
  2
*Model_Space
  0
BLOCK_RECORD
  5
211
100
AcDbSymbolTableRecord
100
AcDbBlockTableRecord
  2
*Paper_Space
  0
BLOCK_RECORD
  5
212
100
AcDbSymbolTableRecord
100
AcDbBlockTableRecord
  2
_FILLED
  0
ENDTAB
  0
TABLE
  2
DIMSTYLE
  5
A
100
AcDbSymbolTable
 70
1
100
AcDbDimStyleTable
 71
0
  0
DIMSTYLE
105
213
100
AcDbSymbolTableRecord
100
AcDbDimStyleTableRecord
  2
STANDARD
 70
0
  3

  4

 40
1.0
 41
0.2429647824
 42
1.0
 43
0.38
 44
1.0
 45
0.0
 46
0.0
 47
0.01
 48
0.01
140
0.3401506954
141
0.09
142
0.0
143
25.4
144
1.0
145
0.0
146
1.0
147
0.625
 71
1
 72
0
 73
0
 74
0
 75
0
 76
0
 77
1
 78
8
 79
2
170
0
171
1
172
0
173
0
174
0
175
0
176
0
177
0
178
0
270
2
179
2
271
2
272
2
273
2
274
2
275
0
280
0
281
0
282
0
283
1
284
8
285
0
286
0
287
3
288
0
340
11
278
46
341
212
342
212
343
212
344
212
  0
ENDTAB
  0
ENDSEC
  0
SECTION
  2
BLOCKS
  0
BLOCK
  5
20
100
AcDbEntity
  8
0
100
AcDbBlockBegin
  2
*Model_Space
 70
0
 10
0.0
 20
0.0
 30
0.0
  3
*Model_Space
  1

  0
ENDBLK
  5
21
100
AcDbEntity
  8
0
100
AcDbBlockEnd
  0
BLOCK
  5
1C
100
AcDbEntity
  8
0
100
AcDbBlockBegin
  2
*Paper_Space
 70
0
 10
0.0
 20
0.0
 30
0.0
  3
*Paper_Space
  1

  0
ENDBLK
  5
1D
100
AcDbEntity
  8
0
100
AcDbBlockEnd
  0
BLOCK
  5
214
100
AcDbEntity
  8
0
100
AcDbBlockBegin
  2
_FILLED
 70
64
 10
0.0
 20
0.0
  3
_FILLED
  1

  0
SOLID
  5
215
100
AcDbEntity
  8
0
  6
BYBLOCK
 62
0
100
AcDbTrace
 10
0.0
 20
0.0
 11
-1.0
 21
0.25
 12
-1.0
 22
-0.25
 13
-1.0
 23
-0.25
  0
ENDBLK
  5
216
100
AcDbEntity
  8
0
  6
BYBLOCK
 62
0
100
AcDbBlockEnd
  0
ENDSEC
  0
SECTION
  2
ENTITIES
  0
LINE
  5
217
100
AcDbEntity
  8
0
100
AcDbLine
 62
7
  6
BYLAYER
 10
2.3630186933
 20
15.4118275449
 11
2.3630186933
 21
14.5953251278
  0
LINE
  5
218
100
AcDbEntity
  8
0
100
AcDbLine
 62
7
  6
BYLAYER
 10
6.3649493439
 20
7.8407154114
 11
5.7670212887
 21
8.3176273212
  0
LWPOLYLINE
  5
219
100
AcDbEntity
  8
0
100
AcDbPolyline
 62
7
  6
BYLAYER
 90
4
 70
0
 10
6.1507673893
 20
7.4744873874
 10
5.1220425819
 20
8.2952211126
 10
4.5575196495
 20
9.2523971363
 10
4.5490726548
 20
9.4149531269
  0
LINE
  5
21A
100
AcDbEntity
  8
0
100
AcDbLine
 62
7
  6
BYLAYER
 10
3.4730079012
 20
12.3170781047
 11
3.4730079012
 21
11.3358904516
  0
LINE
  5
21B
100
AcDbEntity
  8
0
100
AcDbLine
 62
7
  6
BYLAYER
 10
3.4871742708
 20
12.3046088446
 11
3.4871742708
 21
11.2932067094
  0
LINE
  5
21C
100
AcDbEntity
  8
0
100
AcDbLine
 62
7
  6
BYLAYER
 10
3.5668216896
 20
12.2345030656
 11
3.5668216896
 21
11.1821933001
  0
LINE
  5
21D
100
AcDbEntity
  8
0
100
AcDbLine
 62
7
  6
BYLAYER
 10
4.3835902338
 20
18.363015312
 11
4.0989849107
 21
17.6669516929
  0
LWPOLYLINE
  5
21E
100
AcDbEntity
  8
0
100
AcDbPolyline
 62
7
  6
BYLAYER
 90
5
 70
0
 10
4.8568927654
 20
19.0106052732
 10
4.3988074454
 20
18.016345332
 10
4.4668782401
 20
16.9875133029
 10
5.0567064978
 20
16.0144640435
 10
6.1196072705
 20
15.1827940163
  0
LWPOLYLINE
  5
21F
100
AcDbEntity
  8
0
100
AcDbPolyline
 62
7
  6
BYLAYER
 90
4
 70
0
 10
6.8630186933
 20
20.4392452927
 10
6.2529382667
 20
20.2048412541
 10
5.079090597
 20
19.3677727006
 10
4.3835902794
 20
18.3630154234
  0
LWPOLYLINE
  5
220
100
AcDbEntity
  8
0
100
AcDbPolyline
 62
7
  6
BYLAYER
 90
4
 70
0
 10
6.8630186933
 20
20.4083391399
 10
6.4308254648
 20
20.2500029505
 10
5.8009279953
 20
19.8836566828
 10
4.8568927654
 20
19.0106052732
  0
LWPOLYLINE
  5
221
100
AcDbEntity
  8
0
100
AcDbPolyline
 62
7
  6
BYLAYER
 90
3
 70
0
 10
4.7321894667
 20
10.160223697
 10
5.2789510471
 20
9.5818537858
 10
5.872909327
 20
9.1860414116
  0
LINE
  5
222
100
AcDbEntity
  8
0
100
AcDbLine
 62
7
  6
BYLAYER
 10
4.1857097852
 20
11.1013296674
 11
4.3898198083
 21
10.5592698015
  0
LINE
  5
223
100
AcDbEntity
  8
0
100
AcDbLine
 62
7
  6
BYLAYER
 10
3.4871742681
 20
11.2932067134
 11
3.4730192326
 21
11.3358904451
  0
LINE
  5
224
100
AcDbEntity
  8
0
100
AcDbLine
 62
7
  6
BYLAYER
 10
3.7417796441
 20
11.1125188771
 11
3.7417796441
 21
12.0805048081
  0
LINE
  5
225
100
AcDbEntity
  8
0
100
AcDbLine
 62
7
  6
BYLAYER
 10
4.0130186933
 20
8.2266062742
 11
4.0130186933
 21
9.8596111084
  0
LINE
  5
226
100
AcDbEntity
  8
0
100
AcDbLine
 62
7
  6
BYLAYER
 10
4.0130186933
 20
10.839414009
 11
4.0130186933
 21
11.1056823271
  0
LINE
  5
227
100
AcDbEntity
  8
0
100
AcDbLine
 62
7
  6
BYLAYER
 10
4.297134722
 20
11.5916804245
 11
4.297134722
 21
11.0985212143
  0
LINE
  5
228
100
AcDbEntity
  8
0
100
AcDbLine
 62
7
  6
BYLAYER
 10
4.3898198083
 20
11.5272704029
 11
4.3898198083
 21
10.3885803508
  0
LINE
  5
229
100
AcDbEntity
  8
0
100
AcDbLine
 62
7
  6
BYLAYER
 10
4.4294531771
 20
11.5043873505
 11
4.4294531771
 21
10.3195824397
  0
LWPOLYLINE
  5
22A
100
AcDbEntity
  8
0
100
AcDbPolyline
 62
7
  6
BYLAYER
 90
12
 70
0
 10
4.3848917916
 20
18.3613280933
 10
3.7796388918
 20
17.8944247571
 10
3.0346155044
 20
16.7410224934
 10
2.8821351793
 20
15.5111374263
 10
3.3354504114
 20
14.3075715098
 10
4.3583436325
 20
13.2256463456
 10
5.8676326922
 20
12.3540333338
 10
7.7396388676
 20
11.7635444147
 10
9.8222468803
 20
11.5012855367
 10
11.9501090719
 20
11.5880743814
 10
13.951597631
 20
12.0178490351
 10
15.6663416319
 20
12.7582730946
  0
LWPOLYLINE
  5
22B
100
AcDbEntity
  8
0
100
AcDbPolyline
 62
7
  6
BYLAYER
 90
3
 70
0
 10
7.3048510811
 20
9.1792640306
 10
6.7706167807
 20
9.3739436727
 10
6.4877450943
 20
9.5375379932
  0
LWPOLYLINE
  5
22C
100
AcDbEntity
  8
0
100
AcDbPolyline
 62
7
  6
BYLAYER
 90
4
 70
0
 10
4.3331168665
 20
11.5600088863
 10
3.1386511774
 20
12.6113794011
 10
2.4801452965
 20
13.8078799942
 10
2.3630650391
 20
14.595325123
  0
LINE
  5
22D
100
AcDbEntity
  8
0
100
AcDbLine
 62
7
  6
BYLAYER
 10
4.5561533373
 20
11.4312346894
 11
4.5561533373
 21
10.2242532041
  0
LINE
  5
22E
100
AcDbEntity
  8
0
100
AcDbLine
 62
7
  6
BYLAYER
 10
4.7563843799
 20
10.1830963409
 11
4.7563843799
 21
11.3156276246
  0
LINE
  5
22F
100
AcDbEntity
  8
0
100
AcDbLine
 62
7
  6
BYLAYER
 10
5.2990912627
 20
11.0407988894
 11
5.2990912627
 21
10.2525607407
  0
LINE
  5
230
100
AcDbEntity
  8
0
100
AcDbLine
 62
7
  6
BYLAYER
 10
5.4879054737
 20
10.219037664
 11
5.4879054737
 21
10.9693165005
  0
LINE
  5
231
100
AcDbEntity
  8
0
100
AcDbLine
 62
7
  6
BYLAYER
 10
5.7000656788
 20
10.8889956485
 11
5.7000656788
 21
9.6105456119
  0
LINE
  5
232
100
AcDbEntity
  8
0
100
AcDbLine
 62
7
  6
BYLAYER
 10
5.7760947677
 20
10.8602121112
 11
5.7760947677
 21
9.5199356254
  0
LINE
  5
233
100
AcDbEntity
  8
0
100
AcDbLine
 62
7
  6
BYLAYER
 10
5.9412132627
 20
10.7977005851
 11
5.9412132627
 21
9.4467870935
  0
LINE
  5
234
100
AcDbEntity
  8
0
100
AcDbLine
 62
7
  6
BYLAYER
 10
6.1530719788
 20
9.4369525622
 11
6.1530719788
 21
10.7174938726
  0
LWPOLYLINE
  5
235
100
AcDbEntity
  8
0
100
AcDbPolyline
 62
7
  6
BYLAYER
 90
3
 70
0
 10
4.115241042
 20
10.3495069236
 10
4.0291720613
 20
10.1209158674
 10
4.0130815749
 20
9.8596111084
  0
LINE
  5
236
100
AcDbEntity
  8
0
100
AcDbLine
 62
7
  6
BYLAYER
 10
7.3146448139
 20
9.0497708752
 11
7.2903951798
 21
9.3704005786
  0
LINE
  5
237
100
AcDbEntity
  8
0
100
AcDbLine
 62
7
  6
BYLAYER
 10
6.6461460893
 20
10.5308229905
 11
6.6461460893
 21
9.5851451406
  0
LINE
  5
238
100
AcDbEntity
  8
0
100
AcDbLine
 62
7
  6
BYLAYER
 10
6.8435548673
 20
9.5809782767
 11
6.8435548673
 21
10.4560868202
  0
LINE
  5
239
100
AcDbEntity
  8
0
100
AcDbLine
 62
7
  6
BYLAYER
 10
6.8630186933
 20
22.4802754986
 11
6.8630186933
 21
17.2118463104
  0
LWPOLYLINE
  5
23A
100
AcDbEntity
  8
0
100
AcDbPolyline
 62
7
  6
BYLAYER
 90
3
 70
0
 10
6.7980186933
 20
17.4694136361
 10
6.8010634513
 20
17.5544611398
 10
6.8630186933
 20
17.7250565967
  0
LINE
  5
23B
100
AcDbEntity
  8
0
100
AcDbLine
 62
7
  6
BYLAYER
 10
5.2990912627
 20
10.2525607407
 11
4.7563843799
 21
10.1830963409
  0
LINE
  5
23C
100
AcDbEntity
  8
0
100
AcDbLine
 62
7
  6
BYLAYER
 10
4.297134722
 20
11.0985212143
 11
3.7417796441
 21
11.1125188771
  0
LWPOLYLINE
  5
23D
100
AcDbEntity
  8
0
100
AcDbPolyline
 62
7
  6
BYLAYER
 90
4
 70
0
 10
6.12039567
 20
13.3706138302
 10
5.0575773629
 20
14.2022549412
 10
4.4677035786
 20
15.1758205385
 10
4.4569897638
 20
15.3412969405
  0
LINE
  5
23E
100
AcDbEntity
  8
0
100
AcDbLine
 62
7
  6
BYLAYER
 10
7.1854390103
 20
10.376800536
 11
7.1854390103
 21
9.4670196206
  0
LINE
  5
23F
100
AcDbEntity
  8
0
100
AcDbLine
 62
7
  6
BYLAYER
 10
7.2903951798
 20
9.3704005786
 11
7.2903951798
 21
10.3575762438
  0
LINE
  5
240
100
AcDbEntity
  8
0
100
AcDbLine
 62
7
  6
BYLAYER
 10
7.3146448139
 20
10.3531345607
 11
7.3146448139
 21
9.0497708752
  0
LINE
  5
241
100
AcDbEntity
  8
0
100
AcDbLine
 62
7
  6
BYLAYER
 10
7.4353276435
 20
10.3310296956
 11
7.4353276435
 21
8.9487608755
  0
LINE
  5
242
100
AcDbEntity
  8
0
100
AcDbLine
 62
7
  6
BYLAYER
 10
7.6276119208
 20
10.2958099545
 11
7.6276119208
 21
8.9027779988
  0
LINE
  5
243
100
AcDbEntity
  8
0
100
AcDbLine
 62
7
  6
BYLAYER
 10
7.836660489
 20
8.9249360065
 11
7.836660489
 21
10.2575195828
  0
LINE
  5
244
100
AcDbEntity
  8
0
100
AcDbLine
 62
7
  6
BYLAYER
 10
8.2464996414
 20
10.1824514127
 11
8.2464996414
 21
9.1417576842
  0
LINE
  5
245
100
AcDbEntity
  8
0
100
AcDbLine
 62
7
  6
BYLAYER
 10
8.4390120911
 20
9.1672375602
 11
8.4390120911
 21
10.1471898784
  0
LWPOLYLINE
  5
246
100
AcDbEntity
  8
0
100
AcDbPolyline
 62
7
  6
BYLAYER
 90
10
 70
0
 10
6.1549647185
 20
15.1625495338
 10
7.6002120683
 20
14.557031921
 10
9.2865683526
 20
14.2242139097
 10
11.0710795393
 20
14.1922207717
 10
12.7901548738
 20
14.4640399771
 10
14.2952119219
 20
15.0154252885
 10
14.9251093913
 20
15.3817715562
 10
15.8691446212
 20
16.2548229658
 10
16.3272299413
 20
17.249082907
 10
16.2591591466
 20
18.2779149361
  0
LINE
  5
247
100
AcDbEntity
  8
0
100
AcDbLine
 62
7
  6
BYLAYER
 10
13.8630186933
 20
22.4802754986
 11
13.8630186933
 21
17.2137706755
  0
LINE
  5
248
100
AcDbEntity
  8
0
100
AcDbLine
 62
7
  6
BYLAYER
 10
8.2464996414
 20
9.1417576842
 11
7.836660489
 21
8.9249360065
  0
LINE
  5
249
100
AcDbEntity
  8
0
100
AcDbLine
 62
7
  6
BYLAYER
 10
6.6461460893
 20
9.5851451406
 11
6.1530719788
 21
9.4369525622
  0
LINE
  5
24A
100
AcDbEntity
  8
0
100
AcDbLine
 62
7
  6
BYLAYER
 10
13.8417519087
 20
17.1552120011
 11
13.8187899794
 21
17.2042068878
  0
LINE
  5
24B
100
AcDbEntity
  8
0
100
AcDbLine
 62
7
  6
BYLAYER
 10
13.8630186933
 20
17.7269809617
 11
13.9280186933
 21
17.4694136361
  0
LWPOLYLINE
  5
24C
100
AcDbEntity
  8
0
100
AcDbPolyline
 62
7
  6
BYLAYER
 90
6
 70
0
 10
15.6663416319
 20
12.7582730946
 10
16.9463984948
 20
13.7457327498
 10
17.6914218823
 20
14.8991350135
 10
17.8439022073
 20
16.1290200807
 10
17.3905869752
 20
17.3325859971
 10
16.3814853392
 20
18.3999236534
  0
LINE
  5
24D
100
AcDbEntity
  8
0
100
AcDbLine
 62
7
  6
BYLAYER
 10
16.0198964945
 20
12.1459015087
 11
16.73747971
 21
12.6210344276
  0
LWPOLYLINE
  5
24E
100
AcDbEntity
  8
0
100
AcDbPolyline
 62
7
  6
BYLAYER
 90
4
 70
0
 10
16.73747971
 20
12.6210344276
 10
17.8052584588
 20
13.7174426013
 10
18.3210803303
 20
14.9395155548
 10
18.3630186933
 20
15.4118275449
  0
LWPOLYLINE
  5
24F
100
AcDbEntity
  8
0
100
AcDbPolyline
 62
7
  6
BYLAYER
 90
8
 70
0
 10
16.0198964945
 20
11.3293990916
 10
15.196725203
 20
10.9150118323
 10
13.2963413569
 20
10.2982710409
 10
11.1818017385
 20
10.0008445216
 10
9.0037725936
 20
10.043745546
 10
6.9288328017
 20
10.4238018007
 10
5.1053466469
 20
11.1141478598
 10
4.3331168665
 20
11.5600088863
  0
LWPOLYLINE
  5
250
100
AcDbEntity
  8
0
100
AcDbPolyline
 62
7
  6
BYLAYER
 90
6
 70
0
 10
14.2521221816
 20
9.5330676388
 10
12.9339510882
 20
8.9712802161
 10
11.3886311708
 20
8.6587085881
 10
9.7393247316
 20
8.6234949084
 10
8.1489448131
 20
8.871668907
 10
7.9044114079
 20
8.9607790143
  0
LINE
  5
251
100
AcDbEntity
  8
0
100
AcDbLine
 62
7
  6
BYLAYER
 10
16.7130186933
 20
8.2266062742
 11
16.7130186933
 21
9.8596111084
  0
LINE
  5
252
100
AcDbEntity
  8
0
100
AcDbLine
 62
7
  6
BYLAYER
 10
16.7130186933
 20
10.839414009
 11
16.7130186933
 21
11.7156544827
  0
LINE
  5
253
100
AcDbEntity
  8
0
100
AcDbLine
 62
7
  6
BYLAYER
 10
16.8604631453
 20
11.9306084465
 11
16.85959399
 21
11.9265665493
  0
LWPOLYLINE
  5
254
100
AcDbEntity
  8
0
100
AcDbPolyline
 62
7
  6
BYLAYER
 90
3
 70
0
 10
16.85959399
 20
11.9265665493
 10
16.1903978247
 20
10.9636379425
 10
15.1006538518
 20
10.1372919723
  0
LINE
  5
255
100
AcDbEntity
  8
0
100
AcDbLine
 62
7
  6
BYLAYER
 10
14.9256162567
 20
10.0603490847
 11
14.2521221816
 21
9.5330676388
  0
LINE
  5
256
100
AcDbEntity
  8
0
100
AcDbLine
 62
7
  6
BYLAYER
 10
14.5848753363
 20
20.1359746254
 11
13.8630186933
 21
20.4370252566
  0
LINE
  5
257
100
AcDbEntity
  8
0
100
AcDbLine
 62
7
  6
BYLAYER
 10
14.5710726682
 20
20.1028787052
 11
13.8630186933
 21
20.3995332208
  0
LWPOLYLINE
  5
258
100
AcDbEntity
  8
0
100
AcDbPolyline
 62
7
  6
BYLAYER
 90
8
 70
0
 10
14.8651811921
 20
8.233846439
 10
14.5890294963
 20
7.9832063955
 10
13.9961674337
 20
7.6442291324
 10
12.5834212193
 20
7.1364503715
 10
10.9745919521
 20
6.8907846056
 10
9.3117548417
 20
6.9289265018
 10
7.7417545133
 20
7.247507761
 10
6.4032372049
 20
7.8183945719
  0
LWPOLYLINE
  5
259
100
AcDbEntity
  8
0
100
AcDbPolyline
 62
7
  6
BYLAYER
 90
3
 70
0
 10
16.2591591466
 20
18.2779149361
 10
15.6693308889
 20
19.2509641955
 10
14.6493431139
 20
20.0490568137
  0
LINE
  5
25A
100
AcDbEntity
  8
0
100
AcDbLine
 62
7
  6
BYLAYER
 10
16.3424471529
 20
18.363015312
 11
16.6270524759
 21
17.6669516929
  0
LINE
  5
25B
100
AcDbEntity
  8
0
100
AcDbLine
 62
7
  6
BYLAYER
 10
18.3630186933
 20
15.4118275449
 11
18.3630186933
 21
14.5953251278
  0
ARC
  5
25C
100
AcDbEntity
  8
0
100
AcDbCircle
 62
7
  6
BYLAYER
 10
10.0913174086
 20
19.6301551853
 40
11.0066555335
100
AcDbArc
 50
256.0362704215
 51
257.065454345
  0
ARC
  5
25D
100
AcDbEntity
  8
0
100
AcDbCircle
 62
7
  6
BYLAYER
 10
9.8193629868
 20
17.9387996736
 40
8.8717874535
100
AcDbArc
 50
250.4016819637
 51
252.7292389328
  0
ARC
  5
25E
100
AcDbEntity
  8
0
100
AcDbCircle
 62
7
  6
BYLAYER
 10
9.2603946803
 20
17.1621251589
 40
8.3990122483
100
AcDbArc
 50
245.4903566381
 51
246.7223555581
  0
ARC
  5
25F
100
AcDbEntity
  8
0
100
AcDbCircle
 62
7
  6
BYLAYER
 10
8.1881961335
 20
12.6235235379
 40
6.983983775
100
AcDbArc
 50
121.8561683612
 51
123.6034908101
  0
ARC
  5
260
100
AcDbEntity
  8
0
100
AcDbCircle
 62
7
  6
BYLAYER
 10
8.7691373306
 20
15.5810457722
 40
6.2863036515
100
AcDbArc
 50
238.5358169628
 51
240.7746832926
  0
ARC
  5
261
100
AcDbEntity
  8
0
100
AcDbCircle
 62
7
  6
BYLAYER
 10
8.8784483256
 20
19.4974286557
 40
6.133344926
100
AcDbArc
 50
240.0019446049
 51
240.6056163403
  0
ARC
  5
262
100
AcDbEntity
  8
0
100
AcDbCircle
 62
7
  6
BYLAYER
 10
8.9023169087
 20
19.3842405998
 40
6.1291578825
100
AcDbArc
 50
240.0010124617
 51
240.6065034807
  0
ARC
  5
263
100
AcDbEntity
  8
0
100
AcDbCircle
 62
7
  6
BYLAYER
 10
8.9699445849
 20
10.5903785464
 40
5.9870948846
100
AcDbArc
 50
239.5906319982
 51
240.0007552307
  0
ARC
  5
264
100
AcDbEntity
  8
0
100
AcDbCircle
 62
7
  6
BYLAYER
 10
8.8287807023
 20
19.2573191888
 40
5.9824726214
100
AcDbArc
 50
239.1258293407
 51
240.0031779734
  0
ARC
  5
265
100
AcDbEntity
  8
0
100
AcDbCircle
 62
7
  6
BYLAYER
 10
8.85087956
 20
10.7924123275
 40
5.9560796225
100
AcDbArc
 50
239.590685339
 51
240.0007728646
  0
ARC
  5
266
100
AcDbEntity
  8
0
100
AcDbCircle
 62
7
  6
BYLAYER
 10
11.7181973756
 20
14.9558368322
 40
5.9279902026
100
AcDbArc
 50
60.6356652829
 51
60.9997949245
  0
ARC
  5
267
100
AcDbEntity
  8
0
100
AcDbCircle
 62
7
  6
BYLAYER
 10
11.7427017271
 20
14.9993971205
 40
5.8780105873
100
AcDbArc
 50
60.4107325127
 51
60.6356236759
  0
ARC
  5
268
100
AcDbEntity
  8
0
100
AcDbCircle
 62
7
  6
BYLAYER
 10
11.7628385286
 20
15.0347601449
 40
5.8373162163
100
AcDbArc
 50
60.0007682337
 51
60.4112153468
  0
ARC
  5
269
100
AcDbEntity
  8
0
100
AcDbCircle
 62
7
  6
BYLAYER
 10
8.9299226782
 20
20.0824119817
 40
5.8225157319
100
AcDbArc
 50
240.0007737041
 51
240.4112316213
  0
ARC
  5
26A
100
AcDbEntity
  8
0
100
AcDbCircle
 62
7
  6
BYLAYER
 10
10.3629901396
 20
18.8168591673
 40
5.7489078532
100
AcDbArc
 50
85.0317750774
 51
93.2916183963
  0
ARC
  5
26B
100
AcDbEntity
  8
0
100
AcDbCircle
 62
7
  6
BYLAYER
 10
10.3609516712
 20
18.8507232719
 40
5.7149825726
100
AcDbArc
 50
93.2907091119
 51
95.2314798374
  0
ARC
  5
26C
100
AcDbEntity
  8
0
100
AcDbCircle
 62
7
  6
BYLAYER
 10
12.8801473914
 20
13.8934762382
 40
5.7098805949
100
AcDbArc
 50
52.3532465666
 51
53.6090770913
  0
ARC
  5
26D
100
AcDbEntity
  8
0
100
AcDbCircle
 62
7
  6
BYLAYER
 10
7.9130754073
 20
14.8177324064
 40
5.6893740399
100
AcDbArc
 50
232.2437698419
 51
233.8406046166
  0
ARC
  5
26E
100
AcDbEntity
  8
0
100
AcDbCircle
 62
7
  6
BYLAYER
 10
11.7628381906
 20
15.157234932
 40
5.6873168728
100
AcDbArc
 50
60.0007737049
 51
60.4112316204
  0
ARC
  5
26F
100
AcDbEntity
  8
0
100
AcDbCircle
 62
7
  6
BYLAYER
 10
8.963199196
 20
20.1081933069
 40
5.6873168728
100
AcDbArc
 50
240.0007737049
 51
240.4112316204
  0
ARC
  5
270
100
AcDbEntity
  8
0
100
AcDbCircle
 62
7
  6
BYLAYER
 10
12.9453929708
 20
13.97835775
 40
5.602820695
100
AcDbArc
 50
52.1309858996
 51
52.3513648559
  0
ARC
  5
271
100
AcDbEntity
  8
0
100
AcDbCircle
 62
7
  6
BYLAYER
 10
11.8150356254
 20
15.2474480245
 40
5.5830913277
100
AcDbArc
 50
59.4036910808
 51
60.0017913808
  0
ARC
  5
272
100
AcDbEntity
  8
0
100
AcDbCircle
 62
7
  6
BYLAYER
 10
10.3800411013
 20
19.0154889272
 40
5.5495477045
100
AcDbArc
 50
82.9048830312
 51
85.0295544474
  0
ARC
  5
273
100
AcDbEntity
  8
0
100
AcDbCircle
 62
7
  6
BYLAYER
 10
8.9554667115
 20
12.2391484975
 40
5.5288636972
100
AcDbArc
 50
239.5169702664
 51
240.0008558155
  0
ARC
  5
274
100
AcDbEntity
  8
0
100
AcDbCircle
 62
7
  6
BYLAYER
 10
9.0270370314
 20
12.3631059493
 40
5.2477354195
100
AcDbArc
 50
239.5169702651
 51
240.0008558168
  0
ARC
  5
275
100
AcDbEntity
  8
0
100
AcDbCircle
 62
7
  6
BYLAYER
 10
10.1712057578
 20
19.8635926596
 40
4.6827456426
100
AcDbArc
 50
105.2816755346
 51
106.2760775306
  0
ARC
  5
276
100
AcDbEntity
  8
0
100
AcDbCircle
 62
7
  6
BYLAYER
 10
6.4842505157
 20
13.3594034339
 40
3.6402795115
100
AcDbArc
 50
214.5825397351
 51
216.7331349854
  0
ARC
  5
277
100
AcDbEntity
  8
0
100
AcDbCircle
 62
7
  6
BYLAYER
 10
9.6493515748
 20
21.0184710436
 40
3.4425763755
100
AcDbArc
 50
118.388175249
 51
118.835587779
  0
ARC
  5
278
100
AcDbEntity
  8
0
100
AcDbCircle
 62
7
  6
BYLAYER
 10
9.6221295053
 20
21.0679403472
 40
3.3861117591
100
AcDbArc
 50
118.8357943636
 51
119.4978536908
  0
ARC
  5
279
100
AcDbEntity
  8
0
100
AcDbCircle
 62
7
  6
BYLAYER
 10
9.5989433251
 20
21.109092477
 40
3.338877345
100
AcDbArc
 50
119.4992657145
 51
119.9989617961
  0
ARC
  5
27A
100
AcDbEntity
  8
0
100
AcDbCircle
 62
7
  6
BYLAYER
 10
11.1734009971
 20
23.9345616878
 40
3.3291136756
100
AcDbArc
 50
299.4992469535
 51
299.9989049325
  0
ARC
  5
27B
100
AcDbEntity
  8
0
100
AcDbCircle
 62
7
  6
BYLAYER
 10
11.1318802062
 20
24.0319284523
 40
3.1768988257
100
AcDbArc
 50
299.4952967007
 51
299.9940555416
  0
ARC
  5
27C
100
AcDbEntity
  8
0
100
AcDbCircle
 62
7
  6
BYLAYER
 10
9.5933945067
 20
21.2521297167
 40
3.1752415119
100
AcDbArc
 50
119.4964018605
 51
119.9954271932
  0
ARC
  5
27D
100
AcDbEntity
  8
0
100
AcDbCircle
 62
7
  6
BYLAYER
 10
9.4185242818
 20
18.7507975792
 40
3.158246298
100
AcDbArc
 50
237.0196674269
 51
238.581078042
  0
ARC
  5
27E
100
AcDbEntity
  8
0
100
AcDbCircle
 62
7
  6
BYLAYER
 10
11.3196121534
 20
18.7321834472
 40
3.1360535544
100
AcDbArc
 50
301.4237814748
 51
302.9226036071
  0
ARC
  5
27F
100
AcDbEntity
  8
0
100
AcDbCircle
 62
7
  6
BYLAYER
 10
9.5608427581
 20
21.3089189059
 40
3.1097833581
100
AcDbArc
 50
119.9993468299
 51
120.6684520313
  0
ARC
  5
280
100
AcDbEntity
  8
0
100
AcDbCircle
 62
7
  6
BYLAYER
 10
9.5331867754
 20
21.3556812835
 40
3.0554550125
100
AcDbArc
 50
120.6696564162
 51
121.2312487654
  0
ARC
  5
281
100
AcDbEntity
  8
0
100
AcDbCircle
 62
7
  6
BYLAYER
 10
11.3931878092
 20
18.6189590597
 40
3.0010236033
100
AcDbArc
 50
302.9183705592
 51
304.2787451944
  0
ARC
  5
282
100
AcDbEntity
  8
0
100
AcDbCircle
 62
7
  6
BYLAYER
 10
14.5621230565
 20
9.8578701993
 40
2.1508894215
100
AcDbArc
 50
0.0463744448
 51
13.364927204
  0
SPLINE
  5
283
100
AcDbEntity
  8
0
100
AcDbSpline
 62
7
  6
BYLAYER
 70
0
 71
3
 72
20
 73
16
 74
0
 42
0.0000001
 43
0.0000001
 44
0.0000000001
 40
0.0
 40
0.0
 40
0.0
 40
0.0
 40
0.1430947346
 40
0.2799377749
 40
0.3460585707
 40
0.4107143254
 40
0.4739808544
 40
0.5359436795
 40
0.656327872
 40
0.7150791004
 40
0.7730427703
 40
0.8303506945
 40
0.8871505511
 40
0.9436287561
 40
1.0
 40
1.0
 40
1.0
 40
1.0
 10
7.929557048
 20
24.0006753278
 30
0.0
 10
7.8492050124
 20
23.9542843353
 30
0.0
 10
7.6957236927
 20
23.8568714826
 30
0.0
 10
7.5181801732
 20
23.7190004386
 30
0.0
 10
7.3900481114
 20
23.6018681361
 30
0.0
 10
7.3020318217
 20
23.5118658328
 30
0.0
 10
7.2212480208
 20
23.4188425299
 30
0.0
 10
7.1244818999
 20
23.2922682497
 30
0.0
 10
7.0418316492
 20
23.15886774
 30
0.0
 10
6.9756491574
 20
23.0199778935
 30
0.0
 10
6.9349386248
 20
22.9146162899
 30
0.0
 10
6.9029713656
 20
22.8076013571
 30
0.0
 10
6.8799765929
 20
22.6992809067
 30
0.0
 10
6.8661145959
 20
22.590035021
 30
0.0
 10
6.8630186933
 20
22.5168265243
 30
0.0
 10
6.8630186933
 20
22.4802754986
 30
0.0
  0
SPLINE
  5
284
100
AcDbEntity
  8
0
100
AcDbSpline
 62
7
  6
BYLAYER
 70
0
 71
3
 72
35
 73
31
 74
0
 42
0.0000001
 43
0.0000001
 44
0.0000000001
 40
0.0
 40
0.0
 40
0.0
 40
0.0
 40
0.0232237047
 40
0.0465627871
 40
0.0701960799
 40
0.0942649162
 40
0.1188833175
 40
0.144172609
 40
0.1702335643
 40
0.1971460689
 40
0.2249668847
 40
0.2537285475
 40
0.283442666
 40
0.3140989428
 40
0.3456666377
 40
0.3780991603
 40
0.4452689143
 40
0.5149739384
 40
0.5864003665
 40
0.6586364414
 40
0.6947677537
 40
0.7307420715
 40
0.7664419473
 40
0.801754067
 40
0.8365692677
 40
0.8707844247
 40
0.9043057421
 40
0.9370611858
 40
0.9689856765
 40
1.0
 40
1.0
 40
1.0
 40
1.0
 10
13.8630186933
 20
22.4802754986
 30
0.0
 10
13.8630186933
 20
22.5337628101
 30
0.0
 10
13.8563614933
 20
22.641118027
 30
0.0
 10
13.82666544
 20
22.8004209542
 30
0.0
 10
13.777640038
 20
22.9569141028
 30
0.0
 10
13.7100684698
 20
23.1095240184
 30
0.0
 10
13.6246413301
 20
23.2572916025
 30
0.0
 10
13.5222413419
 20
23.3994942339
 30
0.0
 10
13.4036946131
 20
23.5355901506
 30
0.0
 10
13.2698113377
 20
23.6651219332
 30
0.0
 10
13.1213811162
 20
23.7876706754
 30
0.0
 10
12.9592075827
 20
23.9028509546
 30
0.0
 10
12.7841115547
 20
24.0102824931
 30
0.0
 10
12.5969545179
 20
24.1095926376
 30
0.0
 10
12.3986404959
 20
24.2004250601
 30
0.0
 10
12.1173724348
 20
24.3110135971
 30
0.0
 10
11.7437433566
 20
24.4250350833
 30
0.0
 10
11.2731451076
 20
24.5214908538
 30
0.0
 10
10.7843267072
 20
24.5774886836
 30
0.0
 10
10.369879229
 20
24.5895904921
 30
0.0
 10
10.0375519547
 20
24.5782938834
 30
0.0
 10
9.789907077
 20
24.5593332263
 30
0.0
 10
9.545182712
 20
24.5299662251
 30
0.0
 10
9.3046089531
 20
24.490344779
 30
0.0
 10
9.0694076464
 20
24.4406283622
 30
0.0
 10
8.84075596
 20
24.381078582
 30
0.0
 10
8.6197829981
 20
24.3119262731
 30
0.0
 10
8.4075445883
 20
24.2334701702
 30
0.0
 10
8.2051244162
 20
24.1460222948
 30
0.0
 10
8.0754442098
 20
24.0810275185
 30
0.0
 10
8.0126039182
 20
24.0470662972
 30
0.0
  0
SPLINE
  5
285
100
AcDbEntity
  8
0
100
AcDbSpline
 62
7
  6
BYLAYER
 70
0
 71
3
 72
34
 73
30
 74
0
 42
0.0000001
 43
0.0000001
 44
0.0000000001
 40
0.0
 40
0.0
 40
0.0
 40
0.0
 40
0.0213223276
 40
0.0428709121
 40
0.0648607634
 40
0.0874844038
 40
0.1109067784
 40
0.1352593998
 40
0.1606414365
 40
0.1871191601
 40
0.2147290942
 40
0.2434808505
 40
0.2733591195
 40
0.3043285405
 40
0.3363335903
 40
0.3693045429
 40
0.4377714413
 40
0.5089455044
 40
0.5818876152
 40
0.6555787651
 40
0.7289669634
 40
0.7652298854
 40
0.801031951
 40
0.8362526575
 40
0.870776856
 40
0.9045005118
 40
0.9373366878
 40
0.9692008587
 40
1.0
 40
1.0
 40
1.0
 40
1.0
 10
6.863018707
 20
22.4802755001
 30
0.0
 10
6.8630190494
 20
22.4308380808
 30
0.0
 10
6.8693815069
 20
22.3313263305
 30
0.0
 10
6.8978343185
 20
22.1832818
 30
0.0
 10
6.9450712581
 20
22.036945252
 30
0.0
 10
7.0107254175
 20
21.893145827
 30
0.0
 10
7.0944296805
 20
21.7526680011
 30
0.0
 10
7.1956524587
 20
21.6162309413
 30
0.0
 10
7.313843143
 20
21.4845558996
 30
0.0
 10
7.448333651
 20
21.3583074321
 30
0.0
 10
7.5984027888
 20
21.238141691
 30
0.0
 10
7.7632438399
 20
21.1246815121
 30
0.0
 10
7.9419732567
 20
21.0185088157
 30
0.0
 10
8.133644103
 20
20.9201961071
 30
0.0
 10
8.3372306084
 20
20.8302356382
 30
0.0
 10
8.6267392405
 20
20.7207374068
 30
0.0
 10
9.0116325488
 20
20.6084952535
 30
0.0
 10
9.4962482106
 20
20.5151123843
 30
0.0
 10
9.9992237249
 20
20.4633025143
 30
0.0
 10
10.5098630201
 20
20.4541698698
 30
0.0
 10
10.9345843662
 20
20.4823931508
 30
0.0
 10
11.2690114253
 20
20.5265825595
 30
0.0
 10
11.514020978
 20
20.570058445
 30
0.0
 10
11.7528618774
 20
20.623766456
 30
0.0
 10
11.9842653964
 20
20.6873985097
 30
0.0
 10
12.2070008834
 20
20.7606451044
 30
0.0
 10
12.4199023286
 20
20.8431083274
 30
0.0
 10
12.6217710917
 20
20.9343556616
 30
0.0
 10
12.7505444449
 20
21.0018635407
 30
0.0
 10
12.8126969227
 20
21.0370270921
 30
0.0
  0
SPLINE
  5
286
100
AcDbEntity
  8
0
100
AcDbSpline
 62
7
  6
BYLAYER
 70
0
 71
3
 72
17
 73
13
 74
0
 42
0.0000001
 43
0.0000001
 44
0.0000000001
 40
0.0
 40
0.0
 40
0.0
 40
0.0
 40
0.1485459448
 40
0.2894555185
 40
0.422646836
 40
0.5485372165
 40
0.6678764
 40
0.7817923852
 40
0.8372274243
 40
0.8919111208
 40
0.9460848286
 40
1.0
 40
1.0
 40
1.0
 40
1.0
 10
12.8379027313
 20
21.0514328593
 30
0.0
 10
12.9168335408
 20
21.0970033114
 30
0.0
 10
13.0670652232
 20
21.1922328034
 30
0.0
 10
13.2724607408
 20
21.351198867
 30
0.0
 10
13.4501169586
 20
21.5212463689
 30
0.0
 10
13.598246614
 20
21.7008179077
 30
0.0
 10
13.7153756855
 20
21.8882708029
 30
0.0
 10
13.7866739877
 20
22.0512448574
 30
0.0
 10
13.8263582437
 20
22.1829843136
 30
0.0
 10
13.8474827313
 20
22.2816715613
 30
0.0
 10
13.8601859984
 20
22.3808424673
 30
0.0
 10
13.8630189088
 20
22.4471955027
 30
0.0
 10
13.8630186796
 20
22.4802755001
 30
0.0
  0
SPLINE
  5
287
100
AcDbEntity
  8
0
100
AcDbSpline
 62
7
  6
BYLAYER
 70
0
 71
3
 72
38
 73
34
 74
0
 42
0.0000001
 43
0.0000001
 44
0.0000000001
 40
0.0
 40
0.0
 40
0.0
 40
0.0
 40
0.0341239401
 40
0.0670582578
 40
0.0987860774
 40
0.1293236683
 40
0.1587050187
 40
0.1869878682
 40
0.2142636461
 40
0.2406524913
 40
0.2662979461
 40
0.2913760195
 40
0.3160828673
 40
0.3283682693
 40
0.3406419708
 40
0.3652534929
 40
0.3901395277
 40
0.4155083718
 40
0.4415480737
 40
0.4684108832
 40
0.496229878
 40
0.5251119589
 40
0.5551281031
 40
0.5863257111
 40
0.6187198058
 40
0.6523151171
 40
0.6870871975
 40
0.7229981182
 40
0.7599926709
 40
0.8369146579
 40
0.9171904189
 40
0.9583375144
 40
1.0
 40
1.0
 40
1.0
 40
1.0
 10
12.7200556056
 20
21.2804974386
 30
0.0
 10
12.7717925718
 20
21.3103675934
 30
0.0
 10
12.8718144272
 20
21.3719898914
 30
0.0
 10
13.0132666729
 20
21.4716927978
 30
0.0
 10
13.142853502
 20
21.5767160773
 30
0.0
 10
13.2600313174
 20
21.686531964
 30
0.0
 10
13.3643034686
 20
21.8006512558
 30
0.0
 10
13.4550988163
 20
21.9186598038
 30
0.0
 10
13.5320312918
 20
22.0399994159
 30
0.0
 10
13.5948477498
 20
22.1640864886
 30
0.0
 10
13.64302242
 20
22.2904777171
 30
0.0
 10
13.6763987204
 20
22.4185185005
 30
0.0
 10
13.691844436
 20
22.5263421817
 30
0.0
 10
13.696606948
 20
22.6125032438
 30
0.0
 10
13.6963212251
 20
22.6986285272
 30
0.0
 10
13.6864822631
 20
22.8065846955
 30
0.0
 10
13.6597685582
 20
22.9351777475
 30
0.0
 10
13.6181544247
 20
23.0623816001
 30
0.0
 10
13.561798077
 20
23.1875519931
 30
0.0
 10
13.4911553521
 20
23.3101995174
 30
0.0
 10
13.406493668
 20
23.4297534018
 30
0.0
 10
13.308181219
 20
23.5456690941
 30
0.0
 10
13.1967066677
 20
23.6574821612
 30
0.0
 10
13.0725521258
 20
23.7646634183
 30
0.0
 10
12.9363321099
 20
23.8668195046
 30
0.0
 10
12.7885984501
 20
23.9634243306
 30
0.0
 10
12.6300451006
 20
24.0541184029
 30
0.0
 10
12.461349323
 20
24.1384613167
 30
0.0
 10
12.2208097044
 20
24.243322888
 30
0.0
 10
11.8993399608
 20
24.3556289124
 30
0.0
 10
11.5621459143
 20
24.4404114624
 30
0.0
 10
11.2814111294
 20
24.4927545838
 30
0.0
 10
11.1378835249
 20
24.5135292592
 30
0.0
 10
11.065504057
 20
24.5225407937
 30
0.0
  0
SPLINE
  5
288
100
AcDbEntity
  8
0
100
AcDbSpline
 62
7
  6
BYLAYER
 70
0
 71
3
 72
10
 73
6
 74
0
 42
0.0000001
 43
0.0000001
 44
0.0000000001
 40
0.0
 40
0.0
 40
0.0
 40
0.0
 40
0.5070298243
 40
0.7556749426
 40
1.0
 40
1.0
 40
1.0
 40
1.0
 10
9.8398610914
 20
24.5418998122
 30
0.0
 10
9.6853380596
 20
24.5277382766
 30
0.0
 10
9.4557363506
 20
24.4970780092
 30
0.0
 10
9.1556271576
 20
24.4368010894
 30
0.0
 10
9.009128673
 20
24.4004734421
 30
0.0
 10
8.9370000118
 20
24.3807646654
 30
0.0
  0
SPLINE
  5
289
100
AcDbEntity
  8
0
100
AcDbSpline
 62
7
  6
BYLAYER
 70
0
 71
3
 72
11
 73
7
 74
0
 42
0.0000001
 43
0.0000001
 44
0.0000000001
 40
0.0
 40
0.0
 40
0.0
 40
0.0
 40
0.2613599199
 40
0.5156178111
 40
0.7620181817
 40
1.0
 40
1.0
 40
1.0
 40
1.0
 10
8.8587916441
 20
24.358665067
 30
0.0
 10
8.7836315604
 20
24.3367168392
 30
0.0
 10
8.6364201826
 20
24.289648504
 30
0.0
 10
8.4229060244
 20
24.2085346412
 30
0.0
 10
8.2207826298
 20
24.1181630817
 30
0.0
 10
8.0920570447
 20
24.0509245246
 30
0.0
 10
8.030004332
 20
24.0158174379
 30
0.0
  0
SPLINE
  5
28A
100
AcDbEntity
  8
0
100
AcDbSpline
 62
7
  6
BYLAYER
 70
0
 71
3
 72
59
 73
55
 74
0
 42
0.0000001
 43
0.0000001
 44
0.0000000001
 40
0.0
 40
0.0
 40
0.0
 40
0.0
 40
0.0306003407
 40
0.0453057088
 40
0.0596119034
 40
0.0735264027
 40
0.0870574743
 40
0.1130094196
 40
0.1254870432
 40
0.1376666314
 40
0.1495794875
 40
0.1612625775
 40
0.1727612526
 40
0.1841232942
 40
0.1953982383
 40
0.2066367552
 40
0.2178923172
 40
0.2292179435
 40
0.2406641271
 40
0.2522792043
 40
0.2641078587
 40
0.2761902128
 40
0.2885605059
 40
0.3012497178
 40
0.3142842885
 40
0.3276838575
 40
0.3414637147
 40
0.3556349788
 40
0.3702025534
 40
0.3851682625
 40
0.4162816941
 40
0.4324218759
 40
0.448935986
 40
0.4658097128
 40
0.4830252235
 40
0.5184050305
 40
0.5549104407
 40
0.5735281372
 40
0.5923517854
 40
0.6305032987
 40
0.669142134
 40
0.708027739
 40
0.7469172305
 40
0.7662896719
 40
0.7855725812
 40
0.8237442253
 40
0.8612079316
 40
0.8796085132
 40
0.8977513817
 40
0.9156136478
 40
0.9331744696
 40
0.9504115387
 40
0.9673056892
 40
1.0
 40
1.0
 40
1.0
 40
1.0
 10
7.948953387
 20
23.9683446572
 30
0.0
 10
7.8764532278
 20
23.9243809903
 30
0.0
 10
7.7717320857
 20
23.8547374709
 30
0.0
 10
7.6411415382
 20
23.7535159387
 30
0.0
 10
7.5509024751
 20
23.6759477671
 30
0.0
 10
7.4672504881
 20
23.5959449359
 30
0.0
 10
7.3661965114
 20
23.4878048691
 30
0.0
 10
7.2772993725
 20
23.3739681709
 30
0.0
 10
7.2025249566
 20
23.2552313412
 30
0.0
 10
7.1545674267
 20
23.1658681511
 30
0.0
 10
7.1141747981
 20
23.0752410763
 30
0.0
 10
7.0815174715
 20
22.9835419033
 30
0.0
 10
7.056603084
 20
22.8910204621
 30
0.0
 10
7.0394671529
 20
22.797893865
 30
0.0
 10
7.0301636293
 20
22.7043825183
 30
0.0
 10
7.02879347
 20
22.6107114221
 30
0.0
 10
7.0353716648
 20
22.5171235861
 30
0.0
 10
7.0497655912
 20
22.4238370172
 30
0.0
 10
7.0719690657
 20
22.3310724156
 30
0.0
 10
7.1019623922
 20
22.2390625166
 30
0.0
 10
7.1397010636
 20
22.1480434477
 30
0.0
 10
7.1850495348
 20
22.0582251704
 30
0.0
 10
7.2378270271
 20
21.9697797708
 30
0.0
 10
7.2979676417
 20
21.8829424872
 30
0.0
 10
7.3653499278
 20
21.7979338683
 30
0.0
 10
7.4397787164
 20
21.7149244917
 30
0.0
 10
7.5210856099
 20
21.634112371
 30
0.0
 10
7.6090898136
 20
21.5557045046
 30
0.0
 10
7.7035521627
 20
21.4798485342
 30
0.0
 10
7.839564501
 20
21.381073728
 30
0.0
 10
7.9860591369
 20
21.2896805442
 30
0.0
 10
8.1414439713
 20
21.205504783
 30
0.0
 10
8.2646678747
 20
21.1450096877
 30
0.0
 10
8.3928226869
 20
21.0880440799
 30
0.0
 10
8.5714625946
 20
21.0162595158
 30
0.0
 10
8.8053170663
 20
20.9364777264
 30
0.0
 10
9.0475995446
 20
20.8711156018
 30
0.0
 10
9.2477103449
 20
20.8269750272
 30
0.0
 10
9.4535382638
 20
20.7880177225
 30
0.0
 10
9.7159417633
 20
20.7503321365
 30
0.0
 10
10.0354759838
 20
20.7231706947
 30
0.0
 10
10.3580683037
 20
20.7137895361
 30
0.0
 10
10.6273024759
 20
20.7211417737
 30
0.0
 10
10.8416733305
 20
20.7360382667
 30
0.0
 10
11.0535615612
 20
20.7567698903
 30
0.0
 10
11.3141145349
 20
20.7937149145
 30
0.0
 10
11.5696598189
 20
20.8454390585
 30
0.0
 10
11.7685627788
 20
20.8954371031
 30
0.0
 10
11.9135401991
 20
20.9368506237
 30
0.0
 10
12.054865625
 20
20.9822860029
 30
0.0
 10
12.1922262802
 20
21.0315859789
 30
0.0
 10
12.3252916589
 20
21.0846745424
 30
0.0
 10
12.4946626353
 20
21.1595571726
 30
0.0
 10
12.6171867962
 20
21.2221597601
 30
0.0
 10
12.6960330546
 20
21.2667680564
 30
0.0
  0
SPLINE
  5
28B
100
AcDbEntity
  8
0
100
AcDbSpline
 62
7
  6
BYLAYER
 70
0
 71
3
 72
37
 73
33
 74
0
 42
0.0000001
 43
0.0000001
 44
0.0000000001
 40
0.0
 40
0.0
 40
0.0
 40
0.0
 40
0.0309732575
 40
0.0603777729
 40
0.0881705295
 40
0.1014893288
 40
0.1144426299
 40
0.139333749
 40
0.1630983448
 40
0.1860508188
 40
0.2085779902
 40
0.2311051161
 40
0.2540578413
 40
0.2778212235
 40
0.3027160277
 40
0.3156709636
 40
0.3289909509
 40
0.3567776879
 40
0.3861626872
 40
0.4171575784
 40
0.4497089128
 40
0.4837205496
 40
0.5554874586
 40
0.6310297167
 40
0.7085377672
 40
0.7860468651
 40
0.824200913
 40
0.8616237059
 40
0.8980974727
 40
0.9334374153
 40
0.9674666932
 40
1.0
 40
1.0
 40
1.0
 40
1.0
 10
11.0701284185
 20
22.3929336654
 30
0.0
 10
11.0926697
 20
22.4059478966
 30
0.0
 10
11.1355858429
 20
22.433162828
 30
0.0
 10
11.1942769165
 20
22.4785702088
 30
0.0
 10
11.2371836171
 20
22.5196410425
 30
0.0
 10
11.2670852952
 20
22.5538827421
 30
0.0
 10
11.29331457
 20
22.5879787267
 30
0.0
 10
11.3208278209
 20
22.6320445586
 30
0.0
 10
11.3450543824
 20
22.6873792209
 30
0.0
 10
11.3597273712
 20
22.743959325
 30
0.0
 10
11.3646439107
 20
22.8011749945
 30
0.0
 10
11.3597269256
 20
22.8583913581
 30
0.0
 10
11.3450495472
 20
22.914968559
 30
0.0
 10
11.3208351088
 20
22.9703118513
 30
0.0
 10
11.2933026268
 20
23.0143700044
 30
0.0
 10
11.2670766558
 20
23.0484749643
 30
0.0
 10
11.2371744392
 20
23.0827133305
 30
0.0
 10
11.1942785593
 20
23.1237628835
 30
0.0
 10
11.1356033008
 20
23.1691935653
 30
0.0
 10
11.069547227
 20
23.2110464471
 30
0.0
 10
10.9967613218
 20
23.2489706235
 30
0.0
 10
10.8897360296
 20
23.2945878313
 30
0.0
 10
10.7434724029
 20
23.339050403
 30
0.0
 10
10.5568849204
 20
23.3712868734
 30
0.0
 10
10.3630333022
 20
23.3821723953
 30
0.0
 10
10.2005740526
 20
23.3730580706
 30
0.0
 10
10.0731823739
 20
23.3546942363
 30
0.0
 10
9.9808929422
 20
23.3357036564
 30
0.0
 10
9.8922559393
 20
23.3115866958
 30
0.0
 10
9.8080973912
 20
23.2825803478
 30
0.0
 10
9.7292652756
 20
23.2489486106
 30
0.0
 10
9.6795856663
 20
23.2230847874
 30
0.0
 10
9.6559089682
 20
23.2094151744
 30
0.0
  0
SPLINE
  5
28C
100
AcDbEntity
  8
0
100
AcDbSpline
 62
7
  6
BYLAYER
 70
0
 71
3
 72
37
 73
33
 74
0
 42
0.0000001
 43
0.0000001
 44
0.0000000001
 40
0.0
 40
0.0
 40
0.0
 40
0.0
 40
0.0309732575
 40
0.0603777729
 40
0.0881705295
 40
0.1014893288
 40
0.1144426299
 40
0.139333749
 40
0.1630983448
 40
0.1860508188
 40
0.2085779902
 40
0.2311051161
 40
0.2540578413
 40
0.2778212235
 40
0.3027160277
 40
0.3156709636
 40
0.3289909509
 40
0.3567776879
 40
0.3861626872
 40
0.4171575784
 40
0.4497089128
 40
0.4837205496
 40
0.5554874586
 40
0.6310297167
 40
0.7085377672
 40
0.7860468651
 40
0.824200913
 40
0.8616237059
 40
0.8980974727
 40
0.9334374153
 40
0.9674666932
 40
1.0
 40
1.0
 40
1.0
 40
1.0
 10
9.6559089682
 20
23.2094151744
 30
0.0
 10
9.6333676866
 20
23.1964009433
 30
0.0
 10
9.5904515437
 20
23.1691860119
 30
0.0
 10
9.5317604702
 20
23.123778631
 30
0.0
 10
9.4888537695
 20
23.0827077973
 30
0.0
 10
9.4589520915
 20
23.0484660978
 30
0.0
 10
9.4327228167
 20
23.0143701131
 30
0.0
 10
9.4052095658
 20
22.9703042813
 30
0.0
 10
9.3809830042
 20
22.9149696189
 30
0.0
 10
9.3663100155
 20
22.8583895149
 30
0.0
 10
9.361393476
 20
22.8011738454
 30
0.0
 10
9.366310461
 20
22.7439574817
 30
0.0
 10
9.3809878395
 20
22.6873802809
 30
0.0
 10
9.4052022778
 20
22.6320369885
 30
0.0
 10
9.4327347598
 20
22.5879788355
 30
0.0
 10
9.4589607308
 20
22.5538738756
 30
0.0
 10
9.4888629475
 20
22.5196355093
 30
0.0
 10
9.5317588273
 20
22.4785859563
 30
0.0
 10
9.5904340859
 20
22.4331552745
 30
0.0
 10
9.6564901596
 20
22.3913023927
 30
0.0
 10
9.7292760648
 20
22.3533782164
 30
0.0
 10
9.836301357
 20
22.3077610086
 30
0.0
 10
9.9825649837
 20
22.2632984369
 30
0.0
 10
10.1691524663
 20
22.2310619665
 30
0.0
 10
10.3630040844
 20
22.2201764446
 30
0.0
 10
10.525463334
 20
22.2292907693
 30
0.0
 10
10.6528550127
 20
22.2476546035
 30
0.0
 10
10.7451444445
 20
22.2666451834
 30
0.0
 10
10.8337814473
 20
22.2907621441
 30
0.0
 10
10.9179399955
 20
22.319768492
 30
0.0
 10
10.9967721111
 20
22.3534002292
 30
0.0
 10
11.0464517204
 20
22.3792640524
 30
0.0
 10
11.0701284185
 20
22.3929336654
 30
0.0
  0
SPLINE
  5
28D
100
AcDbEntity
  8
0
100
AcDbSpline
 62
7
  6
BYLAYER
 70
0
 71
3
 72
18
 73
14
 74
0
 42
0.0000001
 43
0.0000001
 44
0.0000000001
 40
0.0
 40
0.0
 40
0.0
 40
0.0
 40
0.0552110102
 40
0.1106189638
 40
0.1664374309
 40
0.2228706903
 40
0.2801069083
 40
0.3383159559
 40
0.4582129814
 40
0.5837192848
 40
0.7155884618
 40
0.8543056639
 40
1.0
 40
1.0
 40
1.0
 40
1.0
 10
3.9194759814
 20
16.7753865815
 30
0.0
 10
3.9194759814
 20
16.7132630423
 30
0.0
 10
3.9246572477
 20
16.5887334848
 30
0.0
 10
3.9478684553
 20
16.4027004261
 30
0.0
 10
3.9864338475
 20
16.2178202441
 30
0.0
 10
4.0402025629
 20
16.0346463148
 30
0.0
 10
4.1089073975
 20
15.8536581
 30
0.0
 10
4.221188518
 20
15.613603753
 30
0.0
 10
4.399192461
 20
15.3206320643
 30
0.0
 10
4.6654518752
 20
14.9886864304
 30
0.0
 10
4.9834870272
 20
14.6751454861
 30
0.0
 10
5.3500774391
 20
14.3824079125
 30
0.0
 10
5.6181446938
 20
14.2067113341
 30
0.0
 10
5.7588486842
 20
14.1225849142
 30
0.0
  0
SPLINE
  5
28E
100
AcDbEntity
  8
0
100
AcDbSpline
 62
7
  6
BYLAYER
 70
0
 71
3
 72
11
 73
7
 74
0
 42
0.0000001
 43
0.0000001
 44
0.0000000001
 40
0.0
 40
0.0
 40
0.0
 40
0.0
 40
0.2546499548
 40
0.5053477705
 40
0.7533490649
 40
1.0
 40
1.0
 40
1.0
 40
1.0
 10
4.0989849056
 20
17.6669516804
 30
0.0
 10
4.0695941072
 20
17.5950701527
 30
0.0
 10
4.0176614868
 20
17.4496968725
 30
0.0
 10
3.9611475417
 20
17.2266571383
 30
0.0
 10
3.9270721823
 20
17.0015620101
 30
0.0
 10
3.9194759814
 20
16.8506052524
 30
0.0
 10
3.9194759814
 20
16.7753865815
 30
0.0
  0
SPLINE
  5
28F
100
AcDbEntity
  8
0
100
AcDbSpline
 62
7
  6
BYLAYER
 70
0
 71
3
 72
18
 73
14
 74
0
 42
0.0000001
 43
0.0000001
 44
0.0000000001
 40
0.0
 40
0.0
 40
0.0
 40
0.0
 40
0.1466865924
 40
0.2860783136
 40
0.4183330919
 40
0.4819536838
 40
0.5439970841
 40
0.6637197181
 40
0.7786285732
 40
0.8347437146
 40
0.8902008825
 40
0.9452128225
 40
1.0
 40
1.0
 40
1.0
 40
1.0
 10
7.699329373
 20
16.1014790735
 30
0.0
 10
7.6292963143
 20
16.1469402364
 30
0.0
 10
7.4962136682
 20
16.2412009738
 30
0.0
 10
7.315120396
 20
16.3963421328
 30
0.0
 10
7.1833139683
 20
16.534916694
 30
0.0
 10
7.0916331601
 20
16.6496790922
 30
0.0
 10
7.0110816278
 20
16.7638713801
 30
0.0
 10
6.9267162854
 20
16.910738668
 30
0.0
 10
6.8645969417
 20
17.0647971931
 30
0.0
 10
6.8299958538
 20
17.1890900105
 30
0.0
 10
6.8115643649
 20
17.2822015067
 30
0.0
 10
6.8004932326
 20
17.3757028639
 30
0.0
 10
6.798024826
 20
17.4382285573
 30
0.0
 10
6.7980228268
 20
17.4694136362
 30
0.0
  0
SPLINE
  5
290
100
AcDbEntity
  8
0
100
AcDbSpline
 62
7
  6
BYLAYER
 70
0
 71
3
 72
18
 73
14
 74
0
 42
0.0000001
 43
0.0000001
 44
0.0000000001
 40
0.0
 40
0.0
 40
0.0
 40
0.0
 40
0.0558919073
 40
0.1119699179
 40
0.1684173925
 40
0.2254117537
 40
0.2831206519
 40
0.3417018108
 40
0.4619933253
 40
0.5873391762
 40
0.718485982
 40
0.8559351089
 40
1.0
 40
1.0
 40
1.0
 40
1.0
 10
18.3630123264
 20
14.5953251321
 30
0.0
 10
18.3630102496
 20
14.5323433791
 30
0.0
 10
18.3585298367
 20
14.4061250579
 30
0.0
 10
18.3384135496
 20
14.2172634343
 30
0.0
 10
18.304911339
 20
14.0290420622
 30
0.0
 10
18.258087674
 20
13.8417994559
 30
0.0
 10
18.1980458779
 20
13.6558385027
 30
0.0
 10
18.0996548404
 20
13.4078950634
 30
0.0
 10
17.9428051956
 20
13.1020089417
 30
0.0
 10
17.7056246027
 20
12.7488149457
 30
0.0
 10
17.4195114732
 20
12.4083694982
 30
0.0
 10
17.0865008248
 20
12.0828896434
 30
0.0
 10
16.8404697686
 20
11.8819316789
 30
0.0
 10
16.7107629502
 20
11.7843088025
 30
0.0
  0
SPLINE
  5
291
100
AcDbEntity
  8
0
100
AcDbSpline
 62
7
  6
BYLAYER
 70
0
 71
3
 72
9
 73
5
 74
0
 42
0.0000001
 43
0.0000001
 44
0.0000000001
 40
0.0
 40
0.0
 40
0.0
 40
0.0
 40
0.491448863
 40
1.0
 40
1.0
 40
1.0
 40
1.0
 10
16.7107629502
 20
11.7843088025
 30
0.0
 10
16.6024451351
 20
11.702784201
 30
0.0
 10
16.3764907855
 20
11.5441769456
 30
0.0
 10
16.1413887594
 20
11.3995422647
 30
0.0
 10
16.0198964945
 20
11.3293990916
 30
0.0
  0
SPLINE
  5
292
100
AcDbEntity
  8
0
100
AcDbSpline
 62
7
  6
BYLAYER
 70
0
 71
3
 72
20
 73
16
 74
0
 42
0.0000001
 43
0.0000001
 44
0.0000000001
 40
0.0
 40
0.0
 40
0.0
 40
0.0
 40
0.054428294
 40
0.1090950619
 40
0.1642329612
 40
0.2200652018
 40
0.2768013434
 40
0.3346316851
 40
0.3937284116
 40
0.4542419709
 40
0.5799464994
 40
0.6453859026
 40
0.7126192777
 40
0.8525813419
 40
1.0
 40
1.0
 40
1.0
 40
1.0
 10
18.363014666
 20
15.4118275449
 30
0.0
 10
18.363017136
 20
15.4840689992
 30
0.0
 10
18.3571236144
 20
15.6289373796
 30
0.0
 10
18.330615201
 20
15.8455282351
 30
0.0
 10
18.2865365076
 20
16.0611475525
 30
0.0
 10
18.2249724724
 20
16.2752871044
 30
0.0
 10
18.1460619356
 20
16.4874661412
 30
0.0
 10
18.0500290828
 20
16.6972237314
 30
0.0
 10
17.9370651309
 20
16.904097556
 30
0.0
 10
17.7620513115
 20
17.1788948279
 30
0.0
 10
17.5555295096
 20
17.4426737184
 30
0.0
 10
17.3217875811
 20
17.6937740061
 30
0.0
 10
17.0610400242
 20
17.9449296203
 30
0.0
 10
16.6968400746
 20
18.2443428489
 30
0.0
 10
16.3805724032
 20
18.4585620041
 30
0.0
 10
16.2142149133
 20
18.5615676614
 30
0.0
  0
SPLINE
  5
293
100
AcDbEntity
  8
0
100
AcDbSpline
 62
7
  6
BYLAYER
 70
0
 71
3
 72
20
 73
16
 74
0
 42
0.0000001
 43
0.0000001
 44
0.0000000001
 40
0.0
 40
0.0
 40
0.0
 40
0.0
 40
0.1485261508
 40
0.2893927167
 40
0.422554049
 40
0.4863911268
 40
0.5484834973
 40
0.6089324747
 40
0.6678661645
 40
0.7254420782
 40
0.7818397098
 40
0.8372625338
 40
0.8919350311
 40
0.9460966744
 40
1.0
 40
1.0
 40
1.0
 40
1.0
 10
5.872909327
 20
8.2470636319
 30
0.0
 10
5.7296921652
 20
8.3297482282
 30
0.0
 10
5.4571133967
 20
8.502519195
 30
0.0
 10
5.0844963444
 20
8.7909172568
 30
0.0
 10
4.8121083885
 20
9.0516431805
 30
0.0
 10
4.6222552231
 20
9.2690471967
 30
0.0
 10
4.495642534
 20
9.4336465027
 30
0.0
 10
4.383148766
 20
9.6016773784
 30
0.0
 10
4.2850731415
 20
9.7727538834
 30
0.0
 10
4.2016337109
 20
9.946447732
 30
0.0
 10
4.1330603172
 20
10.1223538311
 30
0.0
 10
4.0795454914
 20
10.3000458681
 30
0.0
 10
4.0411988969
 20
10.4790832233
 30
0.0
 10
4.0181516997
 20
10.659012811
 30
0.0
 10
4.0130285797
 20
10.7793969639
 30
0.0
 10
4.0130285796
 20
10.839414009
 30
0.0
  0
SPLINE
  5
294
100
AcDbEntity
  8
0
100
AcDbSpline
 62
7
  6
BYLAYER
 70
0
 71
3
 72
23
 73
19
 74
0
 42
0.0000001
 43
0.0000001
 44
0.0000000001
 40
0.0
 40
0.0
 40
0.0
 40
0.0
 40
0.0558312491
 40
0.1141821765
 40
0.1747823243
 40
0.2373525517
 40
0.3015484272
 40
0.3669918705
 40
0.4332820696
 40
0.4999994837
 40
0.5667169158
 40
0.6330071687
 40
0.6984507004
 40
0.7626466972
 40
0.8252170765
 40
0.885817403
 40
0.9441685313
 40
1.0
 40
1.0
 40
1.0
 40
1.0
 10
14.853165448
 20
8.2470852178
 30
0.0
 10
14.7027482619
 20
8.1602423333
 30
0.0
 10
14.3872947104
 20
7.995942574
 30
0.0
 10
13.8867134727
 20
7.7824771846
 30
0.0
 10
13.3524129444
 20
7.598309393
 30
0.0
 10
12.7895901982
 20
7.4451858225
 30
0.0
 10
12.2035574599
 20
7.3245435988
 30
0.0
 10
11.5999234493
 20
7.237534291
 30
0.0
 10
10.9844575921
 20
7.1849964338
 30
0.0
 10
10.3630450532
 20
7.1674306203
 30
0.0
 10
9.741632263
 20
7.1849934586
 30
0.0
 10
9.126165655
 20
7.2375283719
 30
0.0
 10
8.522530401
 20
7.324534789
 30
0.0
 10
7.9364959379
 20
7.4451742042
 30
0.0
 10
7.3736710041
 20
7.598295079
 30
0.0
 10
6.8393678471
 20
7.7824603056
 30
0.0
 10
6.3387835607
 20
7.9959232862
 30
0.0
 10
6.0233277309
 20
8.1602214906
 30
0.0
 10
5.872909327
 20
8.2470636319
 30
0.0
  0
SPLINE
  5
295
100
AcDbEntity
  8
0
100
AcDbSpline
 62
7
  6
BYLAYER
 70
0
 71
3
 72
20
 73
16
 74
0
 42
0.0000001
 43
0.0000001
 44
0.0000000001
 40
0.0
 40
0.0
 40
0.0
 40
0.0
 40
0.0539037871
 40
0.108066281
 40
0.1627389976
 40
0.2181620594
 40
0.2745603356
 40
0.3321362628
 40
0.3910708653
 40
0.4515212019
 40
0.5773886318
 40
0.6430517702
 40
0.7106035517
 40
0.8514783029
 40
1.0
 40
1.0
 40
1.0
 40
1.0
 10
16.7130118149
 20
10.8394140046
 30
0.0
 10
16.7130145917
 20
10.7793977863
 30
0.0
 10
16.707888725
 20
10.6590144848
 30
0.0
 10
16.6848302465
 20
10.479089244
 30
0.0
 10
16.6464992225
 20
10.3000514608
 30
0.0
 10
16.5929832742
 20
10.1223622615
 30
0.0
 10
16.5244035809
 20
9.9464620636
 30
0.0
 10
16.4409768888
 20
9.7727667569
 30
0.0
 10
16.3428956613
 20
9.6016881967
 30
0.0
 10
16.1908832032
 20
9.3746400236
 30
0.0
 10
16.0118114115
 20
9.1575388928
 30
0.0
 10
15.8095392732
 20
8.9517384289
 30
0.0
 10
15.5837653436
 20
8.7461981994
 30
0.0
 10
15.2689237996
 20
8.5025249337
 30
0.0
 10
14.9963745205
 20
8.3297665208
 30
0.0
 10
14.853165448
 20
8.2470852178
 30
0.0
  0
SPLINE
  5
296
100
AcDbEntity
  8
0
100
AcDbSpline
 62
7
  6
BYLAYER
 70
0
 71
3
 72
13
 73
9
 74
0
 42
0.0000001
 43
0.0000001
 44
0.0000000001
 40
0.0
 40
0.0
 40
0.0
 40
0.0
 40
0.2847993432
 40
0.4219312013
 40
0.5531995486
 40
0.6773736501
 40
0.7935909772
 40
1.0
 40
1.0
 40
1.0
 40
1.0
 10
3.7417796441
 20
11.1125188771
 30
0.0
 10
3.7233809159
 20
11.112982615
 30
0.0
 10
3.6960956722
 20
11.115826447
 30
0.0
 10
3.6612841202
 20
11.1241185234
 30
0.0
 10
3.6372174474
 20
11.1322631331
 30
0.0
 10
3.6153199552
 20
11.1422758076
 30
0.0
 10
3.5906015126
 20
11.1572202426
 30
0.0
 10
3.5747986771
 20
11.1715026432
 30
0.0
 10
3.5668216896
 20
11.1821933001
 30
0.0
  0
SPLINE
  5
297
100
AcDbEntity
  8
0
100
AcDbSpline
 62
7
  6
BYLAYER
 70
0
 71
3
 72
9
 73
5
 74
0
 42
0.0000001
 43
0.0000001
 44
0.0000000001
 40
0.0
 40
0.0
 40
0.0
 40
0.0
 40
0.4882514347
 40
1.0
 40
1.0
 40
1.0
 40
1.0
 10
4.391325364
 20
11.0821736756
 30
0.0
 10
4.3765814462
 20
11.0872818217
 30
0.0
 10
4.3454145847
 20
11.095034573
 30
0.0
 10
4.3134841859
 20
11.0981091279
 30
0.0
 10
4.297134722
 20
11.0985212143
 30
0.0
  0
SPLINE
  5
298
100
AcDbEntity
  8
0
100
AcDbSpline
 62
7
  6
BYLAYER
 70
0
 71
3
 72
39
 73
35
 74
0
 42
0.0000001
 43
0.0000001
 44
0.0000000001
 40
0.0
 40
0.0
 40
0.0
 40
0.0
 40
0.0238919264
 40
0.0478717779
 40
0.0721128631
 40
0.0967313149
 40
0.1218340189
 40
0.1475417531
 40
0.1739545275
 40
0.2011568155
 40
0.2292084403
 40
0.2581496536
 40
0.2879970049
 40
0.3187444293
 40
0.3503666413
 40
0.3828178473
 40
0.4160378441
 40
0.4499499071
 40
0.4844670832
 40
0.5194903096
 40
0.5549138842
 40
0.5906244321
 40
0.6265051806
 40
0.6624361557
 40
0.6982969239
 40
0.7339679404
 40
0.7693323637
 40
0.8042794457
 40
0.8387033609
 40
0.8725057145
 40
0.9055992535
 40
0.9379212102
 40
0.9694133457
 40
1.0
 40
1.0
 40
1.0
 40
1.0
 10
16.7130186933
 20
8.2266062742
 30
0.0
 10
16.7130186933
 20
8.1252850836
 30
0.0
 10
16.7003685526
 20
7.922048055
 30
0.0
 10
16.6438824188
 20
7.6207610196
 30
0.0
 10
16.5508782942
 20
7.3254469467
 30
0.0
 10
16.4230023199
 20
7.0383336384
 30
0.0
 10
16.2617865177
 20
6.7613764397
 30
0.0
 10
16.0691879187
 20
6.4958789478
 30
0.0
 10
15.8468939464
 20
6.2428021781
 30
0.0
 10
15.5965694773
 20
6.0028936183
 30
0.0
 10
15.31977049
 20
5.7768025838
 30
0.0
 10
15.0180432864
 20
5.5651211331
 30
0.0
 10
14.6929372925
 20
5.3684322903
 30
0.0
 10
14.3460543685
 20
5.1873240565
 30
0.0
 10
13.9790744395
 20
5.0224031265
 30
0.0
 10
13.5937801509
 20
4.8742365653
 30
0.0
 10
13.1920481383
 20
4.743412861
 30
0.0
 10
12.7758665595
 20
4.6304273352
 30
0.0
 10
12.347308609
 20
4.5357894779
 30
0.0
 10
11.9085423928
 20
4.4598732586
 30
0.0
 10
11.4618000671
 20
4.4030583277
 30
0.0
 10
11.0093779859
 20
4.365561351
 30
0.0
 10
10.5536089371
 20
4.3475988696
 30
0.0
 10
10.0968524806
 20
4.3492106299
 30
0.0
 10
9.6414760412
 20
4.3704340784
 30
0.0
 10
9.1898346685
 20
4.4111236997
 30
0.0
 10
8.744258045
 20
4.4711370484
 30
0.0
 10
8.3070245907
 20
4.5501611637
 30
0.0
 10
7.8803734341
 20
4.6478885878
 30
0.0
 10
7.4664559946
 20
4.7638360631
 30
0.0
 10
7.0673150572
 20
4.8975675128
 30
0.0
 10
6.6848715895
 20
5.0485637704
 30
0.0
 10
6.321111796
 20
5.2162342653
 30
0.0
 10
6.0888002514
 20
5.3405077841
 30
0.0
 10
5.9764654874
 20
5.4053628232
 30
0.0
  0
SPLINE
  5
299
100
AcDbEntity
  8
0
100
AcDbSpline
 62
7
  6
BYLAYER
 70
0
 71
3
 72
11
 73
7
 74
0
 42
0.0000001
 43
0.0000001
 44
0.0000000001
 40
0.0
 40
0.0
 40
0.0
 40
0.0
 40
0.2806286261
 40
0.537271114
 40
0.7741449664
 40
1.0
 40
1.0
 40
1.0
 40
1.0
 10
4.4294531726
 20
10.3195824431
 30
0.0
 10
4.4233703435
 20
10.3242949284
 30
0.0
 10
4.4123896788
 20
10.3342449644
 30
0.0
 10
4.3995736608
 20
10.3513626097
 30
0.0
 10
4.3916382702
 20
10.369638206
 30
0.0
 10
4.3898213689
 20
10.3823875142
 30
0.0
 10
4.389822064
 20
10.3885803448
 30
0.0
  0
SPLINE
  5
29A
100
AcDbEntity
  8
0
100
AcDbSpline
 62
7
  6
BYLAYER
 70
0
 71
3
 72
13
 73
9
 74
0
 42
0.0000001
 43
0.0000001
 44
0.0000000001
 40
0.0
 40
0.0
 40
0.0
 40
0.0
 40
0.2669540862
 40
0.5308257698
 40
0.6574843028
 40
0.7786815475
 40
0.8932165939
 40
1.0
 40
1.0
 40
1.0
 40
1.0
 10
4.7563843799
 20
10.1830963409
 30
0.0
 10
4.7379597526
 20
10.1807380593
 30
0.0
 10
4.7008780375
 20
10.1791044778
 30
0.0
 10
4.6552111186
 20
10.1843586037
 30
0.0
 10
4.6206302813
 20
10.1930204304
 30
0.0
 10
4.5968091333
 20
10.2014196949
 30
0.0
 10
4.5752417553
 20
10.2116630057
 30
0.0
 10
4.5621520037
 20
10.2198688713
 30
0.0
 10
4.5561533373
 20
10.2242532041
 30
0.0
  0
SPLINE
  5
29B
100
AcDbEntity
  8
0
100
AcDbSpline
 62
7
  6
BYLAYER
 70
0
 71
3
 72
12
 73
8
 74
0
 42
0.0000001
 43
0.0000001
 44
0.0000000001
 40
0.0
 40
0.0
 40
0.0
 40
0.0
 40
0.1097228358
 40
0.2262940265
 40
0.474923971
 40
0.736685479
 40
1.0
 40
1.0
 40
1.0
 40
1.0
 10
5.487903973
 20
10.2190385685
 30
0.0
 10
5.481821906
 20
10.2227632285
 30
0.0
 10
5.4688089556
 20
10.2296949615
 30
0.0
 10
5.4402166549
 20
10.2414328295
 30
0.0
 10
5.4005325914
 20
10.2516289566
 30
0.0
 10
5.3503067444
 20
10.2564439605
 30
0.0
 10
5.3160681096
 20
10.254733712
 30
0.0
 10
5.2990912627
 20
10.2525607407
 30
0.0
  0
SPLINE
  5
29C
100
AcDbEntity
  8
0
100
AcDbSpline
 62
7
  6
BYLAYER
 70
0
 71
3
 72
13
 73
9
 74
0
 42
0.0000001
 43
0.0000001
 44
0.0000000001
 40
0.0
 40
0.0
 40
0.0
 40
0.0
 40
0.2953770843
 40
0.5568481226
 40
0.6756615288
 40
0.7878241889
 40
0.8951678184
 40
1.0
 40
1.0
 40
1.0
 40
1.0
 10
5.7760947618
 20
9.5199356281
 30
0.0
 10
5.7649285389
 20
9.5250279559
 30
0.0
 10
5.7445960798
 20
9.536374011
 30
0.0
 10
5.7233235509
 20
9.5551824278
 30
0.0
 10
5.7112236922
 20
9.5717743292
 30
0.0
 10
5.7048355186
 20
9.5843726618
 30
0.0
 10
5.7009396536
 20
9.5973502135
 30
0.0
 10
5.7000678369
 20
9.6061899304
 30
0.0
 10
5.700070443
 20
9.6105455886
 30
0.0
  0
SPLINE
  5
29D
100
AcDbEntity
  8
0
100
AcDbSpline
 62
7
  6
BYLAYER
 70
0
 71
3
 72
12
 73
8
 74
0
 42
0.0000001
 43
0.0000001
 44
0.0000000001
 40
0.0
 40
0.0
 40
0.0
 40
0.0
 40
0.2488943363
 40
0.5072364369
 40
0.7617374866
 40
0.883745123
 40
1.0
 40
1.0
 40
1.0
 40
1.0
 10
6.1530719788
 20
9.4369525622
 30
0.0
 10
6.1359200488
 20
9.4317975791
 30
0.0
 10
6.0999005789
 20
9.4246455056
 30
0.0
 10
6.0449164149
 20
9.4227984027
 30
0.0
 10
5.9993522777
 20
9.428521039
 30
0.0
 10
5.9650260458
 20
9.4375625294
 30
0.0
 10
5.9488976413
 20
9.4434809392
 30
0.0
 10
5.9412132627
 20
9.4467870935
 30
0.0
  0
SPLINE
  5
29E
100
AcDbEntity
  8
0
100
AcDbSpline
 62
7
  6
BYLAYER
 70
0
 71
3
 72
11
 73
7
 74
0
 42
0.0000001
 43
0.0000001
 44
0.0000000001
 40
0.0
 40
0.0
 40
0.0
 40
0.0
 40
0.2420462889
 40
0.4968939854
 40
0.7533549936
 40
1.0
 40
1.0
 40
1.0
 40
1.0
 10
6.8435533083
 20
9.5809788225
 30
0.0
 10
6.8283268193
 20
9.5864056183
 30
0.0
 10
6.7959822852
 20
9.5946097234
 30
0.0
 10
6.7457211495
 20
9.5993828526
 30
0.0
 10
6.6949990496
 20
9.5966942821
 30
0.0
 10
6.6619208038
 20
9.589886204
 30
0.0
 10
6.6461460893
 20
9.5851451406
 30
0.0
  0
SPLINE
  5
29F
100
AcDbEntity
  8
0
100
AcDbSpline
 62
7
  6
BYLAYER
 70
0
 71
3
 72
14
 73
10
 74
0
 42
0.0000001
 43
0.0000001
 44
0.0000000001
 40
0.0
 40
0.0
 40
0.0
 40
0.0
 40
0.0997690738
 40
0.2040301846
 40
0.3149086217
 40
0.4339891583
 40
0.699471152
 40
0.8460447817
 40
1.0
 40
1.0
 40
1.0
 40
1.0
 10
7.2903951798
 20
9.3704005786
 30
0.0
 10
7.2900170693
 20
9.3753999713
 30
0.0
 10
7.2880543414
 20
9.3855633504
 30
0.0
 10
7.2818272422
 20
9.4002197587
 30
0.0
 10
7.2724108962
 20
9.414238628
 30
0.0
 10
7.2552200779
 20
9.4323740831
 30
0.0
 10
7.2328165141
 20
9.447487756
 30
0.0
 10
7.2070679049
 20
9.4596034867
 30
0.0
 10
7.1928268592
 20
9.4647218756
 30
0.0
 10
7.1854392487
 20
9.4670195559
 30
0.0
  0
SPLINE
  5
2A0
100
AcDbEntity
  8
0
100
AcDbSpline
 62
7
  6
BYLAYER
 70
0
 71
3
 72
15
 73
11
 74
0
 42
0.0000001
 43
0.0000001
 44
0.0000000001
 40
0.0
 40
0.0
 40
0.0
 40
0.0
 40
0.1550791164
 40
0.302842797
 40
0.4415314994
 40
0.5704241586
 40
0.6894837382
 40
0.7995091919
 40
0.9021859246
 40
1.0
 40
1.0
 40
1.0
 40
1.0
 10
7.4353276366
 20
8.9487608773
 30
0.0
 10
7.4269430921
 20
8.9508461858
 30
0.0
 10
7.4107392087
 20
8.9556498294
 30
0.0
 10
7.3879033306
 20
8.9649080337
 30
0.0
 10
7.3674992437
 20
8.9759354708
 30
0.0
 10
7.3499217459
 20
8.9885004916
 30
0.0
 10
7.3355073195
 20
9.0024031301
 30
0.0
 10
7.3245307939
 20
9.0174117068
 30
0.0
 10
7.3172973959
 20
9.0332671844
 30
0.0
 10
7.3150557963
 20
9.0443368486
 30
0.0
 10
7.3146448139
 20
9.0497708752
 30
0.0
  0
SPLINE
  5
2A1
100
AcDbEntity
  8
0
100
AcDbSpline
 62
7
  6
BYLAYER
 70
0
 71
3
 72
12
 73
8
 74
0
 42
0.0000001
 43
0.0000001
 44
0.0000000001
 40
0.0
 40
0.0
 40
0.0
 40
0.0
 40
0.1124694928
 40
0.2315627631
 40
0.4834979746
 40
0.7441180038
 40
1.0
 40
1.0
 40
1.0
 40
1.0
 10
7.836660489
 20
8.9249360065
 30
0.0
 10
7.8295650092
 20
8.9211822074
 30
0.0
 10
7.8144826919
 20
8.9143269303
 30
0.0
 10
7.781742011
 20
8.9032848965
 30
0.0
 10
7.7371744614
 20
8.8949597878
 30
0.0
 10
7.6821420142
 20
8.8936683921
 30
0.0
 10
7.6454114564
 20
8.8986897598
 30
0.0
 10
7.6276119208
 20
8.9027779988
 30
0.0
  0
SPLINE
  5
2A2
100
AcDbEntity
  8
0
100
AcDbSpline
 62
7
  6
BYLAYER
 70
0
 71
3
 72
12
 73
8
 74
0
 42
0.0000001
 43
0.0000001
 44
0.0000000001
 40
0.0
 40
0.0
 40
0.0
 40
0.0
 40
0.2586549505
 40
0.5190031794
 40
0.7693812348
 40
0.8878538473
 40
1.0
 40
1.0
 40
1.0
 40
1.0
 10
8.4387221809
 20
9.1672772657
 30
0.0
 10
8.4219855191
 20
9.1701719333
 30
0.0
 10
8.387887948
 20
9.1732722277
 30
0.0
 10
8.3372791313
 20
9.1705098668
 30
0.0
 10
8.2966358952
 20
9.1620034439
 30
0.0
 10
8.2667969026
 20
9.1515412982
 30
0.0
 10
8.253009137
 20
9.1452014737
 30
0.0
 10
8.2464996414
 20
9.1417576842
 30
0.0
  0
SPLINE
  5
2A3
100
AcDbEntity
  8
0
100
AcDbSpline
 62
7
  6
BYLAYER
 70
0
 71
3
 72
23
 73
19
 74
0
 42
0.0000001
 43
0.0000001
 44
0.0000000001
 40
0.0
 40
0.0
 40
0.0
 40
0.0
 40
0.05455594
 40
0.1108683888
 40
0.1688068447
 40
0.228255477
 40
0.2890897798
 40
0.3511580304
 40
0.4142956667
 40
0.4783281823
 40
0.5430743158
 40
0.6083451341
 40
0.6739469632
 40
0.7396796179
 40
0.8053440847
 40
0.8707539323
 40
0.9357166247
 40
1.0
 40
1.0
 40
1.0
 40
1.0
 10
15.1006538518
 20
10.1372919723
 30
0.0
 10
14.9926556203
 20
10.0749395365
 30
0.0
 10
14.7693835705
 20
9.9547092802
 30
0.0
 10
14.4200494265
 20
9.7904344637
 30
0.0
 10
14.0523818587
 20
9.6400995559
 30
0.0
 10
13.6681147486
 20
9.5043661244
 30
0.0
 10
13.2689432004
 20
9.3838562843
 30
0.0
 10
12.8566619125
 20
9.2790679427
 30
0.0
 10
12.4331249527
 20
9.1905219557
 30
0.0
 10
12.0002536574
 20
9.1185752701
 30
0.0
 10
11.559992272
 20
9.0635895859
 30
0.0
 10
11.1143275248
 20
9.0257748454
 30
0.0
 10
10.6652726781
 20
9.0053436091
 30
0.0
 10
10.2148640988
 20
9.0023422757
 30
0.0
 10
9.7651175357
 20
9.016822757
 30
0.0
 10
9.3180290562
 20
9.0486973237
 30
0.0
 10
8.8756911899
 20
9.0978516866
 30
0.0
 10
8.5835100995
 20
9.1422170014
 30
0.0
 10
8.4387221809
 20
9.1672772657
 30
0.0
  0
SPLINE
  5
2A4
100
AcDbEntity
  8
0
100
AcDbSpline
 62
7
  6
BYLAYER
 70
0
 71
3
 72
18
 73
14
 74
0
 42
0.0000001
 43
0.0000001
 44
0.0000000001
 40
0.0
 40
0.0
 40
0.0
 40
0.0
 40
0.1410828997
 40
0.2764546352
 40
0.4063107931
 40
0.5312625865
 40
0.6520838355
 40
0.7112819204
 40
0.7698303181
 40
0.8278351277
 40
0.885413909
 40
0.9427333596
 40
1.0
 40
1.0
 40
1.0
 40
1.0
 10
5.9394281459
 20
5.4269227975
 30
0.0
 10
5.7951481487
 20
5.5116050599
 30
0.0
 10
5.5192316057
 20
5.6895833338
 30
0.0
 10
5.1403104071
 20
5.9884084513
 30
0.0
 10
4.8086322734
 20
6.3123879079
 30
0.0
 10
4.5281053067
 20
6.6597898923
 30
0.0
 10
4.3390371512
 20
6.9695534311
 30
0.0
 10
4.2186860696
 20
7.2258165816
 30
0.0
 10
4.144454523
 20
7.4207774668
 30
0.0
 10
4.0860818307
 20
7.6190597365
 30
0.0
 10
4.044042088
 20
7.8199645313
 30
0.0
 10
4.0186824737
 20
8.0227569414
 30
0.0
 10
4.0130186933
 20
8.1586997137
 30
0.0
 10
4.0130186933
 20
8.2266062742
 30
0.0
  0
SPLINE
  5
2A5
100
AcDbEntity
  8
0
100
AcDbSpline
 62
7
  6
BYLAYER
 70
0
 71
3
 72
18
 73
14
 74
0
 42
0.0000001
 43
0.0000001
 44
0.0000000001
 40
0.0
 40
0.0
 40
0.0
 40
0.0
 40
0.0551571019
 40
0.1105263024
 40
0.1663153218
 40
0.2227233149
 40
0.3380709082
 40
0.457976323
 40
0.5200082459
 40
0.5835520969
 40
0.715447
 40
0.8541944254
 40
1.0
 40
1.0
 40
1.0
 40
1.0
 10
13.9280145599
 20
17.469413636
 30
0.0
 10
13.9280164924
 20
17.4392691933
 30
0.0
 10
13.92571801
 20
17.3788388421
 30
0.0
 10
13.9153617522
 20
17.288453898
 30
0.0
 10
13.8981331528
 20
17.1984213408
 30
0.0
 10
13.8658334727
 20
17.0782327904
 30
0.0
 10
13.8077979067
 20
16.929172067
 30
0.0
 10
13.7288851002
 20
16.7866213914
 30
0.0
 10
13.6534481927
 20
16.6756002544
 30
0.0
 10
13.5676271033
 20
16.5639978079
 30
0.0
 10
13.4441961813
 20
16.4288605448
 30
0.0
 10
13.2743066086
 20
16.2769248194
 30
0.0
 10
13.1492658997
 20
16.1840746699
 30
0.0
 10
13.0834229891
 20
16.1391913883
 30
0.0
  0
SPLINE
  5
2A6
100
AcDbEntity
  8
0
100
AcDbSpline
 62
7
  6
BYLAYER
 70
0
 71
3
 72
23
 73
19
 74
0
 42
0.0000001
 43
0.0000001
 44
0.0000000001
 40
0.0
 40
0.0
 40
0.0
 40
0.0
 40
0.0558369666
 40
0.1141773809
 40
0.174780132
 40
0.237349734
 40
0.3015447766
 40
0.3669881426
 40
0.4332784728
 40
0.4999962198
 40
0.5667142365
 40
0.6330034426
 40
0.6984472907
 40
0.7626440407
 40
0.8252119562
 40
0.8858153466
 40
0.9441747605
 40
1.0
 40
1.0
 40
1.0
 40
1.0
 10
13.0253250468
 20
16.095718725
 30
0.0
 10
12.936131485
 20
16.044221517
 30
0.0
 10
12.7491101143
 20
15.9467913897
 30
0.0
 10
12.4523025289
 20
15.820241866
 30
0.0
 10
12.1355250285
 20
15.7110404545
 30
0.0
 10
11.8018171171
 20
15.6202406615
 30
0.0
 10
11.4543493546
 20
15.5487154759
 30
0.0
 10
11.0964467322
 20
15.4971148904
 30
0.0
 10
10.7315245216
 20
15.4659682868
 30
0.0
 10
10.3630760747
 20
15.4555456594
 30
0.0
 10
9.9946288747
 20
15.4659563299
 30
0.0
 10
9.6297083074
 20
15.4971093424
 30
0.0
 10
9.2717996964
 20
15.5486835717
 30
0.0
 10
8.9243339235
 20
15.620224041
 30
0.0
 10
8.590619571
 20
15.7110012927
 30
0.0
 10
8.2738039352
 20
15.8201979945
 30
0.0
 10
7.9769961817
 20
15.9467824672
 30
0.0
 10
7.789948634
 20
16.0441903221
 30
0.0
 10
7.7007727462
 20
16.0956748802
 30
0.0
  0
SPLINE
  5
2A7
100
AcDbEntity
  8
0
100
AcDbSpline
 62
7
  6
BYLAYER
 70
0
 71
3
 72
15
 73
11
 74
0
 42
0.0000001
 43
0.0000001
 44
0.0000000001
 40
0.0
 40
0.0
 40
0.0
 40
0.0
 40
0.1110051687
 40
0.2252581107
 40
0.3432324967
 40
0.4653490411
 40
0.5919285311
 40
0.7231995788
 40
0.8592648048
 40
1.0
 40
1.0
 40
1.0
 40
1.0
 10
16.3424471073
 20
18.3630154234
 30
0.0
 10
16.3082960595
 20
18.4465391551
 30
0.0
 10
16.2296378893
 20
18.6123395663
 30
0.0
 10
16.0848667181
 20
18.8513494323
 30
0.0
 10
15.9126926394
 20
19.082783488
 30
0.0
 10
15.7142446365
 20
19.3056547662
 30
0.0
 10
15.4905657782
 20
19.5191142423
 30
0.0
 10
15.24276887
 20
19.7223699524
 30
0.0
 10
14.9721036148
 20
19.9145573001
 30
0.0
 10
14.7805055923
 20
20.0328627244
 30
0.0
 10
14.6814288544
 20
20.0900634117
 30
0.0
  0
SPLINE
  5
2A8
100
AcDbEntity
  8
0
100
AcDbSpline
 62
7
  6
BYLAYER
 70
0
 71
3
 72
11
 73
7
 74
0
 42
0.0000001
 43
0.0000001
 44
0.0000000001
 40
0.0
 40
0.0
 40
0.0
 40
0.0
 40
0.2466509274
 40
0.4946522177
 40
0.7453500364
 40
1.0
 40
1.0
 40
1.0
 40
1.0
 10
16.8065614053
 20
16.7753865815
 30
0.0
 10
16.8065614053
 20
16.8506052501
 30
0.0
 10
16.7989652065
 20
17.0015620043
 30
0.0
 10
16.7648898451
 20
17.2266571295
 30
0.0
 10
16.7083759025
 20
17.4496968666
 30
0.0
 10
16.6564432804
 20
17.5950701503
 30
0.0
 10
16.6270524811
 20
17.6669516804
 30
0.0
  0
SPLINE
  5
2A9
100
AcDbEntity
  8
0
100
AcDbSpline
 62
7
  6
BYLAYER
 70
0
 71
3
 72
39
 73
35
 74
0
 42
0.0000001
 43
0.0000001
 44
0.0000000001
 40
0.0
 40
0.0
 40
0.0
 40
0.0
 40
0.0307943969
 40
0.0625977711
 40
0.0953233074
 40
0.12889585
 40
0.1632347865
 40
0.1982396109
 40
0.2338008044
 40
0.2698025287
 40
0.3061247221
 40
0.342642294
 40
0.3792280474
 40
0.4157540303
 40
0.4520928317
 40
0.4881197146
 40
0.5237130053
 40
0.55875743
 40
0.5931435375
 40
0.6267721229
 40
0.6595529246
 40
0.6914100978
 40
0.7222804621
 40
0.752119779
 40
0.7809009687
 40
0.8086204367
 40
0.8352968711
 40
0.8609757529
 40
0.8857296392
 40
0.9096585652
 40
0.9328910792
 40
0.9555747109
 40
0.9778808508
 40
1.0
 40
1.0
 40
1.0
 40
1.0
 10
5.8940964233
 20
14.044092113
 30
0.0
 10
6.0086605658
 20
13.979552124
 30
0.0
 10
6.2457773582
 20
13.8557560303
 30
0.0
 10
6.6171316878
 20
13.6886126202
 30
0.0
 10
7.0081665086
 20
13.5378329515
 30
0.0
 10
7.4167528045
 20
13.4041369392
 30
0.0
 10
7.8408129539
 20
13.2881910147
 30
0.0
 10
8.2781451229
 20
13.1905161894
 30
0.0
 10
8.7264637049
 20
13.1116671194
 30
0.0
 10
9.1834022545
 20
13.0519902678
 30
0.0
 10
9.6465639044
 20
13.0118376994
 30
0.0
 10
10.1135055582
 20
12.9913631049
 30
0.0
 10
10.5817648473
 20
12.9907242676
 30
0.0
 10
11.0488696021
 20
13.0098726642
 30
0.0
 10
11.5123538801
 20
13.0487613684
 30
0.0
 10
11.969777784
 20
13.1071401373
 30
0.0
 10
12.4187293983
 20
13.1847632206
 30
0.0
 10
12.8568585596
 20
13.2811863041
 30
0.0
 10
13.2818638713
 20
13.3959762136
 30
0.0
 10
13.6915396725
 20
13.5285114241
 30
0.0
 10
14.0837455493
 20
13.6781918252
 30
0.0
 10
14.4564672067
 20
13.8442450681
 30
0.0
 10
14.8077650902
 20
14.025932483
 30
0.0
 10
15.1358481038
 20
14.2223660544
 30
0.0
 10
15.4389967594
 20
14.4327012698
 30
0.0
 10
15.7156467172
 20
14.6559699371
 30
0.0
 10
15.9642796626
 20
14.891243934
 30
0.0
 10
16.183525407
 20
15.1374755727
 30
0.0
 10
16.3720110972
 20
15.3936217819
 30
0.0
 10
16.5285159062
 20
15.6584799373
 30
0.0
 10
16.6517591585
 20
15.9307466654
 30
0.0
 10
16.7407669575
 20
16.208854282
 30
0.0
 10
16.7945210723
 20
16.4910293907
 30
0.0
 10
16.8065614053
 20
16.6809373032
 30
0.0
 10
16.8065614053
 20
16.7753865815
 30
0.0
  0
SPLINE
  5
2AA
100
AcDbEntity
  8
0
100
AcDbSpline
 62
7
  6
BYLAYER
 70
0
 71
3
 72
19
 73
15
 74
0
 42
0.0000001
 43
0.0000001
 44
0.0000000001
 40
0.0
 40
0.0
 40
0.0
 40
0.0
 40
0.1462630231
 40
0.2167031965
 40
0.2853585998
 40
0.4174310106
 40
0.5429931334
 40
0.6627948657
 40
0.7208942288
 40
0.7779814074
 40
0.8342364213
 40
0.889852459
 40
0.9450354377
 40
1.0
 40
1.0
 40
1.0
 40
1.0
 10
4.3229641256
 20
18.4403964861
 30
0.0
 10
4.1704120118
 20
18.3389840006
 30
0.0
 10
3.9502745038
 20
18.1794527741
 30
0.0
 10
3.6761066659
 20
17.9500181751
 30
0.0
 10
3.4263853618
 20
17.7196825033
 30
0.0
 10
3.1471034871
 20
17.4202048651
 30
0.0
 10
2.864904054
 20
17.0396609198
 30
0.0
 10
2.6776055504
 20
16.70757303
 30
0.0
 10
2.560047406
 20
16.4375399915
 30
0.0
 10
2.4883768874
 20
16.2349335809
 30
0.0
 10
2.4324568805
 20
16.0306499706
 30
0.0
 10
2.3924223542
 20
15.8250850047
 30
0.0
 10
2.368380883
 20
15.6186782956
 30
0.0
 10
2.3630250743
 20
15.4806670057
 30
0.0
 10
2.3630227206
 20
15.4118275449
 30
0.0
  0
SPLINE
  5
2AB
100
AcDbEntity
  8
0
100
AcDbSpline
 62
7
  6
BYLAYER
 70
0
 71
3
 72
23
 73
19
 74
0
 42
0.0000001
 43
0.0000001
 44
0.0000000001
 40
0.0
 40
0.0
 40
0.0
 40
0.0
 40
0.0558314696
 40
0.1141826001
 40
0.1747829279
 40
0.2373533082
 40
0.301549306
 40
0.3669928384
 40
0.4332830917
 40
0.5000005239
 40
0.5667179379
 40
0.6330081366
 40
0.6984515791
 40
0.7626474537
 40
0.8252176801
 40
0.8858178266
 40
0.9441687519
 40
1.0
 40
1.0
 40
1.0
 40
1.0
 10
5.872909327
 20
9.1860414116
 30
0.0
 10
6.0233277334
 20
9.0991992688
 30
0.0
 10
6.3387835726
 20
8.9349010616
 30
0.0
 10
6.8393678714
 20
8.7214380753
 30
0.0
 10
7.3736710423
 20
8.5372728463
 30
0.0
 10
7.9364959872
 20
8.3841519738
 30
0.0
 10
8.5225304587
 20
8.2635125586
 30
0.0
 10
9.1261657196
 20
8.1765061435
 30
0.0
 10
9.741632332
 20
8.1239712357
 30
0.0
 10
10.3630451235
 20
8.1064084
 30
0.0
 10
10.9844576611
 20
8.1239742162
 30
0.0
 10
11.5999235139
 20
8.1765120788
 30
0.0
 10
12.2035575176
 20
8.2635213885
 30
0.0
 10
12.7895902475
 20
8.3841636123
 30
0.0
 10
13.3524129826
 20
8.5372871851
 30
0.0
 10
13.886713497
 20
8.7214549743
 30
0.0
 10
14.3872947223
 20
8.934920358
 30
0.0
 10
14.7027482645
 20
9.0992201145
 30
0.0
 10
14.853165448
 20
9.1860629975
 30
0.0
  0
SPLINE
  5
2AC
100
AcDbEntity
  8
0
100
AcDbSpline
 62
7
  6
BYLAYER
 70
0
 71
3
 72
17
 73
13
 74
0
 42
0.0000001
 43
0.0000001
 44
0.0000000001
 40
0.0
 40
0.0
 40
0.0
 40
0.0
 40
0.1480562983
 40
0.2887201772
 40
0.4219083162
 40
0.5479888866
 40
0.6676269279
 40
0.7818357908
 40
0.8373664374
 40
0.8920881699
 40
0.9462219544
 40
1.0
 40
1.0
 40
1.0
 40
1.0
 10
14.853165448
 20
9.1860629975
 30
0.0
 10
14.9923931004
 20
9.2664456402
 30
0.0
 10
15.2577603137
 20
9.434229848
 30
0.0
 10
15.6217247204
 20
9.7135653262
 30
0.0
 10
15.9383457228
 20
10.0119919244
 30
0.0
 10
16.2046312951
 20
10.3269209967
 30
0.0
 10
16.4180877129
 20
10.6556297229
 30
0.0
 10
16.5513236008
 20
10.941569993
 30
0.0
 10
16.628300227
 20
11.1730470738
 30
0.0
 10
16.6712198842
 20
11.3465105391
 30
0.0
 10
16.6997597667
 20
11.5209690273
 30
0.0
 10
16.7091599634
 20
11.637924654
 30
0.0
 10
16.7114222919
 20
11.6962753682
 30
0.0
  0
SPLINE
  5
2AD
100
AcDbEntity
  8
0
100
AcDbSpline
 62
7
  6
BYLAYER
 70
0
 71
3
 72
20
 73
16
 74
0
 42
0.0000001
 43
0.0000001
 44
0.0000000001
 40
0.0
 40
0.0
 40
0.0
 40
0.0
 40
0.0539035196
 40
0.1080653078
 40
0.1627379852
 40
0.2181610134
 40
0.2745587362
 40
0.3321347903
 40
0.3910685615
 40
0.4515174759
 40
0.5136099606
 40
0.577447213
 40
0.7106084052
 40
0.8514737538
 40
1.0
 40
1.0
 40
1.0
 40
1.0
 10
16.7130122039
 20
8.2266062742
 30
0.0
 10
16.7130118498
 20
8.1665897523
 30
0.0
 10
16.7078878985
 20
8.0462068056
 30
0.0
 10
16.6848433099
 20
7.8662785603
 30
0.0
 10
16.6464961803
 20
7.687242937
 30
0.0
 10
16.5929813798
 20
7.509552811
 30
0.0
 10
16.5244106328
 20
7.3336476487
 30
0.0
 10
16.4409716269
 20
7.1599557877
 30
0.0
 10
16.3428974443
 20
6.988881121
 30
0.0
 10
16.2304066938
 20
6.8208510261
 30
0.0
 10
16.1037953176
 20
6.6562535883
 30
0.0
 10
15.913945167
 20
6.4388514751
 30
0.0
 10
15.6415629391
 20
6.1781282439
 30
0.0
 10
15.2689538667
 20
5.8897316429
 30
0.0
 10
14.9963803417
 20
5.7169621468
 30
0.0
 10
14.853165448
 20
5.634277483
 30
0.0
  0
SPLINE
  5
2AE
100
AcDbEntity
  8
0
100
AcDbSpline
 62
7
  6
BYLAYER
 70
0
 71
3
 72
34
 73
30
 74
0
 42
0.0000001
 43
0.0000001
 44
0.0000000001
 40
0.0
 40
0.0
 40
0.0
 40
0.0
 40
0.021436883
 40
0.0433978938
 40
0.0660419572
 40
0.0895001726
 40
0.1138769462
 40
0.1392470593
 40
0.1656598989
 40
0.1931390934
 40
0.2216866424
 40
0.2512844112
 40
0.2818964831
 40
0.3134721758
 40
0.3459463738
 40
0.3792436153
 40
0.447935434
 40
0.518784599
 40
0.5909166681
 40
0.6634056309
 40
0.7353109136
 40
0.7707640773
 40
0.8057321471
 40
0.840110028
 40
0.8737975434
 40
0.9067048909
 40
0.9387574651
 40
0.9698825772
 40
1.0
 40
1.0
 40
1.0
 40
1.0
 10
16.3194446036
 20
15.4033699818
 30
0.0
 10
16.3024830132
 20
15.3225654056
 30
0.0
 10
16.2583627637
 20
15.1608852759
 30
0.0
 10
16.1639507927
 20
14.9241660099
 30
0.0
 10
16.0411300538
 20
14.6920284883
 30
0.0
 10
15.890650655
 20
14.4655981871
 30
0.0
 10
15.7132365466
 20
14.2459759586
 30
0.0
 10
15.5098379639
 20
14.0341553052
 30
0.0
 10
15.2814257679
 20
13.8311649703
 30
0.0
 10
15.0291461634
 20
13.6379295537
 30
0.0
 10
14.7542097279
 20
13.4553821236
 30
0.0
 10
14.4579581652
 20
13.2843794578
 30
0.0
 10
14.1418243233
 20
13.125736009
 30
0.0
 10
13.8073375012
 20
12.9802252121
 30
0.0
 10
13.4561180785
 20
12.8485206346
 30
0.0
 10
12.9627095054
 20
12.6905976833
 30
0.0
 10
12.3150036654
 20
12.5326435293
 30
0.0
 10
11.5083315422
 20
12.4083286177
 30
0.0
 10
10.6795823217
 20
12.3496489844
 30
0.0
 10
9.8447884714
 20
12.3577440467
 30
0.0
 10
9.1540707247
 20
12.4202982259
 30
0.0
 10
8.612158464
 20
12.5038562844
 30
0.0
 10
8.2160933893
 20
12.5823711673
 30
0.0
 10
7.8304765049
 20
12.6766369111
 30
0.0
 10
7.4571691719
 20
12.786170767
 30
0.0
 10
7.0979747394
 20
12.9104831021
 30
0.0
 10
6.754602077
 20
13.0489635116
 30
0.0
 10
6.4288089602
 20
13.200947582
 30
0.0
 10
6.2208545415
 20
13.3126151859
 30
0.0
 10
6.12039567
 20
13.3706138302
 30
0.0
  0
SPLINE
  5
2AF
100
AcDbEntity
  8
0
100
AcDbSpline
 62
7
  6
BYLAYER
 70
0
 71
3
 72
39
 73
35
 74
0
 42
0.0000001
 43
0.0000001
 44
0.0000000001
 40
0.0
 40
0.0
 40
0.0
 40
0.0
 40
0.0317015844
 40
0.0645962753
 40
0.0985724988
 40
0.1335282774
 40
0.1693475431
 40
0.2058929449
 40
0.2430182908
 40
0.2805704304
 40
0.3183904621
 40
0.3563153503
 40
0.431803388
 40
0.4690636678
 40
0.5057854584
 40
0.5418212044
 40
0.5770323269
 40
0.6112931996
 40
0.6444926691
 40
0.6765377592
 40
0.7073569007
 40
0.736902858
 40
0.7651583576
 40
0.7921380597
 40
0.8178960819
 40
0.8425266479
 40
0.8661705133
 40
0.8890121905
 40
0.9112790371
 40
0.9332309704
 40
0.9441825918
 40
0.9551609003
 40
0.9773240865
 40
1.0
 40
1.0
 40
1.0
 40
1.0
 10
6.0549308693
 20
15.0192003975
 30
0.0
 10
6.1748995912
 20
14.951078024
 30
0.0
 10
6.4243165819
 20
14.8208659573
 30
0.0
 10
6.8167079616
 20
14.6468954403
 30
0.0
 10
7.2320604544
 20
14.4917346801
 30
0.0
 10
7.667594162
 20
14.356360181
 30
0.0
 10
8.1205458174
 20
14.2416364109
 30
0.0
 10
8.5879992979
 20
14.1482881502
 30
0.0
 10
9.0669298014
 20
14.0769345998
 30
0.0
 10
9.5542350471
 20
14.0280356695
 30
0.0
 10
10.0467866125
 20
14.0018889723
 30
0.0
 10
10.7050881269
 20
13.9976399352
 30
0.0
 10
11.360652598
 20
14.0389585731
 30
0.0
 10
12.0054507672
 20
14.1261426422
 30
0.0
 10
12.4764208927
 20
14.2134207227
 30
0.0
 10
12.9337199002
 20
14.3222403836
 30
0.0
 10
13.3744045846
 20
14.4519497574
 30
0.0
 10
13.7956373876
 20
14.6016774268
 30
0.0
 10
14.194697819
 20
14.7704911959
 30
0.0
 10
14.5690217403
 20
14.9573006036
 30
0.0
 10
14.9162023899
 20
15.1609210426
 30
0.0
 10
15.2339980711
 20
15.3800833157
 30
0.0
 10
15.5203773513
 20
15.6133910492
 30
0.0
 10
15.7734511745
 20
15.8594349219
 30
0.0
 10
15.9915940748
 20
16.1166536203
 30
0.0
 10
16.1732734796
 20
16.3835108461
 30
0.0
 10
16.3172669812
 20
16.6582956927
 30
0.0
 10
16.4224142114
 20
16.9392990072
 30
0.0
 10
16.4879376499
 20
17.2245825524
 30
0.0
 10
16.5089872038
 20
17.4646018714
 30
0.0
 10
16.5056332449
 20
17.6556734786
 30
0.0
 10
16.4888826599
 20
17.8469693271
 30
0.0
 10
16.4424658741
 20
18.0862109581
 30
0.0
 10
16.3797934443
 20
18.2716740545
 30
0.0
 10
16.3424427179
 20
18.3630147128
 30
0.0
  0
SPLINE
  5
2B0
100
AcDbEntity
  8
0
100
AcDbSpline
 62
7
  6
BYLAYER
 70
0
 71
3
 72
20
 73
16
 74
0
 42
0.0000001
 43
0.0000001
 44
0.0000000001
 40
0.0
 40
0.0
 40
0.0
 40
0.0
 40
0.0539033263
 40
0.1080649702
 40
0.162737468
 40
0.2181602926
 40
0.2745579245
 40
0.3321338386
 40
0.3910675285
 40
0.4515165058
 40
0.5136088765
 40
0.5774459547
 40
0.7106072865
 40
0.8514738493
 40
1.0
 40
1.0
 40
1.0
 40
1.0
 10
4.0130285796
 20
9.8596111084
 30
0.0
 10
4.0130285802
 20
9.7995940625
 30
0.0
 10
4.0181517015
 20
9.6792099083
 30
0.0
 10
4.0411988952
 20
9.499280318
 30
0.0
 10
4.0795454928
 20
9.3202429614
 30
0.0
 10
4.1330603207
 20
9.1425509235
 30
0.0
 10
4.2016337124
 20
8.9666448222
 30
0.0
 10
4.2850731461
 20
8.7929509738
 30
0.0
 10
4.3831487718
 20
8.6218744691
 30
0.0
 10
4.4956425383
 20
8.4538435919
 30
0.0
 10
4.6222552301
 20
8.2892442872
 30
0.0
 10
4.8121083966
 20
8.0718402719
 30
0.0
 10
5.0844963506
 20
7.8111143516
 30
0.0
 10
5.4571133988
 20
7.522716291
 30
0.0
 10
5.7296921653
 20
7.3499453277
 30
0.0
 10
5.872909327
 20
7.2672607313
 30
0.0
  0
SPLINE
  5
2B1
100
AcDbEntity
  8
0
100
AcDbSpline
 62
7
  6
BYLAYER
 70
0
 71
3
 72
41
 73
37
 74
0
 42
0.0000001
 43
0.0000001
 44
0.0000000001
 40
0.0
 40
0.0
 40
0.0
 40
0.0
 40
0.0106528072
 40
0.0213344312
 40
0.0320732591
 40
0.042896857
 40
0.053831842
 40
0.0649034651
 40
0.0875392906
 40
0.1109798104
 40
0.1353571054
 40
0.1479327761
 40
0.1607769699
 40
0.1872921708
 40
0.2149457152
 40
0.2437453967
 40
0.2736759556
 40
0.3046996036
 40
0.3367607094
 40
0.3697869409
 40
0.4036923143
 40
0.4383790515
 40
0.4737392271
 40
0.5096571322
 40
0.5826538902
 40
0.6563575743
 40
0.6931512077
 40
0.7297238916
 40
0.7659456625
 40
0.8016908916
 40
0.8368394424
 40
0.8712772982
 40
0.9048979597
 40
0.9376121796
 40
0.9693417589
 40
1.0
 40
1.0
 40
1.0
 40
1.0
 10
2.3630227206
 20
15.4118275449
 30
0.0
 10
2.3630207822
 20
15.3551311489
 30
0.0
 10
2.366642437
 20
15.241551501
 30
0.0
 10
2.3829533393
 20
15.0715226709
 30
0.0
 10
2.4101006074
 20
14.9019584958
 30
0.0
 10
2.4480393577
 20
14.7331016942
 30
0.0
 10
2.4967322013
 20
14.5651791317
 30
0.0
 10
2.5764724795
 20
14.3412381941
 30
0.0
 10
2.7035651803
 20
14.0641214356
 30
0.0
 10
2.8965034337
 20
13.741830806
 30
0.0
 10
3.0889417262
 20
13.4836939939
 30
0.0
 10
3.2617374855
 20
13.2826445588
 30
0.0
 10
3.451155717
 20
13.0812282397
 30
0.0
 10
3.7121600069
 20
12.8375128826
 30
0.0
 10
4.0579389068
 20
12.5622267552
 30
0.0
 10
4.4376948787
 20
12.3024160088
 30
0.0
 10
4.8493890675
 20
12.0594991372
 30
0.0
 10
5.2907977481
 20
11.8347263262
 30
0.0
 10
5.7595552873
 20
11.6293091602
 30
0.0
 10
6.2531391823
 20
11.4443379362
 30
0.0
 10
6.7688918831
 20
11.2807947856
 30
0.0
 10
7.3040381289
 20
11.1395769115
 30
0.0
 10
7.8556981759
 20
11.0214109491
 30
0.0
 10
8.6132771814
 20
10.8948348758
 30
0.0
 10
9.5817342971
 20
10.7985306991
 30
0.0
 10
10.5594711034
 20
10.7847728913
 30
0.0
 10
11.3414448607
 20
10.8235667877
 30
0.0
 10
11.9223909982
 20
10.8774426713
 30
0.0
 10
12.4949094732
 20
10.9557908664
 30
0.0
 10
13.0559236963
 20
11.0582042113
 30
0.0
 10
13.6024019014
 20
11.18413365
 30
0.0
 10
14.1313921612
 20
11.3328829917
 30
0.0
 10
14.6400509737
 20
11.5036677554
 30
0.0
 10
15.1256841298
 20
11.6955776906
 30
0.0
 10
15.5855761914
 20
11.9075978157
 30
0.0
 10
15.8785874689
 20
12.0643171917
 30
0.0
 10
16.0198964945
 20
12.1459015087
 30
0.0
  0
SPLINE
  5
2B2
100
AcDbEntity
  8
0
100
AcDbSpline
 62
7
  6
BYLAYER
 70
0
 71
3
 72
19
 73
15
 74
0
 42
0.0000001
 43
0.0000001
 44
0.0000000001
 40
0.0
 40
0.0
 40
0.0
 40
0.0
 40
0.1306654534
 40
0.2561802047
 40
0.3175295715
 40
0.3782035499
 40
0.4384386528
 40
0.4984784339
 40
0.5585703839
 40
0.6189623747
 40
0.6798949202
 40
0.7415976498
 40
0.8680829456
 40
1.0
 40
1.0
 40
1.0
 40
1.0
 10
13.8937269673
 20
18.3875198014
 30
0.0
 10
13.9324939318
 20
18.3270805078
 30
0.0
 10
14.0012468858
 20
18.2036944745
 30
0.0
 10
14.0643873614
 20
18.0403340523
 30
0.0
 10
14.0988787557
 20
17.9086326943
 30
0.0
 10
14.1167791129
 20
17.8099853371
 30
0.0
 10
14.1268719072
 20
17.7109616414
 30
0.0
 10
14.1291438734
 20
17.6117687433
 30
0.0
 10
14.1235739354
 20
17.512619724
 30
0.0
 10
14.1101655785
 20
17.4137312333
 30
0.0
 10
14.0889699665
 20
17.3153090387
 30
0.0
 10
14.050089947
 20
17.183930004
 30
0.0
 10
13.9814464838
 20
17.0212817136
 30
0.0
 10
13.908686596
 20
16.898811726
 30
0.0
 10
13.8679436929
 20
16.8388530255
 30
0.0
  0
SPLINE
  5
2B3
100
AcDbEntity
  8
0
100
AcDbSpline
 62
7
  6
BYLAYER
 70
0
 71
3
 72
11
 73
7
 74
0
 42
0.0000001
 43
0.0000001
 44
0.0000000001
 40
0.0
 40
0.0
 40
0.0
 40
0.0
 40
0.4704480293
 40
0.5972951126
 40
0.7278555367
 40
1.0
 40
1.0
 40
1.0
 40
1.0
 10
13.8679436929
 20
16.8388530255
 30
0.0
 10
13.768229905
 20
16.6921106804
 30
0.0
 10
13.6134377332
 20
16.5239802151
 30
0.0
 10
13.4025866437
 20
16.3483882548
 30
0.0
 10
13.2425708799
 20
16.2287194791
 30
0.0
 10
13.1142055737
 20
16.1470351976
 30
0.0
 10
13.0253250468
 20
16.095718725
 30
0.0
  0
SPLINE
  5
2B4
100
AcDbEntity
  8
0
100
AcDbSpline
 62
7
  6
BYLAYER
 70
0
 71
3
 72
20
 73
16
 74
0
 42
0.0000001
 43
0.0000001
 44
0.0000000001
 40
0.0
 40
0.0
 40
0.0
 40
0.0
 40
0.1482609798
 40
0.2889306974
 40
0.3564072709
 40
0.4220159572
 40
0.5478425841
 40
0.6083073166
 40
0.6672794879
 40
0.7249146476
 40
0.7813918462
 40
0.836910632
 40
0.8916922933
 40
0.9459730879
 40
1.0
 40
1.0
 40
1.0
 40
1.0
 10
5.8360670467
 20
5.655702293
 30
0.0
 10
5.6955177372
 20
5.7381949027
 30
0.0
 10
5.4280866894
 20
5.9103715208
 30
0.0
 10
5.1193782343
 20
6.1526859635
 30
0.0
 10
4.8980860684
 20
6.3568120665
 30
0.0
 10
4.6998113224
 20
6.5611144648
 30
0.0
 10
4.5243611098
 20
6.7764208178
 30
0.0
 10
4.3754786908
 20
7.0013820593
 30
0.0
 10
4.2794099451
 20
7.1708537068
 30
0.0
 10
4.197705948
 20
7.3428621668
 30
0.0
 10
4.1305483352
 20
7.517006125
 30
0.0
 10
4.0781444714
 20
7.6928820874
 30
0.0
 10
4.0406153259
 20
7.8700646437
 30
0.0
 10
4.0180400399
 20
8.0481058612
 30
0.0
 10
4.0130194481
 20
8.167219426
 30
0.0
 10
4.0130221666
 20
8.2266062741
 30
0.0
  0
SPLINE
  5
2B5
100
AcDbEntity
  8
0
100
AcDbSpline
 62
7
  6
BYLAYER
 70
0
 71
3
 72
20
 73
16
 74
0
 42
0.0000001
 43
0.0000001
 44
0.0000000001
 40
0.0
 40
0.0
 40
0.0
 40
0.0
 40
0.1485217681
 40
0.2893959225
 40
0.3569474665
 40
0.4226104527
 40
0.5484777848
 40
0.6089280398
 40
0.6678625802
 40
0.7254385641
 40
0.7818369422
 40
0.8372601749
 40
0.8919331471
 40
0.9460959146
 40
1.0
 40
1.0
 40
1.0
 40
1.0
 10
14.853165448
 20
7.2672823172
 30
0.0
 10
14.9963745965
 20
7.3499636641
 30
0.0
 10
15.2689235519
 20
7.5227215475
 30
0.0
 10
15.5837642462
 20
7.7663945352
 30
0.0
 10
15.8095376299
 20
7.9719337554
 30
0.0
 10
16.0118093742
 20
8.1777338633
 30
0.0
 10
16.1908814833
 20
8.3948342443
 30
0.0
 10
16.342894099
 20
8.6218820337
 30
0.0
 10
16.4409750457
 20
8.7929606415
 30
0.0
 10
16.5244025235
 20
8.9666556853
 30
0.0
 10
16.5929826258
 20
9.1425561611
 30
0.0
 10
16.6464983526
 20
9.3202460392
 30
0.0
 10
16.6848302749
 20
9.4992844174
 30
0.0
 10
16.7078891591
 20
9.6792105834
 30
0.0
 10
16.7130145552
 20
9.7995945469
 30
0.0
 10
16.7130117735
 20
9.8596111005
 30
0.0
  0
SPLINE
  5
2B6
100
AcDbEntity
  8
0
100
AcDbSpline
 62
7
  6
BYLAYER
 70
0
 71
3
 72
23
 73
19
 74
0
 42
0.0000001
 43
0.0000001
 44
0.0000000001
 40
0.0
 40
0.0
 40
0.0
 40
0.0
 40
0.0558314696
 40
0.1141826001
 40
0.1747829279
 40
0.2373533082
 40
0.301549306
 40
0.3669928384
 40
0.4332830917
 40
0.5000005239
 40
0.5667179379
 40
0.6330081366
 40
0.6984515791
 40
0.7626474537
 40
0.8252176801
 40
0.8858178266
 40
0.9441687519
 40
1.0
 40
1.0
 40
1.0
 40
1.0
 10
5.872909327
 20
7.2672607313
 30
0.0
 10
6.0233277334
 20
7.1804185885
 30
0.0
 10
6.3387835726
 20
7.0161203813
 30
0.0
 10
6.8393678714
 20
6.802657395
 30
0.0
 10
7.3736710423
 20
6.618492166
 30
0.0
 10
7.9364959872
 20
6.4653712935
 30
0.0
 10
8.5225304587
 20
6.3447318784
 30
0.0
 10
9.1261657196
 20
6.2577254633
 30
0.0
 10
9.741632332
 20
6.2051905554
 30
0.0
 10
10.3630451235
 20
6.1876277197
 30
0.0
 10
10.9844576611
 20
6.2051935359
 30
0.0
 10
11.5999235139
 20
6.2577313985
 30
0.0
 10
12.2035575176
 20
6.3447407083
 30
0.0
 10
12.7895902475
 20
6.4653829321
 30
0.0
 10
13.3524129826
 20
6.6185065048
 30
0.0
 10
13.886713497
 20
6.802674294
 30
0.0
 10
14.3872947223
 20
7.0161396778
 30
0.0
 10
14.7027482645
 20
7.1804394342
 30
0.0
 10
14.853165448
 20
7.2672823172
 30
0.0
  0
SPLINE
  5
2B7
100
AcDbEntity
  8
0
100
AcDbSpline
 62
7
  6
BYLAYER
 70
0
 71
3
 72
22
 73
18
 74
0
 42
0.0000001
 43
0.0000001
 44
0.0000000001
 40
0.0
 40
0.0
 40
0.0
 40
0.0
 40
0.0772763859
 40
0.1516797369
 40
0.223115047
 40
0.2916154999
 40
0.4202578405
 40
0.4810099063
 40
0.5397775337
 40
0.5970028774
 40
0.6531939702
 40
0.7089105755
 40
0.7647343889
 40
0.8212433323
 40
0.8789796314
 40
0.938429422
 40
1.0
 40
1.0
 40
1.0
 40
1.0
 10
7.7007727462
 20
16.0956748802
 30
0.0
 10
7.6375584708
 20
16.1321708335
 30
0.0
 10
7.5156518689
 20
16.2076709472
 30
0.0
 10
7.3442349144
 20
16.3305442433
 30
0.0
 10
7.1885984168
 20
16.4603857372
 30
0.0
 10
7.0072019556
 20
16.6379663777
 30
0.0
 10
6.8550678427
 20
16.8304326414
 30
0.0
 10
6.739727049
 20
17.0349397944
 30
0.0
 10
6.673983035
 20
17.1887960469
 30
0.0
 10
6.6277517108
 20
17.3451282143
 30
0.0
 10
6.6013927023
 20
17.5031131379
 30
0.0
 10
6.5950247114
 20
17.6618398084
 30
0.0
 10
6.6087429736
 20
17.8204014487
 30
0.0
 10
6.6424276451
 20
17.9778825403
 30
0.0
 10
6.6958473906
 20
18.1334118727
 30
0.0
 10
6.768676209
 20
18.2861121241
 30
0.0
 10
6.8287092539
 20
18.3836691523
 30
0.0
 10
6.8615613749
 20
18.4316595282
 30
0.0
  0
SPLINE
  5
2B8
100
AcDbEntity
  8
0
100
AcDbSpline
 62
7
  6
BYLAYER
 70
0
 71
3
 72
32
 73
28
 74
0
 42
0.0000001
 43
0.0000001
 44
0.0000000001
 40
0.0
 40
0.0
 40
0.0
 40
0.0
 40
0.0213804116
 40
0.0432400067
 40
0.0657478672
 40
0.0890465573
 40
0.1383942573
 40
0.1646325487
 40
0.1919474912
 40
0.2203452903
 40
0.2498125723
 40
0.2803155725
 40
0.3118060745
 40
0.3774609528
 40
0.446155124
 40
0.5170978677
 40
0.5894006395
 40
0.6621189891
 40
0.7342913648
 40
0.7698853522
 40
0.8049953941
 40
0.8395137162
 40
0.8733376915
 40
0.9063747019
 40
0.9385480929
 40
0.9697838112
 40
1.0
 40
1.0
 40
1.0
 40
1.0
 10
16.2339230016
 20
9.5217657189
 30
0.0
 10
16.220062379
 20
9.4414620067
 30
0.0
 10
16.1821389533
 20
9.2806074731
 30
0.0
 10
16.0966648512
 20
9.0445048028
 30
0.0
 10
15.9825617462
 20
8.8126420557
 30
0.0
 10
15.7895602528
 20
8.5049686029
 30
0.0
 10
15.5434277655
 20
8.2164166949
 30
0.0
 10
15.254985957
 20
7.950339737
 30
0.0
 10
15.0099234132
 20
7.7561660122
 30
0.0
 10
14.7419180458
 20
7.5725138013
 30
0.0
 10
14.4522331443
 20
7.4002574499
 30
0.0
 10
14.1423249334
 20
7.2402005643
 30
0.0
 10
13.6980231285
 20
7.0414214206
 30
0.0
 10
13.1012013772
 20
6.8297026954
 30
0.0
 10
12.3413696981
 20
6.6386041598
 30
0.0
 10
11.5427653596
 20
6.5106460345
 30
0.0
 10
10.7210553586
 20
6.4483414177
 30
0.0
 10
9.8923572983
 20
6.4529046327
 30
0.0
 10
9.2061795091
 20
6.5126321129
 30
0.0
 10
8.6675860667
 20
6.5940250117
 30
0.0
 10
8.273849659
 20
6.6709796144
 30
0.0
 10
7.8904741553
 20
6.7637468456
 30
0.0
 10
7.5193446151
 20
6.8718337881
 30
0.0
 10
7.1622903306
 20
6.9947524962
 30
0.0
 10
6.8210411597
 20
7.1318846832
 30
0.0
 10
6.4973750208
 20
7.282563713
 30
0.0
 10
6.2908458426
 20
7.3933874891
 30
0.0
 10
6.1911063826
 20
7.4509707904
 30
0.0
  0
SPLINE
  5
2B9
100
AcDbEntity
  8
0
100
AcDbSpline
 62
7
  6
BYLAYER
 70
0
 71
3
 72
22
 73
18
 74
0
 42
0.0000001
 43
0.0000001
 44
0.0000000001
 40
0.0
 40
0.0
 40
0.0
 40
0.0
 40
0.0575772485
 40
0.114024327
 40
0.1697476963
 40
0.2251829816
 40
0.2807763523
 40
0.3369679703
 40
0.3941741789
 40
0.4527754035
 40
0.5131024456
 40
0.5754351061
 40
0.7068263028
 40
0.7762677603
 40
0.8482883521
 40
0.9228931515
 40
1.0
 40
1.0
 40
1.0
 40
1.0
 10
4.3835930097
 20
18.3630149382
 30
0.0
 10
4.3540501465
 20
18.2907529502
 30
0.0
 10
4.3025522098
 20
18.1446444009
 30
0.0
 10
4.2489900125
 20
17.9203773122
 30
0.0
 10
4.2203278358
 20
17.6944780982
 30
0.0
 10
4.2166457801
 20
17.4679540388
 30
0.0
 10
4.2380283878
 20
17.2417750934
 30
0.0
 10
4.2843210991
 20
17.0169194527
 30
0.0
 10
4.3553086047
 20
16.7943368023
 30
0.0
 10
4.4506683934
 20
16.5749656206
 30
0.0
 10
4.5699355083
 20
16.3596590269
 30
0.0
 10
4.7635265655
 20
16.0742884063
 30
0.0
 10
5.0010688579
 20
15.8056802195
 30
0.0
 10
5.2744620076
 20
15.5561793825
 30
0.0
 10
5.5038773507
 20
15.3736045615
 30
0.0
 10
5.7527905048
 20
15.1999118599
 30
0.0
 10
5.9281915739
 20
15.0921990105
 30
0.0
 10
6.0187329041
 20
15.0399261317
 30
0.0
  0
SPLINE
  5
2BA
100
AcDbEntity
  8
0
100
AcDbSpline
 62
7
  6
BYLAYER
 70
0
 71
3
 72
39
 73
35
 74
0
 42
0.0000001
 43
0.0000001
 44
0.0000000001
 40
0.0
 40
0.0
 40
0.0
 40
0.0
 40
0.0226762651
 40
0.0448402055
 40
0.0558187478
 40
0.0667703739
 40
0.0887212279
 40
0.1109848436
 40
0.1338205224
 40
0.1574552545
 40
0.1820734221
 40
0.2078158703
 40
0.234777106
 40
0.2630116511
 40
0.2925347049
 40
0.3233295791
 40
0.3553497132
 40
0.3885242177
 40
0.4227608513
 40
0.4579491785
 40
0.4939643143
 40
0.5306683902
 40
0.5679145548
 40
0.6433878121
 40
0.6813131666
 40
0.719139605
 40
0.7567045014
 40
0.7938492756
 40
0.8304209798
 40
0.8662734947
 40
0.9012694002
 40
0.9352923799
 40
0.9682399971
 40
1.0
 40
1.0
 40
1.0
 40
1.0
 10
16.6270479468
 20
17.666951079
 30
0.0
 10
16.6661172865
 20
17.5714076604
 30
0.0
 10
16.7316911673
 20
17.3774172847
 30
0.0
 10
16.7803224163
 20
17.1271834852
 30
0.0
 10
16.79793954
 20
16.9270931727
 30
0.0
 10
16.8015656865
 20
16.7272394686
 30
0.0
 10
16.7797391582
 20
16.476185899
 30
0.0
 10
16.7114939408
 20
16.1777642052
 30
0.0
 10
16.6018620726
 20
15.883795904
 30
0.0
 10
16.4516505871
 20
15.5963032015
 30
0.0
 10
16.262067237
 20
15.3170695084
 30
0.0
 10
16.0343840203
 20
15.0478799556
 30
0.0
 10
15.7701959805
 20
14.7903382762
 30
0.0
 10
15.4711955976
 20
14.5460731595
 30
0.0
 10
15.1393489468
 20
14.3165565484
 30
0.0
 10
14.7767715008
 20
14.1032452491
 30
0.0
 10
14.3857968119
 20
13.9074657624
 30
0.0
 10
13.968931479
 20
13.7304547235
 30
0.0
 10
13.528845491
 20
13.5733528398
 30
0.0
 10
13.0683726641
 20
13.4371344978
 30
0.0
 10
12.5904686579
 20
13.3227124544
 30
0.0
 10
12.0982000113
 20
13.2307698349
 30
0.0
 10
11.4240864909
 20
13.1386318766
 30
0.0
 10
10.7385666052
 20
13.0943915367
 30
0.0
 10
10.0500164149
 20
13.0977310045
 30
0.0
 10
9.5346756186
 20
13.1242167607
 30
0.0
 10
9.0246920412
 20
13.174474288
 30
0.0
 10
8.5233296439
 20
13.2481985955
 30
0.0
 10
8.0338262142
 20
13.3449162409
 30
0.0
 10
7.5593396775
 20
13.4639871546
 30
0.0
 10
7.1029155596
 20
13.6046616458
 30
0.0
 10
6.6674409942
 20
13.766043811
 30
0.0
 10
6.2558214873
 20
13.9471212286
 30
0.0
 10
5.9940497915
 20
14.0827190245
 30
0.0
 10
5.8680900785
 20
14.1536787359
 30
0.0
  0
SPLINE
  5
2BB
100
AcDbEntity
  8
0
100
AcDbSpline
 62
7
  6
BYLAYER
 70
0
 71
3
 72
22
 73
18
 74
0
 42
0.0000001
 43
0.0000001
 44
0.0000000001
 40
0.0
 40
0.0
 40
0.0
 40
0.0
 40
0.0771069682
 40
0.1517117479
 40
0.2237322297
 40
0.2931736576
 40
0.424564921
 40
0.4868975724
 40
0.5472246023
 40
0.6058258309
 40
0.6630320347
 40
0.7192236632
 40
0.7748170275
 40
0.8302523151
 40
0.8859756809
 40
0.9424227694
 40
1.0
 40
1.0
 40
1.0
 40
1.0
 10
5.8119561399
 20
14.1856920606
 30
0.0
 10
5.7171051296
 20
14.240453078
 30
0.0
 10
5.5333552784
 20
14.3532928121
 30
0.0
 10
5.2725944945
 20
14.5352528081
 30
0.0
 10
5.0322598677
 20
14.7265177195
 30
0.0
 10
4.7458539286
 20
14.9878940066
 30
0.0
 10
4.4970051458
 20
15.2692872257
 30
0.0
 10
4.2941996527
 20
15.5682408388
 30
0.0
 10
4.1692559099
 20
15.7937955185
 30
0.0
 10
4.0693568886
 20
16.0236080493
 30
0.0
 10
3.9949911385
 20
16.2567852369
 30
0.0
 10
3.9464942859
 20
16.4923432802
 30
0.0
 10
3.9240946652
 20
16.7292878484
 30
0.0
 10
3.9279514648
 20
16.9665938331
 30
0.0
 10
3.9579779717
 20
17.2032453062
 30
0.0
 10
4.0140899282
 20
17.4381867965
 30
0.0
 10
4.0680385281
 20
17.5912499022
 30
0.0
 10
4.0989875923
 20
17.6669513309
 30
0.0
  0
SPLINE
  5
2BC
100
AcDbEntity
  8
0
100
AcDbSpline
 62
7
  6
BYLAYER
 70
0
 71
3
 72
23
 73
19
 74
0
 42
0.0000001
 43
0.0000001
 44
0.0000000001
 40
0.0
 40
0.0
 40
0.0
 40
0.0
 40
0.0558311699
 40
0.1141819466
 40
0.1747820452
 40
0.237352271
 40
0.3015481742
 40
0.3669916804
 40
0.4332819664
 40
0.4999994799
 40
0.5667170115
 40
0.6330073516
 40
0.698450947
 40
0.7626469725
 40
0.8252173512
 40
0.8858176298
 40
0.9441686096
 40
1.0
 40
1.0
 40
1.0
 40
1.0
 10
14.853165448
 20
5.634277483
 30
0.0
 10
14.7027484591
 20
5.5474347123
 30
0.0
 10
14.3872956316
 20
5.3831350387
 30
0.0
 10
13.8867152256
 20
5.1696697616
 30
0.0
 10
13.3524154169
 20
4.9855016435
 30
0.0
 10
12.7895928377
 20
4.8323774753
 30
0.0
 10
12.2035598331
 20
4.7117348345
 30
0.0
 10
11.5999252643
 20
4.6247250669
 30
0.0
 10
10.9844585849
 20
4.5721868847
 30
0.0
 10
10.3630450883
 20
4.5546210105
 30
0.0
 10
9.7416313392
 20
4.5721839068
 30
0.0
 10
9.1261639046
 20
4.6247191398
 30
0.0
 10
8.5225280854
 20
4.7117260147
 30
0.0
 10
7.9364933477
 20
4.8323658468
 30
0.0
 10
7.3736685698
 20
4.9854873171
 30
0.0
 10
6.8393661184
 20
5.1696528726
 30
0.0
 10
6.3387826513
 20
5.3831157466
 30
0.0
 10
6.0233275363
 20
5.5474138681
 30
0.0
 10
5.872909327
 20
5.6342558971
 30
0.0
  0
ENDSEC
  0
SECTION
  2
OBJECTS
  0
DICTIONARY
  5
C
100
AcDbDictionary
280
0
281
1
  3
ACAD_GROUP
350
D
  3
ACAD_MLINESTYLE
350
17
  3
ACAD_LAYOUT
350
1A
  3
ACAD_PLOTSETTINGS
350
19
  3
ACAD_PLOTSTYLENAME
350
E
  0
DICTIONARY
  5
D
102
{ACAD_REACTORS
330
C
102
}
100
AcDbDictionary
280
0
281
1
  0
ACDBDICTIONARYWDFLT
  5
E
102
{ACAD_REACTORS
330
C
102
}
100
AcDbDictionary
281
1
  3
Normal
350
F
100
AcDbDictionaryWithDefault
340
F
  0
DICTIONARY
  5
17
102
{ACAD_REACTORS
330
C
102
}
100
AcDbDictionary
280
0
281
1
  3
Standard
350
18
  0
DICTIONARY
  5
19
102
{ACAD_REACTORS
330
C
102
}
100
AcDbDictionary
281
1
  0
DICTIONARY
  5
1A
102
{ACAD_REACTORS
330
C
102
}
100
AcDbDictionary
281
1
  3
Model
350
2BD
  3
Layout1
350
2BE
  0
ACDBPLACEHOLDER
  5
F
102
{ACAD_REACTORS
330
E
102
}
  0
MLINESTYLE
  5
18
102
{ACAD_REACTORS
330
17
102
}
100
AcDbMlineStyle
  2
STANDARD
 70
0
  3

 62
256
 51
90.0
 52
90.0
 71
2
 49
0.5
 62
256
  6
BYLAYER
 49
-0.5
 62
256
  6
BYLAYER
  0
LAYOUT
  5
2BD
102
{ACAD_REACTORS
330
1A
102
}
100
AcDbPlotSettings
  1

  2
none_device
  4

  6

 40
0.0
 41
0.0
 42
0.0
 43
0.0
 44
210.0
 45
297.0
 46
0.0
 47
0.0
 48
0.0
 49
0.0
140
0.0
141
0.0
142
1.0
143
1.0
 70
1024
 72
1
 73
0
 74
0
  7

 75
0
147
1.0
148
0.0
149
0.0
100
AcDbLayout
  1
Model
 70
0
 71
0
 10
0.0
 20
0.0
 11
210.0
 21
297.0
 12
0.0
 22
0.0
 32
0.0
 14
0.0
 24
0.0
 34
0.0
 15
0.0
 25
0.0
 35
0.0
146
0.0
 13
0.0
 23
0.0
 33
0.0
 16
1.0
 26
0.0
 36
0.0
 17
0.0
 27
1.0
 37
0.0
 76
0
330
210
345
0
346
0
  0
LAYOUT
  5
2BE
102
{ACAD_REACTORS
330
1A
102
}
100
AcDbPlotSettings
  1

  2
none_device
  4

  6

 40
0.0
 41
0.0
 42
0.0
 43
0.0
 44
210.0
 45
297.0
 46
0.0
 47
0.0
 48
0.0
 49
0.0
140
0.0
141
0.0
142
1.0
143
1.0
 70
0
 72
1
 73
0
 74
0
  7

 75
0
147
1.0
148
0.0
149
0.0
100
AcDbLayout
  1
Layout1
 70
0
 71
1
 10
0.0
 20
0.0
 11
210.0
 21
297.0
 12
0.0
 22
0.0
 32
0.0
 14
0.0
 24
0.0
 34
0.0
 15
0.0
 25
0.0
 35
0.0
146
0.0
 13
0.0
 23
0.0
 33
0.0
 16
1.0
 26
0.0
 36
0.0
 17
0.0
 27
1.0
 37
0.0
 76
0
330
211
345
0
346
0
  0
ENDSEC
  0
EOF
