999
DXF file: C:\Users\sesa63760\Dev\_Creo\CAD\MCADID0004618_3D-CAD\drw0001_5.dxf
999
Pro/ENGINEER 2019471 by Parametric Technology Corporation
  0
SECTION
  2
HEADER
  9
$ACADVER
  1
AC1024
  9
$DWGCODEPAGE
  3
ANSI_1252
  9
$EXTMAX
 10
65.6833603939
 20
92.8950382714
 30
0.0
  9
$EXTMIN
 10
0.0
 20
0.0
 30
0.0
  9
$LIMMIN
 10
0.0
 20
0.0
  9
$LIMMAX
 10
65.6833603939
 20
92.8950382714
  9
$VIEWCTR
 10
32.841680197
 20
46.4475191357
  9
$VIEWSIZE
 40
92.8950382714
  9
$CLAYER
  8
0
  9
$LTSCALE
 40
6.0553802725
  9
$CELTYPE
  6
BYLAYER
  9
$DIMSCALE
 40
1.0
  9
$DIMASZ
 40
0.7819447666
  9
$DIMEXO
 40
1.0
  9
$DIMDLI
 40
4.1837172792
  9
$DIMEXE
 40
1.0
  9
$DIMCEN
 40
0.9908804082
  9
$DIMLFAC
 40
1.0
  9
$DIMBLK
  1
_FILLED
  9
$DIMALT
 70
0
  9
$DIMALTF
 40
0.0393700787
  9
$DIMTXT
 40
1.0947226732
  9
$DIMTOL
 70
1
  9
$DIMLIM
 70
0
  9
$DIMTFAC
 40
1.0
  9
$DIMTP
 40
0.01
  9
$DIMTM
 40
0.01
  9
$DIMGAP
 40
0.625
  9
$DIMDSEP
 70
46
  9
$AUNITS
 70
0
  9
$PDMODE
 70
3
  9
$PDSIZE
 40
0.3125
  9
$HANDSEED
  5
266
  9
$TILEMODE
 70
1
  9
$MEASUREMENT
 70
1
  9
$INSUNITS
 70
4
  0
ENDSEC
  0
SECTION
  2
CLASSES
  0
CLASS
  1
ACDBDICTIONARYWDFLT
  2
AcDbDictionaryWithDefault
  3
AutoCAD 2000
 90
0
 91
1
280
0
281
0
  0
CLASS
  1
ACDBPLACEHOLDER
  2
AcDbPlaceHolder
  3
AutoCAD 2000
 90
0
 91
1
280
0
281
0
  0
CLASS
  1
LAYOUT
  2
AcDbLayout
  3
AutoCAD 2000
 90
0
 91
0
280
0
281
0
  0
ENDSEC
  0
SECTION
  2
TABLES
  0
TABLE
  2
VPORT
  5
8
100
AcDbSymbolTable
 70
2
  0
VPORT
  5
1F4
100
AcDbSymbolTableRecord
100
AcDbViewportTableRecord
  2
*ACTIVE
 70
0
 10
0.0
 20
0.0
 11
1.0
 21
1.0
 12
32.841680197
 22
46.4475191357
 13
0.0
 23
0.0
 14
1.0
 24
1.0
 15
0.0
 25
0.0
 16
0.0
 26
0.0
 36
1.0
 17
0.0
 27
0.0
 37
0.0
 40
92.8950382714
 41
0.7070707071
 42
50.0
 43
0.0
 44
0.0
 50
0.0
 51
0.0
 71
0
 72
100
 73
1
 74
1
 75
0
 76
0
 77
0
 78
0
  0
ENDTAB
  0
TABLE
  2
LTYPE
  5
5
100
AcDbSymbolTable
 70
6
  0
LTYPE
  5
14
100
AcDbSymbolTableRecord
100
AcDbLinetypeTableRecord
  2
BYBLOCK
 70
0
  3

 72
65
 73
0
 40
0.0
  0
LTYPE
  5
15
100
AcDbSymbolTableRecord
100
AcDbLinetypeTableRecord
  2
BYLAYER
 70
0
  3

 72
65
 73
0
 40
0.0
  0
LTYPE
  5
16
100
AcDbSymbolTableRecord
100
AcDbLinetypeTableRecord
  2
CONTINUOUS
 70
64
  3
Solid line
 72
65
 73
0
 40
0.0
  0
LTYPE
  5
1F5
100
AcDbSymbolTableRecord
100
AcDbLinetypeTableRecord
  2
CENTER
 70
64
  3
____ _ ____ _ ____ _ ____ _ ____ _ ____ _ ____
 72
65
 73
4
 40
0.6
 49
0.375
 74
0
 49
-0.075
 74
0
 49
0.075
 74
0
 49
-0.075
 74
0
  0
LTYPE
  5
1F6
100
AcDbSymbolTableRecord
100
AcDbLinetypeTableRecord
  2
HIDDEN
 70
64
  3
- - - - - - - - - - - - - - - - - - - -
 72
65
 73
2
 40
0.2
 49
0.1
 74
0
 49
-0.1
 74
0
  0
LTYPE
  5
1F7
100
AcDbSymbolTableRecord
100
AcDbLinetypeTableRecord
  2
PHANTOM
 70
64
  3
_____ _ _ _____ _ _ _____ _ _ _____
 72
65
 73
6
 40
0.8
 49
0.45
 74
0
 49
-0.05
 74
0
 49
0.1
 74
0
 49
-0.05
 74
0
 49
0.1
 74
0
 49
-0.05
 74
0
  0
LTYPE
  5
1F8
100
AcDbSymbolTableRecord
100
AcDbLinetypeTableRecord
  2
DOT
 70
64
  3
. . . . . . . . . . . . . . . . . . . .
 72
65
 73
2
 40
0.2
 49
0.1
 74
0
 49
-0.1
 74
0
  0
LTYPE
  5
1F9
100
AcDbSymbolTableRecord
100
AcDbLinetypeTableRecord
  2
DASHED
 70
64
  3
- - - - - - - - - - - - - - - - - - - -
 72
65
 73
2
 40
0.2
 49
0.1
 74
0
 49
-0.1
 74
0
  0
ENDTAB
  0
TABLE
  2
LAYER
  5
2
100
AcDbSymbolTable
 70
36
  0
LAYER
  5
10
100
AcDbSymbolTableRecord
100
AcDbLayerTableRecord
  2
0
 70
0
 62
7
  6
CONTINUOUS
370
-3
390
F
  0
LAYER
  5
1FA
100
AcDbSymbolTableRecord
100
AcDbLayerTableRecord
  2
DEFAULT_1
 70
0
 62
7
  6
CENTER
370
-3
390
F
  0
LAYER
  5
1FB
100
AcDbSymbolTableRecord
100
AcDbLayerTableRecord
  2
DEFAULT_2
 70
0
 62
7
  6
HIDDEN
370
-3
390
F
  0
LAYER
  5
1FC
100
AcDbSymbolTableRecord
100
AcDbLayerTableRecord
  2
DEFAULT_3
 70
0
 62
7
  6
PHANTOM
370
-3
390
F
  0
LAYER
  5
1FD
100
AcDbSymbolTableRecord
100
AcDbLayerTableRecord
  2
00_COMPONENTS
 70
0
 62
7
  6
CONTINUOUS
370
-3
390
F
  0
LAYER
  5
1FE
100
AcDbSymbolTableRecord
100
AcDbLayerTableRecord
  2
01_1_DEFAULT_DATUMS
 70
0
 62
7
  6
CONTINUOUS
370
-3
390
F
  0
LAYER
  5
1FF
100
AcDbSymbolTableRecord
100
AcDbLayerTableRecord
  2
01_PLANES
 70
0
 62
7
  6
CONTINUOUS
370
-3
390
F
  0
LAYER
  5
200
100
AcDbSymbolTableRecord
100
AcDbLayerTableRecord
  2
02_COORD_SYS
 70
0
 62
7
  6
CONTINUOUS
370
-3
390
F
  0
LAYER
  5
201
100
AcDbSymbolTableRecord
100
AcDbLayerTableRecord
  2
03_AXES
 70
0
 62
7
  6
CONTINUOUS
370
-3
390
F
  0
LAYER
  5
202
100
AcDbSymbolTableRecord
100
AcDbLayerTableRecord
  2
04_POINTS
 70
0
 62
7
  6
CONTINUOUS
370
-3
390
F
  0
LAYER
  5
203
100
AcDbSymbolTableRecord
100
AcDbLayerTableRecord
  2
05_CURVES
 70
0
 62
7
  6
CONTINUOUS
370
-3
390
F
  0
LAYER
  5
204
100
AcDbSymbolTableRecord
100
AcDbLayerTableRecord
  2
06_SURFS
 70
0
 62
7
  6
CONTINUOUS
370
-3
390
F
  0
LAYER
  5
205
100
AcDbSymbolTableRecord
100
AcDbLayerTableRecord
  2
07_COSMETICS
 70
0
 62
7
  6
CONTINUOUS
370
-3
390
F
  0
LAYER
  5
206
100
AcDbSymbolTableRecord
100
AcDbLayerTableRecord
  2
10_NOTES
 70
0
 62
7
  6
CONTINUOUS
370
-3
390
F
  0
LAYER
  5
207
100
AcDbSymbolTableRecord
100
AcDbLayerTableRecord
  2
11_NOTES_PUB
 70
0
 62
7
  6
CONTINUOUS
370
-3
390
F
  0
LAYER
  5
208
100
AcDbSymbolTableRecord
100
AcDbLayerTableRecord
  2
13_REF_GTOL
 70
0
 62
7
  6
CONTINUOUS
370
-3
390
F
  0
LAYER
  5
209
100
AcDbSymbolTableRecord
100
AcDbLayerTableRecord
  2
16_MISC
 70
0
 62
7
  6
CONTINUOUS
370
-3
390
F
  0
LAYER
  5
20A
100
AcDbSymbolTableRecord
100
AcDbLayerTableRecord
  2
17_NO_PRINT
 70
0
 62
7
  6
CONTINUOUS
370
-3
390
F
  0
LAYER
  5
20B
100
AcDbSymbolTableRecord
100
AcDbLayerTableRecord
  2
18_DATUM_CAMS_JOINTS
 70
0
 62
7
  6
CONTINUOUS
370
-3
390
F
  0
LAYER
  5
20C
100
AcDbSymbolTableRecord
100
AcDbLayerTableRecord
  2
19_DATUM_FUNCTIONAL
 70
0
 62
7
  6
CONTINUOUS
370
-3
390
F
  0
LAYER
  5
20D
100
AcDbSymbolTableRecord
100
AcDbLayerTableRecord
  2
20_DATUM_KINEMATIC_SCHEME
 70
0
 62
7
  6
CONTINUOUS
370
-3
390
F
  0
ENDTAB
  0
TABLE
  2
STYLE
  5
3
100
AcDbSymbolTable
 70
1
  0
STYLE
  5
11
100
AcDbSymbolTableRecord
100
AcDbTextStyleTableRecord
  2
STANDARD
 70
0
 40
0.0
 41
1.0
 50
0.0
 71
0
 42
0.2
  3
ARIAL.TTF
  4

  0
STYLE
  5
20E
100
AcDbSymbolTableRecord
100
AcDbTextStyleTableRecord
  2
TEXTSTYLE_1
 70
0
 40
0.0
 41
0.8
 50
0.0
 71
0
 42
0.2
  3
gdt
  4

  0
ENDTAB
  0
TABLE
  2
VIEW
  5
6
100
AcDbSymbolTable
 70
0
  0
ENDTAB
  0
TABLE
  2
UCS
  5
7
100
AcDbSymbolTable
 70
0
  0
ENDTAB
  0
TABLE
  2
APPID
  5
9
100
AcDbSymbolTable
 70
1
  0
APPID
  5
20F
100
AcDbSymbolTableRecord
100
AcDbRegAppTableRecord
  2
ACAD
 70
0
  0
ENDTAB
  0
TABLE
  2
BLOCK_RECORD
  5
1
100
AcDbSymbolTable
 70
0
  0
BLOCK_RECORD
  5
210
100
AcDbSymbolTableRecord
100
AcDbBlockTableRecord
  2
*Model_Space
  0
BLOCK_RECORD
  5
211
100
AcDbSymbolTableRecord
100
AcDbBlockTableRecord
  2
*Paper_Space
  0
BLOCK_RECORD
  5
212
100
AcDbSymbolTableRecord
100
AcDbBlockTableRecord
  2
_FILLED
  0
ENDTAB
  0
TABLE
  2
DIMSTYLE
  5
A
100
AcDbSymbolTable
 70
1
100
AcDbDimStyleTable
 71
0
  0
DIMSTYLE
105
213
100
AcDbSymbolTableRecord
100
AcDbDimStyleTableRecord
  2
STANDARD
 70
0
  3

  4

 40
1.0
 41
0.7819447666
 42
1.0
 43
0.38
 44
1.0
 45
0.0
 46
0.0
 47
0.01
 48
0.01
140
1.0947226732
141
0.09
142
0.0
143
25.4
144
1.0
145
0.0
146
1.0
147
0.625
 71
1
 72
0
 73
0
 74
0
 75
0
 76
0
 77
1
 78
8
 79
2
170
0
171
1
172
0
173
0
174
0
175
0
176
0
177
0
178
0
270
2
179
2
271
2
272
2
273
2
274
2
275
0
280
0
281
0
282
0
283
1
284
8
285
0
286
0
287
3
288
0
340
11
278
46
341
212
342
212
343
212
344
212
  0
ENDTAB
  0
ENDSEC
  0
SECTION
  2
BLOCKS
  0
BLOCK
  5
20
100
AcDbEntity
  8
0
100
AcDbBlockBegin
  2
*Model_Space
 70
0
 10
0.0
 20
0.0
 30
0.0
  3
*Model_Space
  1

  0
ENDBLK
  5
21
100
AcDbEntity
  8
0
100
AcDbBlockEnd
  0
BLOCK
  5
1C
100
AcDbEntity
  8
0
100
AcDbBlockBegin
  2
*Paper_Space
 70
0
 10
0.0
 20
0.0
 30
0.0
  3
*Paper_Space
  1

  0
ENDBLK
  5
1D
100
AcDbEntity
  8
0
100
AcDbBlockEnd
  0
BLOCK
  5
214
100
AcDbEntity
  8
0
100
AcDbBlockBegin
  2
_FILLED
 70
64
 10
0.0
 20
0.0
  3
_FILLED
  1

  0
SOLID
  5
215
100
AcDbEntity
  8
0
  6
BYBLOCK
 62
0
100
AcDbTrace
 10
0.0
 20
0.0
 11
-1.0
 21
0.25
 12
-1.0
 22
-0.25
 13
-1.0
 23
-0.25
  0
ENDBLK
  5
216
100
AcDbEntity
  8
0
  6
BYBLOCK
 62
0
100
AcDbBlockEnd
  0
ENDSEC
  0
SECTION
  2
ENTITIES
  0
LINE
  5
217
100
AcDbEntity
  8
0
100
AcDbLine
 62
7
  6
BYLAYER
 10
26.0513011348
 20
7.5612240453
 11
27.0513011348
 21
7.5612240453
  0
LINE
  5
218
100
AcDbEntity
  8
0
100
AcDbLine
 62
7
  6
BYLAYER
 10
40.4513011348
 20
7.5612240453
 11
41.4513011348
 21
7.5612240453
  0
LINE
  5
219
100
AcDbEntity
  8
0
100
AcDbLine
 62
7
  6
BYLAYER
 10
39.2513011348
 20
8.0612240453
 11
38.8484883246
 21
8.0612240453
  0
LINE
  5
21A
100
AcDbEntity
  8
0
100
AcDbLine
 62
7
  6
BYLAYER
 10
28.654113945
 20
8.0612240453
 11
28.2513011348
 21
8.0612240453
  0
LINE
  5
21B
100
AcDbEntity
  8
0
100
AcDbLine
 62
7
  6
BYLAYER
 10
41.4513011348
 20
13.7370321039
 11
40.4513011348
 21
13.7370321039
  0
LINE
  5
21C
100
AcDbEntity
  8
0
100
AcDbLine
 62
7
  6
BYLAYER
 10
27.0513011348
 20
13.7370321039
 11
26.0513011348
 21
13.7370321039
  0
LINE
  5
21D
100
AcDbEntity
  8
0
100
AcDbLine
 62
7
  6
BYLAYER
 10
27.0513011348
 20
15.5005201454
 11
26.0513011348
 21
15.5005201454
  0
LINE
  5
21E
100
AcDbEntity
  8
0
100
AcDbLine
 62
7
  6
BYLAYER
 10
40.4513011348
 20
15.5005201454
 11
41.4513011348
 21
15.5005201454
  0
LINE
  5
21F
100
AcDbEntity
  8
0
100
AcDbLine
 62
7
  6
BYLAYER
 10
25.0513011348
 20
15.7827140795
 11
23.0513011348
 21
15.7827140795
  0
LINE
  5
220
100
AcDbEntity
  8
0
100
AcDbLine
 62
7
  6
BYLAYER
 10
42.4513011348
 20
15.7827140795
 11
44.4513011348
 21
15.7827140795
  0
LINE
  5
221
100
AcDbEntity
  8
0
100
AcDbLine
 62
7
  6
BYLAYER
 10
44.4513011348
 20
16.0178756912
 11
42.4513011348
 21
16.0178756912
  0
LINE
  5
222
100
AcDbEntity
  8
0
100
AcDbLine
 62
7
  6
BYLAYER
 10
23.0513011348
 20
16.0178756912
 11
25.0513011348
 21
16.0178756912
  0
LINE
  5
223
100
AcDbEntity
  8
0
100
AcDbLine
 62
7
  6
BYLAYER
 10
27.7513011348
 20
8.5612240453
 11
28.2513011348
 21
8.0612240453
  0
LINE
  5
224
100
AcDbEntity
  8
0
100
AcDbLine
 62
7
  6
BYLAYER
 10
40.0513011348
 20
22.0612240453
 11
39.7513011348
 21
22.0612240453
  0
LINE
  5
225
100
AcDbEntity
  8
0
100
AcDbLine
 62
7
  6
BYLAYER
 10
27.7513011348
 20
22.0612240453
 11
27.4513011348
 21
22.0612240453
  0
LINE
  5
226
100
AcDbEntity
  8
0
100
AcDbLine
 62
7
  6
BYLAYER
 10
40.4513011348
 20
26.0612240453
 11
40.0513011348
 21
26.0612240453
  0
LINE
  5
227
100
AcDbEntity
  8
0
100
AcDbLine
 62
7
  6
BYLAYER
 10
27.4513011348
 20
26.0612240453
 11
27.0513011348
 21
26.0612240453
  0
LINE
  5
228
100
AcDbEntity
  8
0
100
AcDbLine
 62
7
  6
BYLAYER
 10
27.22287401
 20
64.4901562335
 11
31.8726214783
 21
69.1399037018
  0
LINE
  5
229
100
AcDbEntity
  8
0
100
AcDbLine
 62
7
  6
BYLAYER
 10
32.5797282595
 20
68.4327969206
 11
27.9299807912
 21
63.7830494523
  0
LINE
  5
22A
100
AcDbEntity
  8
0
100
AcDbLine
 62
7
  6
BYLAYER
 10
23.0513011348
 20
15.7827140795
 11
23.0513011348
 21
59.7559084334
  0
LINE
  5
22B
100
AcDbEntity
  8
0
100
AcDbLine
 62
7
  6
BYLAYER
 10
40.4513011348
 20
34.0612240453
 11
40.0513011348
 21
34.0612240453
  0
LINE
  5
22C
100
AcDbEntity
  8
0
100
AcDbLine
 62
7
  6
BYLAYER
 10
27.4513011348
 20
34.0612240453
 11
27.0513011348
 21
34.0612240453
  0
LINE
  5
22D
100
AcDbEntity
  8
0
100
AcDbLine
 62
7
  6
BYLAYER
 10
25.0513011348
 20
59.7559084334
 11
25.0513011348
 21
16.0178756912
  0
LINE
  5
22E
100
AcDbEntity
  8
0
100
AcDbLine
 62
7
  6
BYLAYER
 10
27.7513011348
 20
51.5612240453
 11
28.2513011348
 21
52.0612240453
  0
LINE
  5
22F
100
AcDbEntity
  8
0
100
AcDbLine
 62
7
  6
BYLAYER
 10
40.0513011348
 20
38.0612240453
 11
39.7513011348
 21
38.0612240453
  0
LINE
  5
230
100
AcDbEntity
  8
0
100
AcDbLine
 62
7
  6
BYLAYER
 10
27.7513011348
 20
38.0612240453
 11
27.4513011348
 21
38.0612240453
  0
LINE
  5
231
100
AcDbEntity
  8
0
100
AcDbLine
 62
7
  6
BYLAYER
 10
26.0513011348
 20
7.5612240453
 11
26.0513011348
 21
15.5475524677
  0
LINE
  5
232
100
AcDbEntity
  8
0
100
AcDbLine
 62
7
  6
BYLAYER
 10
26.0513011348
 20
59.692822766
 11
26.0513011348
 21
61.6617291087
  0
LINE
  5
233
100
AcDbEntity
  8
0
100
AcDbLine
 62
7
  6
BYLAYER
 10
27.0513011348
 20
61.6617291087
 11
27.0513011348
 21
7.5612240453
  0
LINE
  5
234
100
AcDbEntity
  8
0
100
AcDbLine
 62
7
  6
BYLAYER
 10
27.4513011348
 20
22.0612240453
 11
27.4513011348
 21
38.0612240453
  0
LINE
  5
235
100
AcDbEntity
  8
0
100
AcDbLine
 62
7
  6
BYLAYER
 10
27.7513011348
 20
8.5612240453
 11
27.7513011348
 21
51.5612240453
  0
LINE
  5
236
100
AcDbEntity
  8
0
100
AcDbLine
 62
7
  6
BYLAYER
 10
28.2513011348
 20
8.0612240453
 11
28.2513011348
 21
52.0612240453
  0
LINE
  5
237
100
AcDbEntity
  8
0
100
AcDbLine
 62
7
  6
BYLAYER
 10
28.654113945
 20
52.0612240453
 11
28.654113945
 21
8.0612240453
  0
LINE
  5
238
100
AcDbEntity
  8
0
100
AcDbLine
 62
7
  6
BYLAYER
 10
37.1320415268
 20
14.4670907032
 11
38.8484883246
 21
8.0612240453
  0
LINE
  5
239
100
AcDbEntity
  8
0
100
AcDbLine
 62
7
  6
BYLAYER
 10
30.3705607427
 20
45.6553573875
 11
30.3705607427
 21
14.4670907032
  0
LINE
  5
23A
100
AcDbEntity
  8
0
100
AcDbLine
 62
7
  6
BYLAYER
 10
28.654113945
 20
52.0612240453
 11
30.3705607427
 21
45.6553573875
  0
LINE
  5
23B
100
AcDbEntity
  8
0
100
AcDbLine
 62
7
  6
BYLAYER
 10
32.7513011348
 20
71.2612240453
 11
32.7513011348
 21
85.5612096021
  0
LINE
  5
23C
100
AcDbEntity
  8
0
100
AcDbLine
 62
7
  6
BYLAYER
 10
33.7513011348
 20
85.5612096021
 11
33.7513011348
 21
71.2612240453
  0
LINE
  5
23D
100
AcDbEntity
  8
0
100
AcDbLine
 62
7
  6
BYLAYER
 10
34.7513011348
 20
85.5612096021
 11
34.7513011348
 21
71.2612240453
  0
LINE
  5
23E
100
AcDbEntity
  8
0
100
AcDbLine
 62
7
  6
BYLAYER
 10
37.1320415268
 20
14.4670907032
 11
37.1320415268
 21
45.6553573875
  0
LINE
  5
23F
100
AcDbEntity
  8
0
100
AcDbLine
 62
7
  6
BYLAYER
 10
38.8484883246
 20
8.0612240453
 11
38.8484883246
 21
52.0612240453
  0
LINE
  5
240
100
AcDbEntity
  8
0
100
AcDbLine
 62
7
  6
BYLAYER
 10
39.2513011348
 20
52.0612240453
 11
39.2513011348
 21
8.0612240453
  0
LINE
  5
241
100
AcDbEntity
  8
0
100
AcDbLine
 62
7
  6
BYLAYER
 10
37.1320415268
 20
45.6553573875
 11
38.8484883246
 21
52.0612240453
  0
LINE
  5
242
100
AcDbEntity
  8
0
100
AcDbLine
 62
7
  6
BYLAYER
 10
28.654113945
 20
8.0612240453
 11
30.3705607427
 21
14.4670907032
  0
LINE
  5
243
100
AcDbEntity
  8
0
100
AcDbLine
 62
7
  6
BYLAYER
 10
39.2513011348
 20
52.0612240453
 11
38.8484883246
 21
52.0612240453
  0
LINE
  5
244
100
AcDbEntity
  8
0
100
AcDbLine
 62
7
  6
BYLAYER
 10
28.654113945
 20
52.0612240453
 11
28.2513011348
 21
52.0612240453
  0
LINE
  5
245
100
AcDbEntity
  8
0
100
AcDbLine
 62
7
  6
BYLAYER
 10
39.7513011348
 20
51.5612240453
 11
39.7513011348
 21
8.5612240453
  0
LINE
  5
246
100
AcDbEntity
  8
0
100
AcDbLine
 62
7
  6
BYLAYER
 10
40.0513011348
 20
38.0612240453
 11
40.0513011348
 21
22.0612240453
  0
LINE
  5
247
100
AcDbEntity
  8
0
100
AcDbLine
 62
7
  6
BYLAYER
 10
40.4513011348
 20
7.5612240453
 11
40.4513011348
 21
61.6617291087
  0
LINE
  5
248
100
AcDbEntity
  8
0
100
AcDbLine
 62
7
  6
BYLAYER
 10
41.4513011348
 20
61.6617291087
 11
41.4513011348
 21
59.6928187944
  0
LINE
  5
249
100
AcDbEntity
  8
0
100
AcDbLine
 62
7
  6
BYLAYER
 10
41.4513011348
 20
15.5475524677
 11
41.4513011348
 21
7.5612240453
  0
LINE
  5
24A
100
AcDbEntity
  8
0
100
AcDbLine
 62
7
  6
BYLAYER
 10
39.2513011348
 20
52.0612240453
 11
39.7513011348
 21
51.5612240453
  0
LINE
  5
24B
100
AcDbEntity
  8
0
100
AcDbLine
 62
7
  6
BYLAYER
 10
42.4513011348
 20
16.0178756912
 11
42.4513011348
 21
59.7559084334
  0
LINE
  5
24C
100
AcDbEntity
  8
0
100
AcDbLine
 62
7
  6
BYLAYER
 10
44.4513011348
 20
59.7559084334
 11
44.4513011348
 21
15.7827140795
  0
LINE
  5
24D
100
AcDbEntity
  8
0
100
AcDbLine
 62
7
  6
BYLAYER
 10
44.4513011348
 20
59.7559084334
 11
42.4513011348
 21
59.7559084334
  0
LINE
  5
24E
100
AcDbEntity
  8
0
100
AcDbLine
 62
7
  6
BYLAYER
 10
23.0513011348
 20
59.7559084334
 11
25.0513011348
 21
59.7559084334
  0
LINE
  5
24F
100
AcDbEntity
  8
0
100
AcDbLine
 62
7
  6
BYLAYER
 10
34.92287401
 20
68.4327969206
 11
39.5726214783
 21
63.7830494523
  0
LINE
  5
250
100
AcDbEntity
  8
0
100
AcDbLine
 62
7
  6
BYLAYER
 10
40.2797282595
 20
64.4901562335
 11
35.6299807912
 21
69.1399037018
  0
LINE
  5
251
100
AcDbEntity
  8
0
100
AcDbLine
 62
7
  6
BYLAYER
 10
39.2513011348
 20
8.0612240453
 11
39.7513011348
 21
8.5612240453
  0
LINE
  5
252
100
AcDbEntity
  8
0
100
AcDbLine
 62
7
  6
BYLAYER
 10
32.7513011348
 20
78.6776785508
 11
34.7513011348
 21
78.6776785508
  0
LINE
  5
253
100
AcDbEntity
  8
0
100
AcDbLine
 62
7
  6
BYLAYER
 10
32.7513011348
 20
85.5612240453
 11
34.7513011348
 21
85.5612240453
  0
ARC
  5
254
100
AcDbEntity
  8
0
100
AcDbCircle
 62
7
  6
BYLAYER
 10
30.0513011348
 20
61.6617291087
 40
4.0
100
AcDbArc
 50
135.0000000001
 51
180.0
  0
ARC
  5
255
100
AcDbEntity
  8
0
100
AcDbCircle
 62
7
  6
BYLAYER
 10
29.7513011348
 20
71.2612240453
 40
4.0
100
AcDbArc
 50
315.0
 51
360.0
  0
ARC
  5
256
100
AcDbEntity
  8
0
100
AcDbCircle
 62
7
  6
BYLAYER
 10
37.7513011348
 20
71.2612240453
 40
4.0
100
AcDbArc
 50
180.0
 51
225.0
  0
ARC
  5
257
100
AcDbEntity
  8
0
100
AcDbCircle
 62
7
  6
BYLAYER
 10
37.4513011348
 20
61.6617291087
 40
4.0
100
AcDbArc
 50
0.0
 51
44.9999999999
  0
ARC
  5
258
100
AcDbEntity
  8
0
100
AcDbCircle
 62
7
  6
BYLAYER
 10
33.7513011348
 20
13.5612240453
 40
3.5
100
AcDbArc
 50
15.0
 51
165.0
  0
ARC
  5
259
100
AcDbEntity
  8
0
100
AcDbCircle
 62
7
  6
BYLAYER
 10
33.7513011348
 20
46.5612240453
 40
3.5
100
AcDbArc
 50
195.0
 51
345.0
  0
ARC
  5
25A
100
AcDbEntity
  8
0
100
AcDbCircle
 62
7
  6
BYLAYER
 10
30.0513011348
 20
61.6617291087
 40
3.0
100
AcDbArc
 50
135.0
 51
180.0
  0
ARC
  5
25B
100
AcDbEntity
  8
0
100
AcDbCircle
 62
7
  6
BYLAYER
 10
29.7513011348
 20
71.2612240453
 40
3.0
100
AcDbArc
 50
315.0
 51
360.0
  0
ARC
  5
25C
100
AcDbEntity
  8
0
100
AcDbCircle
 62
7
  6
BYLAYER
 10
37.4513011348
 20
61.6617291087
 40
3.0
100
AcDbArc
 50
0.0
 51
45.0
  0
ARC
  5
25D
100
AcDbEntity
  8
0
100
AcDbCircle
 62
7
  6
BYLAYER
 10
37.7513011348
 20
71.2612240453
 40
3.0
100
AcDbArc
 50
180.0
 51
225.0
  0
SPLINE
  5
25E
100
AcDbEntity
  8
0
100
AcDbSpline
 62
7
  6
BYLAYER
 70
0
 71
3
 72
18
 73
14
 74
0
 42
0.0000001
 43
0.0000001
 44
0.0000000001
 40
0.0
 40
0.0
 40
0.0
 40
0.0
 40
0.183081752
 40
0.3598726342
 40
0.5234509362
 40
0.6683197405
 40
0.7898142215
 40
0.8406869399
 40
0.884693072
 40
0.9218568179
 40
0.9525759286
 40
0.9779319738
 40
1.0
 40
1.0
 40
1.0
 40
1.0
 10
25.0513011348
 20
15.7827140795
 30
0.0
 10
25.1162946403
 20
15.7827140795
 30
0.0
 10
25.2440690958
 20
15.7797853322
 30
0.0
 10
25.4295093784
 20
15.766842159
 30
0.0
 10
25.6005866905
 20
15.7458275938
 30
0.0
 10
25.7506811616
 20
15.7176026264
 30
0.0
 10
25.8595263363
 20
15.6877550603
 30
0.0
 10
25.9312423758
 20
15.6600532015
 30
0.0
 10
25.9734419735
 20
15.6394805159
 30
0.0
 10
26.0070150907
 20
15.6180239427
 30
0.0
 10
26.0317139702
 20
15.5956703507
 30
0.0
 10
26.0474198181
 20
15.5723269649
 30
0.0
 10
26.0513011348
 20
15.5553865548
 30
0.0
 10
26.0513011348
 20
15.5475524678
 30
0.0
  0
SPLINE
  5
25F
100
AcDbEntity
  8
0
100
AcDbSpline
 62
7
  6
BYLAYER
 70
0
 71
3
 72
19
 73
15
 74
0
 42
0.0000001
 43
0.0000001
 44
0.0000000001
 40
0.0
 40
0.0
 40
0.0
 40
0.0
 40
0.1831659053
 40
0.3598334672
 40
0.5233978944
 40
0.6683129779
 40
0.732234174
 40
0.7898174935
 40
0.8407023531
 40
0.8846896641
 40
0.9218449126
 40
0.9525636902
 40
0.9779161049
 40
1.0
 40
1.0
 40
1.0
 40
1.0
 10
25.0513011348
 20
59.7559084334
 30
0.0
 10
25.1813553638
 20
59.7559084334
 30
0.0
 10
25.4368884068
 20
59.7500777688
 30
0.0
 10
25.8077665505
 20
59.7241648918
 30
0.0
 10
26.1498215092
 20
59.6820774231
 30
0.0
 10
26.4099987775
 20
59.6333721036
 30
0.0
 10
26.5932776265
 20
59.5862696099
 30
0.0
 10
26.7101397395
 20
59.5496339548
 30
0.0
 10
26.811203995
 20
59.5105824508
 30
0.0
 10
26.8955902572
 20
59.4694224031
 30
0.0
 10
26.9627288245
 20
59.4265341752
 30
0.0
 10
27.0121730991
 20
59.3818821786
 30
0.0
 10
27.0435696418
 20
59.3351608365
 30
0.0
 10
27.0513011348
 20
59.3012655515
 30
0.0
 10
27.0513011348
 20
59.28558521
 30
0.0
  0
SPLINE
  5
260
100
AcDbEntity
  8
0
100
AcDbSpline
 62
7
  6
BYLAYER
 70
0
 71
3
 72
19
 73
15
 74
0
 42
0.0000001
 43
0.0000001
 44
0.0000000001
 40
0.0
 40
0.0
 40
0.0
 40
0.0
 40
0.0220838902
 40
0.0474362895
 40
0.0781550495
 40
0.1153102725
 40
0.1592975594
 40
0.2101824049
 40
0.2677657016
 40
0.3316868868
 40
0.4766019551
 40
0.6401663941
 40
0.8168340432
 40
1.0
 40
1.0
 40
1.0
 40
1.0
 10
27.0513011348
 20
15.5475524678
 30
0.0
 10
27.0513011348
 20
15.5632328059
 30
0.0
 10
27.0435696624
 20
15.5971280783
 30
0.0
 10
27.0121731507
 20
15.6438494128
 30
0.0
 10
26.9627288964
 20
15.6885013702
 30
0.0
 10
26.8955903841
 20
15.7313895925
 30
0.0
 10
26.8112041691
 20
15.7725496376
 30
0.0
 10
26.7101399559
 20
15.8116011315
 30
0.0
 10
26.5932778836
 20
15.8482368049
 30
0.0
 10
26.4099990675
 20
15.895339292
 30
0.0
 10
26.1498218139
 20
15.9440446389
 30
0.0
 10
25.8077667953
 20
15.9861321288
 30
0.0
 10
25.4368885434
 20
16.0120450125
 30
0.0
 10
25.181355401
 20
16.0178756912
 30
0.0
 10
25.0513011348
 20
16.0178756912
 30
0.0
  0
SPLINE
  5
261
100
AcDbEntity
  8
0
100
AcDbSpline
 62
7
  6
BYLAYER
 70
0
 71
3
 72
18
 73
14
 74
0
 42
0.0000001
 43
0.0000001
 44
0.0000000001
 40
0.0
 40
0.0
 40
0.0
 40
0.0
 40
0.0220680369
 40
0.0474241195
 40
0.0781432766
 40
0.1153070708
 40
0.1593132713
 40
0.210186043
 40
0.3316805853
 40
0.4765494457
 40
0.6401276924
 40
0.8169183507
 40
1.0
 40
1.0
 40
1.0
 40
1.0
 10
41.4513011348
 20
15.5475524678
 30
0.0
 10
41.4513011348
 20
15.5553865585
 30
0.0
 10
41.4551824766
 20
15.5723269837
 30
0.0
 10
41.4708883693
 20
15.5956703764
 30
0.0
 10
41.4955872818
 20
15.6180239985
 30
0.0
 10
41.5291604451
 20
15.6394806084
 30
0.0
 10
41.5713601115
 20
15.6600532906
 30
0.0
 10
41.6430762175
 20
15.6877551518
 30
0.0
 10
41.751921457
 20
15.7176027048
 30
0.0
 10
41.9020159514
 20
15.7458276529
 30
0.0
 10
42.0730931853
 20
15.7668421788
 30
0.0
 10
42.2585333286
 20
15.7797853547
 30
0.0
 10
42.3863076667
 20
15.7827140795
 30
0.0
 10
42.4513011348
 20
15.7827140795
 30
0.0
  0
SPLINE
  5
262
100
AcDbEntity
  8
0
100
AcDbSpline
 62
7
  6
BYLAYER
 70
0
 71
3
 72
19
 73
15
 74
0
 42
0.0000001
 43
0.0000001
 44
0.0000000001
 40
0.0
 40
0.0
 40
0.0
 40
0.0
 40
0.0220838902
 40
0.0474362895
 40
0.0781550495
 40
0.1153102725
 40
0.1592975594
 40
0.2101824049
 40
0.2677657016
 40
0.3316868868
 40
0.4766019551
 40
0.6401663941
 40
0.8168340432
 40
1.0
 40
1.0
 40
1.0
 40
1.0
 10
40.4513011348
 20
59.28558521
 30
0.0
 10
40.4513011348
 20
59.3012655481
 30
0.0
 10
40.4590326072
 20
59.3351608205
 30
0.0
 10
40.4904291188
 20
59.381882155
 30
0.0
 10
40.5398733731
 20
59.4265341124
 30
0.0
 10
40.6070118854
 20
59.4694223347
 30
0.0
 10
40.6913981004
 20
59.5105823798
 30
0.0
 10
40.7924623136
 20
59.5496338737
 30
0.0
 10
40.9093243859
 20
59.5862695471
 30
0.0
 10
41.0926032021
 20
59.6333720342
 30
0.0
 10
41.3527804556
 20
59.6820773811
 30
0.0
 10
41.6948354742
 20
59.724164871
 30
0.0
 10
42.0657137262
 20
59.7500777547
 30
0.0
 10
42.3212468685
 20
59.7559084334
 30
0.0
 10
42.4513011348
 20
59.7559084334
 30
0.0
  0
SPLINE
  5
263
100
AcDbEntity
  8
0
100
AcDbSpline
 62
7
  6
BYLAYER
 70
0
 71
3
 72
19
 73
15
 74
0
 42
0.0000001
 43
0.0000001
 44
0.0000000001
 40
0.0
 40
0.0
 40
0.0
 40
0.0
 40
0.1831659053
 40
0.3598334672
 40
0.5233978944
 40
0.6683129779
 40
0.732234174
 40
0.7898174935
 40
0.8407023531
 40
0.8846896641
 40
0.9218449126
 40
0.9525636902
 40
0.9779161049
 40
1.0
 40
1.0
 40
1.0
 40
1.0
 10
42.4513011348
 20
16.0178756912
 30
0.0
 10
42.3212469057
 20
16.0178756912
 30
0.0
 10
42.0657138627
 20
16.0120450266
 30
0.0
 10
41.694835719
 20
15.9861321496
 30
0.0
 10
41.3527807604
 20
15.9440446809
 30
0.0
 10
41.092603492
 20
15.8953393614
 30
0.0
 10
40.909324643
 20
15.8482368677
 30
0.0
 10
40.7924625301
 20
15.8116012126
 30
0.0
 10
40.6913982745
 20
15.7725497086
 30
0.0
 10
40.6070120123
 20
15.7313896609
 30
0.0
 10
40.539873445
 20
15.688501433
 30
0.0
 10
40.4904291704
 20
15.6438494364
 30
0.0
 10
40.4590326277
 20
15.5971280943
 30
0.0
 10
40.4513011348
 20
15.5632328093
 30
0.0
 10
40.4513011348
 20
15.5475524678
 30
0.0
  0
ENDSEC
  0
SECTION
  2
OBJECTS
  0
DICTIONARY
  5
C
100
AcDbDictionary
280
0
281
1
  3
ACAD_GROUP
350
D
  3
ACAD_MLINESTYLE
350
17
  3
ACAD_LAYOUT
350
1A
  3
ACAD_PLOTSETTINGS
350
19
  3
ACAD_PLOTSTYLENAME
350
E
  0
DICTIONARY
  5
D
102
{ACAD_REACTORS
330
C
102
}
100
AcDbDictionary
280
0
281
1
  0
ACDBDICTIONARYWDFLT
  5
E
102
{ACAD_REACTORS
330
C
102
}
100
AcDbDictionary
281
1
  3
Normal
350
F
100
AcDbDictionaryWithDefault
340
F
  0
DICTIONARY
  5
17
102
{ACAD_REACTORS
330
C
102
}
100
AcDbDictionary
280
0
281
1
  3
Standard
350
18
  0
DICTIONARY
  5
19
102
{ACAD_REACTORS
330
C
102
}
100
AcDbDictionary
281
1
  0
DICTIONARY
  5
1A
102
{ACAD_REACTORS
330
C
102
}
100
AcDbDictionary
281
1
  3
Model
350
264
  3
Layout1
350
265
  0
ACDBPLACEHOLDER
  5
F
102
{ACAD_REACTORS
330
E
102
}
  0
MLINESTYLE
  5
18
102
{ACAD_REACTORS
330
17
102
}
100
AcDbMlineStyle
  2
STANDARD
 70
0
  3

 62
256
 51
90.0
 52
90.0
 71
2
 49
0.5
 62
256
  6
BYLAYER
 49
-0.5
 62
256
  6
BYLAYER
  0
LAYOUT
  5
264
102
{ACAD_REACTORS
330
1A
102
}
100
AcDbPlotSettings
  1

  2
none_device
  4

  6

 40
0.0
 41
0.0
 42
0.0
 43
0.0
 44
210.0
 45
297.0
 46
0.0
 47
0.0
 48
0.0
 49
0.0
140
0.0
141
0.0
142
1.0
143
1.0
 70
1024
 72
1
 73
0
 74
0
  7

 75
0
147
1.0
148
0.0
149
0.0
100
AcDbLayout
  1
Model
 70
0
 71
0
 10
0.0
 20
0.0
 11
210.0
 21
297.0
 12
0.0
 22
0.0
 32
0.0
 14
0.0
 24
0.0
 34
0.0
 15
0.0
 25
0.0
 35
0.0
146
0.0
 13
0.0
 23
0.0
 33
0.0
 16
1.0
 26
0.0
 36
0.0
 17
0.0
 27
1.0
 37
0.0
 76
0
330
210
345
0
346
0
  0
LAYOUT
  5
265
102
{ACAD_REACTORS
330
1A
102
}
100
AcDbPlotSettings
  1

  2
none_device
  4

  6

 40
0.0
 41
0.0
 42
0.0
 43
0.0
 44
210.0
 45
297.0
 46
0.0
 47
0.0
 48
0.0
 49
0.0
140
0.0
141
0.0
142
1.0
143
1.0
 70
0
 72
1
 73
0
 74
0
  7

 75
0
147
1.0
148
0.0
149
0.0
100
AcDbLayout
  1
Layout1
 70
0
 71
1
 10
0.0
 20
0.0
 11
210.0
 21
297.0
 12
0.0
 22
0.0
 32
0.0
 14
0.0
 24
0.0
 34
0.0
 15
0.0
 25
0.0
 35
0.0
146
0.0
 13
0.0
 23
0.0
 33
0.0
 16
1.0
 26
0.0
 36
0.0
 17
0.0
 27
1.0
 37
0.0
 76
0
330
211
345
0
346
0
  0
ENDSEC
  0
EOF
