999
DXF file: C:\2D\Gen2D\CAD\LR9G115\drw0001_2.dxf
999
Pro/ENGINEER 2019471 by Parametric Technology Corporation
  0
SECTION
  2
HEADER
  9
$ACADVER
  1
AC1024
  9
$DWGCODEPAGE
  3
ANSI_1252
  9
$EXTMAX
 10
133.0292687221
 20
188.1413943355
 30
0.0
  9
$EXTMIN
 10
0.0
 20
0.0
 30
0.0
  9
$LIMMIN
 10
0.0
 20
0.0
  9
$LIMMAX
 10
133.0292687221
 20
188.1413943355
  9
$VIEWCTR
 10
66.514634361
 20
94.0706971678
  9
$VIEWSIZE
 40
188.1413943355
  9
$CLAYER
  8
0
  9
$LTSCALE
 40
12.2640316308
  9
$CELTYPE
  6
BYLAYER
  9
$DIMSCALE
 40
1.0
  9
$DIMASZ
 40
1.5836817705
  9
$DIMEXO
 40
1.0
  9
$DIMDLI
 40
8.4733309449
  9
$DIMEXE
 40
1.0
  9
$DIMCEN
 40
2.0068415396
  9
$DIMLFAC
 40
1.0
  9
$DIMBLK
  1
_FILLED
  9
$DIMALT
 70
0
  9
$DIMALTF
 40
0.0393700787
  9
$DIMTXT
 40
2.2171544787
  9
$DIMTOL
 70
1
  9
$DIMLIM
 70
0
  9
$DIMTFAC
 40
1.0
  9
$DIMTP
 40
0.01
  9
$DIMTM
 40
0.01
  9
$DIMGAP
 40
0.625
  9
$DIMDSEP
 70
46
  9
$AUNITS
 70
0
  9
$PDMODE
 70
3
  9
$PDSIZE
 40
0.3125
  9
$HANDSEED
  5
348
  9
$TILEMODE
 70
1
  9
$MEASUREMENT
 70
1
  9
$INSUNITS
 70
4
  0
ENDSEC
  0
SECTION
  2
CLASSES
  0
CLASS
  1
ACDBDICTIONARYWDFLT
  2
AcDbDictionaryWithDefault
  3
AutoCAD 2000
 90
0
 91
1
280
0
281
0
  0
CLASS
  1
ACDBPLACEHOLDER
  2
AcDbPlaceHolder
  3
AutoCAD 2000
 90
0
 91
1
280
0
281
0
  0
CLASS
  1
LAYOUT
  2
AcDbLayout
  3
AutoCAD 2000
 90
0
 91
0
280
0
281
0
  0
ENDSEC
  0
SECTION
  2
TABLES
  0
TABLE
  2
VPORT
  5
8
100
AcDbSymbolTable
 70
2
  0
VPORT
  5
1F4
100
AcDbSymbolTableRecord
100
AcDbViewportTableRecord
  2
*ACTIVE
 70
0
 10
0.0
 20
0.0
 11
1.0
 21
1.0
 12
66.514634361
 22
94.0706971678
 13
0.0
 23
0.0
 14
1.0
 24
1.0
 15
0.0
 25
0.0
 16
0.0
 26
0.0
 36
1.0
 17
0.0
 27
0.0
 37
0.0
 40
188.1413943355
 41
0.7070707071
 42
50.0
 43
0.0
 44
0.0
 50
0.0
 51
0.0
 71
0
 72
100
 73
1
 74
1
 75
0
 76
0
 77
0
 78
0
  0
ENDTAB
  0
TABLE
  2
LTYPE
  5
5
100
AcDbSymbolTable
 70
6
  0
LTYPE
  5
14
100
AcDbSymbolTableRecord
100
AcDbLinetypeTableRecord
  2
BYBLOCK
 70
0
  3

 72
65
 73
0
 40
0.0
  0
LTYPE
  5
15
100
AcDbSymbolTableRecord
100
AcDbLinetypeTableRecord
  2
BYLAYER
 70
0
  3

 72
65
 73
0
 40
0.0
  0
LTYPE
  5
16
100
AcDbSymbolTableRecord
100
AcDbLinetypeTableRecord
  2
CONTINUOUS
 70
64
  3
Solid line
 72
65
 73
0
 40
0.0
  0
LTYPE
  5
1F5
100
AcDbSymbolTableRecord
100
AcDbLinetypeTableRecord
  2
CENTER
 70
64
  3
____ _ ____ _ ____ _ ____ _ ____ _ ____ _ ____
 72
65
 73
4
 40
0.6
 49
0.375
 74
0
 49
-0.075
 74
0
 49
0.075
 74
0
 49
-0.075
 74
0
  0
LTYPE
  5
1F6
100
AcDbSymbolTableRecord
100
AcDbLinetypeTableRecord
  2
HIDDEN
 70
64
  3
- - - - - - - - - - - - - - - - - - - -
 72
65
 73
2
 40
0.2
 49
0.1
 74
0
 49
-0.1
 74
0
  0
LTYPE
  5
1F7
100
AcDbSymbolTableRecord
100
AcDbLinetypeTableRecord
  2
PHANTOM
 70
64
  3
_____ _ _ _____ _ _ _____ _ _ _____
 72
65
 73
6
 40
0.8
 49
0.45
 74
0
 49
-0.05
 74
0
 49
0.1
 74
0
 49
-0.05
 74
0
 49
0.1
 74
0
 49
-0.05
 74
0
  0
LTYPE
  5
1F8
100
AcDbSymbolTableRecord
100
AcDbLinetypeTableRecord
  2
DOT
 70
64
  3
. . . . . . . . . . . . . . . . . . . .
 72
65
 73
2
 40
0.2
 49
0.1
 74
0
 49
-0.1
 74
0
  0
LTYPE
  5
1F9
100
AcDbSymbolTableRecord
100
AcDbLinetypeTableRecord
  2
DASHED
 70
64
  3
- - - - - - - - - - - - - - - - - - - -
 72
65
 73
2
 40
0.2
 49
0.1
 74
0
 49
-0.1
 74
0
  0
ENDTAB
  0
TABLE
  2
LAYER
  5
2
100
AcDbSymbolTable
 70
36
  0
LAYER
  5
10
100
AcDbSymbolTableRecord
100
AcDbLayerTableRecord
  2
0
 70
0
 62
7
  6
CONTINUOUS
370
-3
390
F
  0
LAYER
  5
1FA
100
AcDbSymbolTableRecord
100
AcDbLayerTableRecord
  2
DEFAULT_1
 70
0
 62
7
  6
CENTER
370
-3
390
F
  0
LAYER
  5
1FB
100
AcDbSymbolTableRecord
100
AcDbLayerTableRecord
  2
DEFAULT_2
 70
0
 62
8
  6
HIDDEN
370
-3
390
F
  0
LAYER
  5
1FC
100
AcDbSymbolTableRecord
100
AcDbLayerTableRecord
  2
DEFAULT_3
 70
0
 62
7
  6
PHANTOM
370
-3
390
F
  0
LAYER
  5
1FD
100
AcDbSymbolTableRecord
100
AcDbLayerTableRecord
  2
00_COMPONENTS
 70
0
 62
7
  6
CONTINUOUS
370
-3
390
F
  0
LAYER
  5
1FE
100
AcDbSymbolTableRecord
100
AcDbLayerTableRecord
  2
01_1_DEFAULT_DATUMS
 70
0
 62
7
  6
CONTINUOUS
370
-3
390
F
  0
LAYER
  5
1FF
100
AcDbSymbolTableRecord
100
AcDbLayerTableRecord
  2
01_PLANES
 70
0
 62
7
  6
CONTINUOUS
370
-3
390
F
  0
LAYER
  5
200
100
AcDbSymbolTableRecord
100
AcDbLayerTableRecord
  2
02_COORD_SYS
 70
0
 62
7
  6
CONTINUOUS
370
-3
390
F
  0
LAYER
  5
201
100
AcDbSymbolTableRecord
100
AcDbLayerTableRecord
  2
03_AXES
 70
0
 62
7
  6
CONTINUOUS
370
-3
390
F
  0
LAYER
  5
202
100
AcDbSymbolTableRecord
100
AcDbLayerTableRecord
  2
04_POINTS
 70
0
 62
7
  6
CONTINUOUS
370
-3
390
F
  0
LAYER
  5
203
100
AcDbSymbolTableRecord
100
AcDbLayerTableRecord
  2
05_CURVES
 70
0
 62
7
  6
CONTINUOUS
370
-3
390
F
  0
LAYER
  5
204
100
AcDbSymbolTableRecord
100
AcDbLayerTableRecord
  2
06_SURFS
 70
0
 62
7
  6
CONTINUOUS
370
-3
390
F
  0
LAYER
  5
205
100
AcDbSymbolTableRecord
100
AcDbLayerTableRecord
  2
07_COSMETICS
 70
0
 62
7
  6
CONTINUOUS
370
-3
390
F
  0
LAYER
  5
206
100
AcDbSymbolTableRecord
100
AcDbLayerTableRecord
  2
10_NOTES
 70
0
 62
7
  6
CONTINUOUS
370
-3
390
F
  0
LAYER
  5
207
100
AcDbSymbolTableRecord
100
AcDbLayerTableRecord
  2
11_NOTES_PUB
 70
0
 62
7
  6
CONTINUOUS
370
-3
390
F
  0
LAYER
  5
208
100
AcDbSymbolTableRecord
100
AcDbLayerTableRecord
  2
13_REF_GTOL
 70
0
 62
7
  6
CONTINUOUS
370
-3
390
F
  0
LAYER
  5
209
100
AcDbSymbolTableRecord
100
AcDbLayerTableRecord
  2
16_MISC
 70
0
 62
7
  6
CONTINUOUS
370
-3
390
F
  0
LAYER
  5
20A
100
AcDbSymbolTableRecord
100
AcDbLayerTableRecord
  2
17_NO_PRINT
 70
0
 62
7
  6
CONTINUOUS
370
-3
390
F
  0
LAYER
  5
20B
100
AcDbSymbolTableRecord
100
AcDbLayerTableRecord
  2
18_DATUM_CAMS_JOINTS
 70
0
 62
7
  6
CONTINUOUS
370
-3
390
F
  0
LAYER
  5
20C
100
AcDbSymbolTableRecord
100
AcDbLayerTableRecord
  2
19_DATUM_FUNCTIONAL
 70
0
 62
7
  6
CONTINUOUS
370
-3
390
F
  0
LAYER
  5
20D
100
AcDbSymbolTableRecord
100
AcDbLayerTableRecord
  2
20_DATUM_KINEMATIC_SCHEME
 70
0
 62
7
  6
CONTINUOUS
370
-3
390
F
  0
ENDTAB
  0
TABLE
  2
STYLE
  5
3
100
AcDbSymbolTable
 70
1
  0
STYLE
  5
11
100
AcDbSymbolTableRecord
100
AcDbTextStyleTableRecord
  2
STANDARD
 70
0
 40
0.0
 41
0.8
 50
0.0
 71
0
 42
0.2
  3
txt
  4

  0
STYLE
  5
20E
100
AcDbSymbolTableRecord
100
AcDbTextStyleTableRecord
  2
TEXTSTYLE_1
 70
0
 40
0.0
 41
0.8
 50
0.0
 71
0
 42
0.2
  3
gdt
  4

  0
ENDTAB
  0
TABLE
  2
VIEW
  5
6
100
AcDbSymbolTable
 70
0
  0
ENDTAB
  0
TABLE
  2
UCS
  5
7
100
AcDbSymbolTable
 70
0
  0
ENDTAB
  0
TABLE
  2
APPID
  5
9
100
AcDbSymbolTable
 70
1
  0
APPID
  5
20F
100
AcDbSymbolTableRecord
100
AcDbRegAppTableRecord
  2
ACAD
 70
0
  0
ENDTAB
  0
TABLE
  2
BLOCK_RECORD
  5
1
100
AcDbSymbolTable
 70
0
  0
BLOCK_RECORD
  5
210
100
AcDbSymbolTableRecord
100
AcDbBlockTableRecord
  2
*Model_Space
  0
BLOCK_RECORD
  5
211
100
AcDbSymbolTableRecord
100
AcDbBlockTableRecord
  2
*Paper_Space
  0
BLOCK_RECORD
  5
212
100
AcDbSymbolTableRecord
100
AcDbBlockTableRecord
  2
_FILLED
  0
ENDTAB
  0
TABLE
  2
DIMSTYLE
  5
A
100
AcDbSymbolTable
 70
1
100
AcDbDimStyleTable
 71
0
  0
DIMSTYLE
105
213
100
AcDbSymbolTableRecord
100
AcDbDimStyleTableRecord
  2
STANDARD
 70
0
  3

  4

 40
1.0
 41
1.5836817705
 42
1.0
 43
0.38
 44
1.0
 45
0.0
 46
0.0
 47
0.01
 48
0.01
140
2.2171544787
141
0.09
142
0.0
143
25.4
144
1.0
145
0.0
146
1.0
147
0.625
 71
1
 72
0
 73
0
 74
0
 75
0
 76
0
 77
1
 78
8
 79
2
170
0
171
1
172
0
173
0
174
0
175
0
176
0
177
0
178
0
270
2
179
2
271
2
272
2
273
2
274
2
275
0
280
0
281
0
282
0
283
1
284
8
285
0
286
0
287
3
288
0
340
11
278
46
341
212
342
212
343
212
344
212
  0
ENDTAB
  0
ENDSEC
  0
SECTION
  2
BLOCKS
  0
BLOCK
  5
20
100
AcDbEntity
  8
0
100
AcDbBlockBegin
  2
*Model_Space
 70
0
 10
0.0
 20
0.0
 30
0.0
  3
*Model_Space
  1

  0
ENDBLK
  5
21
100
AcDbEntity
  8
0
100
AcDbBlockEnd
  0
BLOCK
  5
1C
100
AcDbEntity
  8
0
100
AcDbBlockBegin
  2
*Paper_Space
 70
0
 10
0.0
 20
0.0
 30
0.0
  3
*Paper_Space
  1

  0
ENDBLK
  5
1D
100
AcDbEntity
  8
0
100
AcDbBlockEnd
  0
BLOCK
  5
214
100
AcDbEntity
  8
0
100
AcDbBlockBegin
  2
_FILLED
 70
64
 10
0.0
 20
0.0
  3
_FILLED
  1

  0
SOLID
  5
215
100
AcDbEntity
  8
0
  6
BYBLOCK
 62
0
100
AcDbTrace
 10
0.0
 20
0.0
 11
-1.0
 21
0.25
 12
-1.0
 22
-0.25
 13
-1.0
 23
-0.25
  0
ENDBLK
  5
216
100
AcDbEntity
  8
0
  6
BYBLOCK
 62
0
100
AcDbBlockEnd
  0
ENDSEC
  0
SECTION
  2
ENTITIES
  0
LINE
  5
217
100
AcDbEntity
  8
0
100
AcDbLine
 62
7
  6
CONTINUOUS
 10
14.5857672586
 20
49.3252572333
 11
14.5857672586
 21
127.9752572333
  0
LINE
  5
218
100
AcDbEntity
  8
0
100
AcDbLine
 62
7
  6
CONTINUOUS
 10
14.5857672586
 20
128.5752572333
 11
14.5857672586
 21
137.7252572333
  0
LINE
  5
219
100
AcDbEntity
  8
0
100
AcDbLine
 62
7
  6
CONTINUOUS
 10
15.3857672586
 20
138.0252572333
 11
15.3857672586
 21
128.2752572333
  0
LINE
  5
21A
100
AcDbEntity
  8
0
100
AcDbLine
 62
7
  6
CONTINUOUS
 10
15.3857672586
 20
127.9752572333
 11
15.3857672586
 21
49.3252572333
  0
LINE
  5
21B
100
AcDbEntity
  8
0
100
AcDbLine
 62
7
  6
CONTINUOUS
 10
16.7357672586
 20
40.4252572333
 11
16.7357672586
 21
49.3252572333
  0
LINE
  5
21C
100
AcDbEntity
  8
0
100
AcDbLine
 62
7
  6
CONTINUOUS
 10
16.7357672586
 20
138.0252572333
 11
16.7357672586
 21
147.0252572333
  0
LINE
  5
21D
100
AcDbEntity
  8
0
100
AcDbLine
 62
7
  6
CONTINUOUS
 10
17.0357672586
 20
147.3252572333
 11
17.0357672586
 21
138.0252572333
  0
LINE
  5
21E
100
AcDbEntity
  8
0
100
AcDbLine
 62
7
  6
CONTINUOUS
 10
17.0357672586
 20
49.3252572333
 11
17.0357672586
 21
40.1252572333
  0
LINE
  5
21F
100
AcDbEntity
  8
0
100
AcDbLine
 62
7
  6
CONTINUOUS
 10
17.2390993583
 20
128.5752572333
 11
17.2390993583
 21
137.7252572333
  0
LINE
  5
220
100
AcDbEntity
  8
0
100
AcDbLine
 62
7
  6
CONTINUOUS
 10
17.5857672586
 20
128.2752572333
 11
17.5857672586
 21
127.9752572333
  0
LINE
  5
221
100
AcDbEntity
  8
0
100
AcDbLine
 62
7
  6
CONTINUOUS
 10
117.8357672586
 20
40.1252572333
 11
86.1857672586
 21
40.1252572333
  0
LINE
  5
222
100
AcDbEntity
  8
0
100
AcDbLine
 62
7
  6
CONTINUOUS
 10
83.6857672586
 20
40.1252572333
 11
51.1857672586
 21
40.1252572333
  0
LINE
  5
223
100
AcDbEntity
  8
0
100
AcDbLine
 62
7
  6
CONTINUOUS
 10
48.6857672586
 20
40.1252572333
 11
17.0357672586
 21
40.1252572333
  0
LINE
  5
224
100
AcDbEntity
  8
0
100
AcDbLine
 62
7
  6
CONTINUOUS
 10
16.7357672586
 20
40.4252572333
 11
47.1103329358
 21
40.4252572333
  0
LINE
  5
225
100
AcDbEntity
  8
0
100
AcDbLine
 62
7
  6
CONTINUOUS
 10
52.7612015815
 20
40.4252572333
 11
82.1103329358
 21
40.4252572333
  0
LINE
  5
226
100
AcDbEntity
  8
0
100
AcDbLine
 62
7
  6
CONTINUOUS
 10
87.7612015815
 20
40.4252572333
 11
118.1357672586
 21
40.4252572333
  0
LINE
  5
227
100
AcDbEntity
  8
0
100
AcDbLine
 62
7
  6
CONTINUOUS
 10
17.9357672586
 20
127.9752572333
 11
17.9357672586
 21
138.0252572333
  0
LINE
  5
228
100
AcDbEntity
  8
0
100
AcDbLine
 62
7
  6
CONTINUOUS
 10
18.2357672586
 20
52.8252572333
 11
18.2357672586
 21
56.7502572333
  0
LINE
  5
229
100
AcDbEntity
  8
0
100
AcDbLine
 62
7
  6
CONTINUOUS
 10
18.2357672586
 20
61.7502572333
 11
18.2357672586
 21
65.6752572333
  0
LINE
  5
22A
100
AcDbEntity
  8
0
100
AcDbLine
 62
7
  6
CONTINUOUS
 10
20.2346247336
 20
132.4552572333
 11
20.2346247336
 21
132.1552572333
  0
LINE
  5
22B
100
AcDbEntity
  8
0
100
AcDbLine
 62
7
  6
CONTINUOUS
 10
21.2357672586
 20
65.6752572333
 11
21.2357672586
 21
61.7502572333
  0
LINE
  5
22C
100
AcDbEntity
  8
0
100
AcDbLine
 62
7
  6
CONTINUOUS
 10
21.2357672586
 20
56.7502572333
 11
21.2357672586
 21
52.8252572333
  0
LINE
  5
22D
100
AcDbEntity
  8
0
100
AcDbLine
 62
7
  6
CONTINUOUS
 10
22.2357672462
 20
147.0252572333
 11
22.2357672588
 21
132.4552572333
  0
LINE
  5
22E
100
AcDbEntity
  8
0
100
AcDbLine
 62
7
  6
CONTINUOUS
 10
22.4357672583
 20
147.0252572333
 11
22.4357672583
 21
132.1552572333
  0
LINE
  5
22F
100
AcDbEntity
  8
0
100
AcDbLine
 62
7
  6
CONTINUOUS
 10
18.9346742336
 20
131.1666017293
 11
18.9068237921
 21
127.9752572333
  0
LINE
  5
230
100
AcDbEntity
  8
0
100
AcDbLine
 62
7
  6
CONTINUOUS
 10
19.2346628105
 20
131.1639837687
 11
19.2068352156
 21
127.9752572333
  0
LINE
  5
231
100
AcDbEntity
  8
0
100
AcDbLine
 62
7
  6
CONTINUOUS
 10
24.3857672586
 20
50.3252572333
 11
24.3857672586
 21
59.1252572333
  0
LINE
  5
232
100
AcDbEntity
  8
0
100
AcDbLine
 62
7
  6
CONTINUOUS
 10
24.6857672586
 20
137.5752572333
 11
24.6857672586
 21
129.3752572333
  0
LINE
  5
233
100
AcDbEntity
  8
0
100
AcDbLine
 62
7
  6
CONTINUOUS
 10
14.5857672586
 20
49.3252572333
 11
23.3857672586
 21
49.3252572333
  0
LINE
  5
234
100
AcDbEntity
  8
0
100
AcDbLine
 62
7
  6
CONTINUOUS
 10
44.6857672586
 20
49.3252572333
 11
55.1857672586
 21
49.3252572333
  0
LINE
  5
235
100
AcDbEntity
  8
0
100
AcDbLine
 62
7
  6
CONTINUOUS
 10
79.6857672586
 20
49.3252572333
 11
90.1857672586
 21
49.3252572333
  0
LINE
  5
236
100
AcDbEntity
  8
0
100
AcDbLine
 62
7
  6
CONTINUOUS
 10
111.4857672586
 20
49.3252572333
 11
120.2857672586
 21
49.3252572333
  0
LINE
  5
237
100
AcDbEntity
  8
0
100
AcDbLine
 62
7
  6
CONTINUOUS
 10
55.1486944028
 20
134.7252572333
 11
54.4413311692
 21
134.0181322725
  0
LINE
  5
238
100
AcDbEntity
  8
0
100
AcDbLine
 62
7
  6
CONTINUOUS
 10
25.8857672586
 20
60.6252572333
 11
43.6857672586
 21
60.6252572333
  0
LINE
  5
239
100
AcDbEntity
  8
0
100
AcDbLine
 62
7
  6
CONTINUOUS
 10
56.1857672586
 20
60.6252572333
 11
78.6857672586
 21
60.6252572333
  0
LINE
  5
23A
100
AcDbEntity
  8
0
100
AcDbLine
 62
7
  6
CONTINUOUS
 10
91.1857672586
 20
60.6252572333
 11
108.9857672586
 21
60.6252572333
  0
LINE
  5
23B
100
AcDbEntity
  8
0
100
AcDbLine
 62
7
  6
CONTINUOUS
 10
45.6646984226
 20
127.9753579564
 11
45.663716765
 21
128.0878447754
  0
LINE
  5
23C
100
AcDbEntity
  8
0
100
AcDbLine
 62
7
  6
CONTINUOUS
 10
45.9647107251
 20
127.9752572333
 11
45.9637054416
 21
128.090451313
  0
LINE
  5
23D
100
AcDbEntity
  8
0
100
AcDbLine
 62
7
  6
CONTINUOUS
 10
43.1357672586
 20
129.3752572333
 11
43.1357672586
 21
137.5752572333
  0
LINE
  5
23E
100
AcDbEntity
  8
0
100
AcDbLine
 62
7
  6
CONTINUOUS
 10
43.6857672586
 20
60.6252572333
 11
43.6857672586
 21
50.3252572333
  0
LINE
  5
23F
100
AcDbEntity
  8
0
100
AcDbLine
 62
7
  6
CONTINUOUS
 10
44.723043967
 20
134.7252572333
 11
44.7230541678
 21
147.3252572333
  0
LINE
  5
240
100
AcDbEntity
  8
0
100
AcDbLine
 62
7
  6
CONTINUOUS
 10
45.7231048936
 20
134.7252572333
 11
45.7231048936
 21
147.0252572333
  0
LINE
  5
241
100
AcDbEntity
  8
0
100
AcDbLine
 62
7
  6
CONTINUOUS
 10
46.0231048936
 20
147.3252572333
 11
46.0231048936
 21
137.9200631535
  0
LINE
  5
242
100
AcDbEntity
  8
0
100
AcDbLine
 62
7
  6
CONTINUOUS
 10
47.6857672586
 20
60.3752572333
 11
47.6857672586
 21
65.4252572333
  0
LINE
  5
243
100
AcDbEntity
  8
0
100
AcDbLine
 62
7
  6
CONTINUOUS
 10
47.1077148754
 20
40.1252572333
 11
47.147198153
 21
44.6495927072
  0
LINE
  5
244
100
AcDbEntity
  8
0
100
AcDbLine
 62
7
  6
CONTINUOUS
 10
48.8068441269
 20
140.3887680987
 11
48.6857672586
 21
147.3252572333
  0
LINE
  5
245
100
AcDbEntity
  8
0
100
AcDbLine
 62
7
  6
CONTINUOUS
 10
51.1857672586
 20
40.1252572333
 11
51.1477607723
 21
42.3026473775
  0
LINE
  5
246
100
AcDbEntity
  8
0
100
AcDbLine
 62
7
  6
CONTINUOUS
 10
52.7243363643
 20
44.6495927072
 11
52.7638196419
 21
40.1252572333
  0
LINE
  5
247
100
AcDbEntity
  8
0
100
AcDbLine
 62
7
  6
CONTINUOUS
 10
50.2755117649
 20
137.9200631535
 11
50.2755117649
 21
138.2200631535
  0
LINE
  5
248
100
AcDbEntity
  8
0
100
AcDbLine
 62
7
  6
CONTINUOUS
 10
50.2755404501
 20
128.090451313
 11
50.2755404501
 21
128.390451313
  0
LINE
  5
249
100
AcDbEntity
  8
0
100
AcDbLine
 62
7
  6
CONTINUOUS
 10
51.4755731789
 20
129.590545935
 11
51.4755731789
 21
136.7199548706
  0
LINE
  5
24A
100
AcDbEntity
  8
0
100
AcDbLine
 62
7
  6
CONTINUOUS
 10
51.7755731842
 20
129.5905488207
 11
51.7755731496
 21
136.7198591145
  0
LINE
  5
24B
100
AcDbEntity
  8
0
100
AcDbLine
 62
7
  6
CONTINUOUS
 10
52.1857672586
 20
65.4252572333
 11
52.1857672586
 21
60.3752572333
  0
LINE
  5
24C
100
AcDbEntity
  8
0
100
AcDbLine
 62
7
  6
CONTINUOUS
 10
48.723773745
 20
42.3026473775
 11
48.6857672586
 21
40.1252572333
  0
LINE
  5
24D
100
AcDbEntity
  8
0
100
AcDbLine
 62
7
  6
CONTINUOUS
 10
51.0646903904
 20
140.3887680987
 11
51.1857672586
 21
147.3252572333
  0
LINE
  5
24E
100
AcDbEntity
  8
0
100
AcDbLine
 62
7
  6
CONTINUOUS
 10
53.8484296224
 20
134.7252572333
 11
53.8484296224
 21
147.3252572333
  0
LINE
  5
24F
100
AcDbEntity
  8
0
100
AcDbLine
 62
7
  6
CONTINUOUS
 10
54.1484296224
 20
147.0252572333
 11
54.1484296224
 21
134.7252572334
  0
LINE
  5
250
100
AcDbEntity
  8
0
100
AcDbLine
 62
7
  6
CONTINUOUS
 10
55.1484296224
 20
133.7252572333
 11
55.1484296224
 21
133.4252572333
  0
LINE
  5
251
100
AcDbEntity
  8
0
100
AcDbLine
 62
7
  6
CONTINUOUS
 10
55.1486944037
 20
147.3252572333
 11
55.1486944037
 21
134.7252572333
  0
LINE
  5
252
100
AcDbEntity
  8
0
100
AcDbLine
 62
7
  6
CONTINUOUS
 10
55.2346247337
 20
132.4552572333
 11
55.2346247337
 21
132.1552572333
  0
LINE
  5
253
100
AcDbEntity
  8
0
100
AcDbLine
 62
7
  6
CONTINUOUS
 10
56.1857672586
 20
50.3252572333
 11
56.1857672586
 21
60.6252572333
  0
LINE
  5
254
100
AcDbEntity
  8
0
100
AcDbLine
 62
7
  6
CONTINUOUS
 10
56.7357672586
 20
137.5752572333
 11
56.7357672586
 21
129.3752572333
  0
LINE
  5
255
100
AcDbEntity
  8
0
100
AcDbLine
 62
7
  6
CONTINUOUS
 10
53.9346742337
 20
131.1666017294
 11
53.9068237922
 21
127.9752572333
  0
LINE
  5
256
100
AcDbEntity
  8
0
100
AcDbLine
 62
7
  6
CONTINUOUS
 10
54.2346628106
 20
131.1639837687
 11
54.2068352157
 21
127.9752572333
  0
LINE
  5
257
100
AcDbEntity
  8
0
100
AcDbLine
 62
7
  6
CONTINUOUS
 10
90.1484905482
 20
134.7252572333
 11
89.4413316914
 21
134.0181410534
  0
LINE
  5
258
100
AcDbEntity
  8
0
100
AcDbLine
 62
7
  6
CONTINUOUS
 10
112.8700945718
 20
132.5552695642
 11
112.4929582165
 21
132.1781336165
  0
LINE
  5
259
100
AcDbEntity
  8
0
100
AcDbLine
 62
7
  6
CONTINUOUS
 10
78.1357672586
 20
129.3752572333
 11
78.1357672586
 21
137.5752572333
  0
LINE
  5
25A
100
AcDbEntity
  8
0
100
AcDbLine
 62
7
  6
CONTINUOUS
 10
45.9637054416
 20
128.090451313
 11
45.7506481592
 21
128.3016573855
  0
LINE
  5
25B
100
AcDbEntity
  8
0
100
AcDbLine
 62
7
  6
CONTINUOUS
 10
80.6646993016
 20
127.9752572333
 11
80.6368717067
 21
131.1639837699
  0
LINE
  5
25C
100
AcDbEntity
  8
0
100
AcDbLine
 62
7
  6
CONTINUOUS
 10
80.9647107251
 20
127.9752572333
 11
80.9368602835
 21
131.1666017301
  0
LINE
  5
25D
100
AcDbEntity
  8
0
100
AcDbLine
 62
7
  6
CONTINUOUS
 10
78.6857672586
 20
60.6252572333
 11
78.6857672586
 21
50.3252572333
  0
LINE
  5
25E
100
AcDbEntity
  8
0
100
AcDbLine
 62
7
  6
CONTINUOUS
 10
79.6369097836
 20
132.1552572333
 11
79.6369097836
 21
132.4552572333
  0
LINE
  5
25F
100
AcDbEntity
  8
0
100
AcDbLine
 62
7
  6
CONTINUOUS
 10
79.7230439675
 20
134.7252572333
 11
79.7230541683
 21
147.3252572333
  0
LINE
  5
260
100
AcDbEntity
  8
0
100
AcDbLine
 62
7
  6
CONTINUOUS
 10
79.7231048976
 20
133.4252572333
 11
79.7231048976
 21
133.7252572333
  0
LINE
  5
261
100
AcDbEntity
  8
0
100
AcDbLine
 62
7
  6
CONTINUOUS
 10
80.7231048976
 20
134.7252572333
 11
80.7231048976
 21
147.0252572333
  0
LINE
  5
262
100
AcDbEntity
  8
0
100
AcDbLine
 62
7
  6
CONTINUOUS
 10
81.0231048976
 20
147.3252572333
 11
81.0231048976
 21
134.7252572333
  0
LINE
  5
263
100
AcDbEntity
  8
0
100
AcDbLine
 62
7
  6
CONTINUOUS
 10
82.6857672586
 20
60.3752572333
 11
82.6857672586
 21
65.4252572333
  0
LINE
  5
264
100
AcDbEntity
  8
0
100
AcDbLine
 62
7
  6
CONTINUOUS
 10
82.9959613359
 20
129.5904840469
 11
82.9959613347
 21
136.7200362764
  0
LINE
  5
265
100
AcDbEntity
  8
0
100
AcDbLine
 62
7
  6
CONTINUOUS
 10
82.1077148754
 20
40.1252572333
 11
82.147198153
 21
44.6495927072
  0
LINE
  5
266
100
AcDbEntity
  8
0
100
AcDbLine
 62
7
  6
CONTINUOUS
 10
45.4302022833
 20
134.0181333349
 11
44.7230439671
 21
134.7252572333
  0
LINE
  5
267
100
AcDbEntity
  8
0
100
AcDbLine
 62
7
  6
CONTINUOUS
 10
83.8068441269
 20
140.3887680987
 11
83.6857672586
 21
147.3252572333
  0
LINE
  5
268
100
AcDbEntity
  8
0
100
AcDbLine
 62
7
  6
CONTINUOUS
 10
86.1857672586
 20
40.1252572333
 11
86.1477607723
 21
42.3026473775
  0
LINE
  5
269
100
AcDbEntity
  8
0
100
AcDbLine
 62
7
  6
CONTINUOUS
 10
87.7243363643
 20
44.6495927072
 11
87.7638196419
 21
40.1252572333
  0
LINE
  5
26A
100
AcDbEntity
  8
0
100
AcDbLine
 62
7
  6
CONTINUOUS
 10
83.3959613383
 20
136.7200014857
 11
83.3959613383
 21
129.5904840461
  0
LINE
  5
26B
100
AcDbEntity
  8
0
100
AcDbLine
 62
7
  6
CONTINUOUS
 10
84.5960530624
 20
128.390451313
 11
84.596052071
 21
127.9866526525
  0
LINE
  5
26C
100
AcDbEntity
  8
0
100
AcDbLine
 62
7
  6
CONTINUOUS
 10
84.5960696115
 20
138.3200631535
 11
84.5960696115
 21
137.9200631535
  0
LINE
  5
26D
100
AcDbEntity
  8
0
100
AcDbLine
 62
7
  6
CONTINUOUS
 10
87.1857672586
 20
65.4252572333
 11
87.1857672586
 21
60.3752572333
  0
LINE
  5
26E
100
AcDbEntity
  8
0
100
AcDbLine
 62
7
  6
CONTINUOUS
 10
83.723773745
 20
42.3026473775
 11
83.6857672586
 21
40.1252572333
  0
LINE
  5
26F
100
AcDbEntity
  8
0
100
AcDbLine
 62
7
  6
CONTINUOUS
 10
86.0646903904
 20
140.3887680987
 11
86.1857672586
 21
147.3252572333
  0
LINE
  5
270
100
AcDbEntity
  8
0
100
AcDbLine
 62
7
  6
CONTINUOUS
 10
88.8484296235
 20
137.9200631535
 11
88.8484296235
 21
147.3252572333
  0
LINE
  5
271
100
AcDbEntity
  8
0
100
AcDbLine
 62
7
  6
CONTINUOUS
 10
89.1484296235
 20
127.9803046995
 11
89.1484296235
 21
128.2696371077
  0
LINE
  5
272
100
AcDbEntity
  8
0
100
AcDbLine
 62
7
  6
CONTINUOUS
 10
89.1484296235
 20
134.7252572332
 11
89.1484296235
 21
147.0252572333
  0
LINE
  5
273
100
AcDbEntity
  8
0
100
AcDbLine
 62
7
  6
CONTINUOUS
 10
90.1484905486
 20
147.3252572333
 11
90.1484905486
 21
134.7252572333
  0
LINE
  5
274
100
AcDbEntity
  8
0
100
AcDbLine
 62
7
  6
CONTINUOUS
 10
91.1857672586
 20
50.3252572333
 11
91.1857672586
 21
60.6252572333
  0
LINE
  5
275
100
AcDbEntity
  8
0
100
AcDbLine
 62
7
  6
CONTINUOUS
 10
91.7357672586
 20
137.5752572333
 11
91.7357672586
 21
129.3752572333
  0
LINE
  5
276
100
AcDbEntity
  8
0
100
AcDbLine
 62
7
  6
CONTINUOUS
 10
90.3357672586
 20
127.9752572333
 11
79.5357672586
 21
127.9752572333
  0
LINE
  5
277
100
AcDbEntity
  8
0
100
AcDbLine
 62
7
  6
CONTINUOUS
 10
55.3357672586
 20
127.9752572333
 11
44.5357672586
 21
127.9752572333
  0
LINE
  5
278
100
AcDbEntity
  8
0
100
AcDbLine
 62
7
  6
CONTINUOUS
 10
14.5857672586
 20
127.9752572333
 11
23.2857672586
 21
127.9752572333
  0
LINE
  5
279
100
AcDbEntity
  8
0
100
AcDbLine
 62
7
  6
CONTINUOUS
 10
111.5857672586
 20
127.9752572333
 11
120.2857672586
 21
127.9752572333
  0
LINE
  5
27A
100
AcDbEntity
  8
0
100
AcDbLine
 62
7
  6
CONTINUOUS
 10
45.9637054416
 20
128.090451313
 11
50.2755292444
 21
128.0904513106
  0
LINE
  5
27B
100
AcDbEntity
  8
0
100
AcDbLine
 62
7
  6
CONTINUOUS
 10
14.8857672586
 20
128.2752572333
 11
17.5857672586
 21
128.2752572333
  0
LINE
  5
27C
100
AcDbEntity
  8
0
100
AcDbLine
 62
7
  6
CONTINUOUS
 10
117.2857672586
 20
128.2858373077
 11
119.7857672586
 21
128.2858373077
  0
LINE
  5
27D
100
AcDbEntity
  8
0
100
AcDbLine
 62
7
  6
CONTINUOUS
 10
45.9637053419
 20
128.390451313
 11
50.2755404457
 21
128.390451313
  0
LINE
  5
27E
100
AcDbEntity
  8
0
100
AcDbLine
 62
7
  6
CONTINUOUS
 10
84.5960559606
 20
128.390451313
 11
88.9078291754
 21
128.390451313
  0
LINE
  5
27F
100
AcDbEntity
  8
0
100
AcDbLine
 62
7
  6
CONTINUOUS
 10
14.5857672586
 20
128.5752572333
 11
17.2390993583
 21
128.5752572333
  0
LINE
  5
280
100
AcDbEntity
  8
0
100
AcDbLine
 62
7
  6
CONTINUOUS
 10
117.632435159
 20
128.7858373077
 11
120.2857672586
 21
128.7858373077
  0
LINE
  5
281
100
AcDbEntity
  8
0
100
AcDbLine
 62
7
  6
CONTINUOUS
 10
117.7357657588
 20
146.9252632327
 11
118.1357672485
 21
147.0252644426
  0
LINE
  5
282
100
AcDbEntity
  8
0
100
AcDbLine
 62
7
  6
CONTINUOUS
 10
116.0368564759
 20
131.167474383
 11
115.6368717067
 21
131.1639837688
  0
LINE
  5
283
100
AcDbEntity
  8
0
100
AcDbLine
 62
7
  6
CONTINUOUS
 10
80.9368602836
 20
131.1666017294
 11
80.6368717067
 21
131.1639837688
  0
LINE
  5
284
100
AcDbEntity
  8
0
100
AcDbLine
 62
7
  6
CONTINUOUS
 10
82.9959613383
 20
129.5904840485
 11
83.3959613383
 21
129.5904840485
  0
LINE
  5
285
100
AcDbEntity
  8
0
100
AcDbLine
 62
7
  6
CONTINUOUS
 10
51.4755731789
 20
129.5905430784
 11
51.7755731789
 21
129.5905430784
  0
LINE
  5
286
100
AcDbEntity
  8
0
100
AcDbLine
 62
7
  6
CONTINUOUS
 10
114.6369097836
 20
132.1552572333
 11
112.4559713612
 21
132.1552572333
  0
LINE
  5
287
100
AcDbEntity
  8
0
100
AcDbLine
 62
7
  6
CONTINUOUS
 10
79.6369097836
 20
132.1552572333
 11
78.1357672586
 21
132.1552572333
  0
LINE
  5
288
100
AcDbEntity
  8
0
100
AcDbLine
 62
7
  6
CONTINUOUS
 10
56.7357672586
 20
132.1552572333
 11
55.2346247325
 21
132.1552572333
  0
LINE
  5
289
100
AcDbEntity
  8
0
100
AcDbLine
 62
7
  6
CONTINUOUS
 10
20.2346247325
 20
132.1552572333
 11
22.4357672583
 21
132.1552572333
  0
LINE
  5
28A
100
AcDbEntity
  8
0
100
AcDbLine
 62
7
  6
CONTINUOUS
 10
20.2346247329
 20
132.4552572332
 11
22.2357672588
 21
132.4552572333
  0
LINE
  5
28B
100
AcDbEntity
  8
0
100
AcDbLine
 62
7
  6
CONTINUOUS
 10
55.2346247329
 20
132.4552572332
 11
56.7357672586
 21
132.4552572333
  0
LINE
  5
28C
100
AcDbEntity
  8
0
100
AcDbLine
 62
7
  6
CONTINUOUS
 10
78.1357672586
 20
132.4552572333
 11
79.6369097836
 21
132.4552572333
  0
LINE
  5
28D
100
AcDbEntity
  8
0
100
AcDbLine
 62
7
  6
CONTINUOUS
 10
112.8700818333
 20
132.5552572333
 11
114.6369097836
 21
132.5552572333
  0
LINE
  5
28E
100
AcDbEntity
  8
0
100
AcDbLine
 62
7
  6
CONTINUOUS
 10
79.7231048979
 20
133.4252572333
 11
78.1357672586
 21
133.4252572333
  0
LINE
  5
28F
100
AcDbEntity
  8
0
100
AcDbLine
 62
7
  6
CONTINUOUS
 10
56.7357672586
 20
133.4252572333
 11
55.1484296216
 21
133.4252572334
  0
LINE
  5
290
100
AcDbEntity
  8
0
100
AcDbLine
 62
7
  6
CONTINUOUS
 10
44.7231048936
 20
133.7252572333
 11
43.1357672586
 21
133.7252572333
  0
LINE
  5
291
100
AcDbEntity
  8
0
100
AcDbLine
 62
7
  6
CONTINUOUS
 10
23.4357672583
 20
133.7252572333
 11
24.6857672586
 21
133.7252572333
  0
LINE
  5
292
100
AcDbEntity
  8
0
100
AcDbLine
 62
7
  6
CONTINUOUS
 10
55.1484296189
 20
133.7252572333
 11
56.7357672586
 21
133.7252572333
  0
LINE
  5
293
100
AcDbEntity
  8
0
100
AcDbLine
 62
7
  6
CONTINUOUS
 10
78.1357672586
 20
133.7252572333
 11
79.7231048982
 21
133.7252572333
  0
LINE
  5
294
100
AcDbEntity
  8
0
100
AcDbLine
 62
7
  6
CONTINUOUS
 10
90.1484296235
 20
133.7252572333
 11
91.7357672586
 21
133.7252572333
  0
LINE
  5
295
100
AcDbEntity
  8
0
100
AcDbLine
 62
7
  6
CONTINUOUS
 10
110.1857672586
 20
133.7252572333
 11
111.4357672584
 21
133.7252572333
  0
LINE
  5
296
100
AcDbEntity
  8
0
100
AcDbLine
 62
7
  6
CONTINUOUS
 10
19.2346628106
 20
131.1639837688
 11
18.9346742337
 21
131.1666017294
  0
LINE
  5
297
100
AcDbEntity
  8
0
100
AcDbLine
 62
7
  6
CONTINUOUS
 10
54.2346628106
 20
131.1639837688
 11
53.9346742337
 21
131.1666017294
  0
LINE
  5
298
100
AcDbEntity
  8
0
100
AcDbLine
 62
7
  6
CONTINUOUS
 10
80.4302022897
 20
134.0181333374
 11
79.7230439676
 21
134.7252572333
  0
LINE
  5
299
100
AcDbEntity
  8
0
100
AcDbLine
 62
7
  6
CONTINUOUS
 10
110.1857672586
 20
129.3752572333
 11
110.1857672586
 21
137.5752572333
  0
LINE
  5
29A
100
AcDbEntity
  8
0
100
AcDbLine
 62
7
  6
CONTINUOUS
 10
110.4857672586
 20
59.1252572333
 11
110.4857672586
 21
50.3252572333
  0
LINE
  5
29B
100
AcDbEntity
  8
0
100
AcDbLine
 62
7
  6
CONTINUOUS
 10
112.4357672584
 20
132.1552572333
 11
112.4357672584
 21
147.0252572333
  0
LINE
  5
29C
100
AcDbEntity
  8
0
100
AcDbLine
 62
7
  6
CONTINUOUS
 10
112.4929581159
 20
147.0195382552
 11
112.4929581159
 21
132.1781335336
  0
LINE
  5
29D
100
AcDbEntity
  8
0
100
AcDbLine
 62
7
  6
CONTINUOUS
 10
112.8701073103
 20
146.925231804
 11
112.8700818333
 21
132.5552572333
  0
LINE
  5
29E
100
AcDbEntity
  8
0
100
AcDbLine
 62
7
  6
CONTINUOUS
 10
22.4357672583
 20
134.7252572333
 11
24.6857672586
 21
134.7252572333
  0
LINE
  5
29F
100
AcDbEntity
  8
0
100
AcDbLine
 62
7
  6
CONTINUOUS
 10
43.1357672586
 20
134.7252572333
 11
44.723043967
 21
134.7252572333
  0
LINE
  5
2A0
100
AcDbEntity
  8
0
100
AcDbLine
 62
7
  6
CONTINUOUS
 10
53.8484296224
 20
134.7252572333
 11
54.1484296224
 21
134.7252572333
  0
LINE
  5
2A1
100
AcDbEntity
  8
0
100
AcDbLine
 62
7
  6
CONTINUOUS
 10
55.1486944037
 20
134.7252572333
 11
56.7357672586
 21
134.7252572333
  0
LINE
  5
2A2
100
AcDbEntity
  8
0
100
AcDbLine
 62
7
  6
CONTINUOUS
 10
78.1357672586
 20
134.7252572333
 11
79.7230439675
 21
134.7252572333
  0
LINE
  5
2A3
100
AcDbEntity
  8
0
100
AcDbLine
 62
7
  6
CONTINUOUS
 10
80.7231048976
 20
134.7252572333
 11
81.0231048976
 21
134.7252572333
  0
LINE
  5
2A4
100
AcDbEntity
  8
0
100
AcDbLine
 62
7
  6
CONTINUOUS
 10
90.1484905486
 20
134.7252572333
 11
91.7357672586
 21
134.7252572333
  0
LINE
  5
2A5
100
AcDbEntity
  8
0
100
AcDbLine
 62
7
  6
CONTINUOUS
 10
110.1857672586
 20
134.7252572333
 11
112.4357672584
 21
134.7252572333
  0
LINE
  5
2A6
100
AcDbEntity
  8
0
100
AcDbLine
 62
7
  6
CONTINUOUS
 10
51.7755731789
 20
136.7199548706
 11
51.4755731789
 21
136.7199548706
  0
LINE
  5
2A7
100
AcDbEntity
  8
0
100
AcDbLine
 62
7
  6
CONTINUOUS
 10
83.3959613383
 20
136.7200026568
 11
82.9959613383
 21
136.7200026568
  0
LINE
  5
2A8
100
AcDbEntity
  8
0
100
AcDbLine
 62
7
  6
CONTINUOUS
 10
120.2857672586
 20
137.5252572333
 11
117.632435159
 21
137.5252572333
  0
LINE
  5
2A9
100
AcDbEntity
  8
0
100
AcDbLine
 62
7
  6
CONTINUOUS
 10
17.2390993583
 20
137.7252572333
 11
14.5857672586
 21
137.7252572333
  0
LINE
  5
2AA
100
AcDbEntity
  8
0
100
AcDbLine
 62
7
  6
CONTINUOUS
 10
88.8484296235
 20
137.9200631535
 11
84.5960696155
 21
137.9200631535
  0
LINE
  5
2AB
100
AcDbEntity
  8
0
100
AcDbLine
 62
7
  6
CONTINUOUS
 10
50.2755115105
 20
137.9200631535
 11
46.0231048936
 21
137.9200631535
  0
LINE
  5
2AC
100
AcDbEntity
  8
0
100
AcDbLine
 62
7
  6
CONTINUOUS
 10
14.8857672586
 20
138.0252572333
 11
17.9357672586
 21
138.0252572333
  0
LINE
  5
2AD
100
AcDbEntity
  8
0
100
AcDbLine
 62
7
  6
CONTINUOUS
 10
116.9397183738
 20
138.0252572333
 11
119.7857672586
 21
138.0252572333
  0
LINE
  5
2AE
100
AcDbEntity
  8
0
100
AcDbLine
 62
7
  6
CONTINUOUS
 10
109.6857672586
 20
138.0752572333
 11
106.173747997
 21
138.0752572333
  0
LINE
  5
2AF
100
AcDbEntity
  8
0
100
AcDbLine
 62
7
  6
CONTINUOUS
 10
98.6977865203
 20
138.0752572333
 11
92.2357672586
 21
138.0752572333
  0
LINE
  5
2B0
100
AcDbEntity
  8
0
100
AcDbLine
 62
7
  6
CONTINUOUS
 10
77.6357672586
 20
138.0752572333
 11
57.2357672586
 21
138.0752572333
  0
LINE
  5
2B1
100
AcDbEntity
  8
0
100
AcDbLine
 62
7
  6
CONTINUOUS
 10
42.6357672586
 20
138.0752572333
 11
36.173747997
 21
138.0752572333
  0
LINE
  5
2B2
100
AcDbEntity
  8
0
100
AcDbLine
 62
7
  6
CONTINUOUS
 10
28.6977865203
 20
138.0752572333
 11
25.1857672586
 21
138.0752572333
  0
LINE
  5
2B3
100
AcDbEntity
  8
0
100
AcDbLine
 62
7
  6
CONTINUOUS
 10
45.7231048936
 20
138.2200631535
 11
50.2755283976
 21
138.2200631572
  0
LINE
  5
2B4
100
AcDbEntity
  8
0
100
AcDbLine
 62
7
  6
CONTINUOUS
 10
84.5960866249
 20
138.3200630628
 11
89.1484296235
 21
138.3200631535
  0
LINE
  5
2B5
100
AcDbEntity
  8
0
100
AcDbLine
 62
7
  6
CONTINUOUS
 10
115.6646993016
 20
127.9752572333
 11
115.6368717067
 21
131.1639837699
  0
LINE
  5
2B6
100
AcDbEntity
  8
0
100
AcDbLine
 62
7
  6
CONTINUOUS
 10
116.0647145329
 20
127.9752572333
 11
116.0368564758
 21
131.167474384
  0
LINE
  5
2B7
100
AcDbEntity
  8
0
100
AcDbLine
 62
7
  6
CONTINUOUS
 10
113.6357672586
 20
52.8252572333
 11
113.6357672586
 21
56.7502572333
  0
LINE
  5
2B8
100
AcDbEntity
  8
0
100
AcDbLine
 62
7
  6
CONTINUOUS
 10
113.6357672586
 20
61.7502572333
 11
113.6357672586
 21
65.6752572333
  0
LINE
  5
2B9
100
AcDbEntity
  8
0
100
AcDbLine
 62
7
  6
CONTINUOUS
 10
114.6369097836
 20
132.1552572333
 11
114.6369097836
 21
132.5552572333
  0
LINE
  5
2BA
100
AcDbEntity
  8
0
100
AcDbLine
 62
7
  6
CONTINUOUS
 10
116.6357672586
 20
65.6752572333
 11
116.6357672586
 21
61.7502572333
  0
LINE
  5
2BB
100
AcDbEntity
  8
0
100
AcDbLine
 62
7
  6
CONTINUOUS
 10
116.6357672586
 20
56.7502572333
 11
116.6357672586
 21
52.8252572333
  0
LINE
  5
2BC
100
AcDbEntity
  8
0
100
AcDbLine
 62
7
  6
CONTINUOUS
 10
116.9397183738
 20
127.9752572333
 11
116.9397183738
 21
138.0252572333
  0
LINE
  5
2BD
100
AcDbEntity
  8
0
100
AcDbLine
 62
7
  6
CONTINUOUS
 10
117.2857672586
 20
128.2858373077
 11
117.2857672586
 21
127.9752572333
  0
LINE
  5
2BE
100
AcDbEntity
  8
0
100
AcDbLine
 62
7
  6
CONTINUOUS
 10
117.632435159
 20
128.7858373077
 11
117.632435159
 21
137.5252572333
  0
LINE
  5
2BF
100
AcDbEntity
  8
0
100
AcDbLine
 62
7
  6
CONTINUOUS
 10
117.7357672586
 20
138.0252572333
 11
117.7357672586
 21
146.9252572333
  0
LINE
  5
2C0
100
AcDbEntity
  8
0
100
AcDbLine
 62
7
  6
CONTINUOUS
 10
117.8357672586
 20
40.1252572333
 11
117.8357672586
 21
49.3252572333
  0
LINE
  5
2C1
100
AcDbEntity
  8
0
100
AcDbLine
 62
7
  6
CONTINUOUS
 10
118.1357672586
 20
147.0252572333
 11
118.1357672586
 21
138.0252572333
  0
LINE
  5
2C2
100
AcDbEntity
  8
0
100
AcDbLine
 62
7
  6
CONTINUOUS
 10
118.1357672586
 20
49.3252572333
 11
118.1357672586
 21
40.4252572333
  0
LINE
  5
2C3
100
AcDbEntity
  8
0
100
AcDbLine
 62
7
  6
CONTINUOUS
 10
119.4857672586
 20
49.3252572333
 11
119.4857672586
 21
127.9752572333
  0
LINE
  5
2C4
100
AcDbEntity
  8
0
100
AcDbLine
 62
7
  6
CONTINUOUS
 10
119.4857672586
 20
128.2858373077
 11
119.4857672586
 21
138.0252572333
  0
LINE
  5
2C5
100
AcDbEntity
  8
0
100
AcDbLine
 62
7
  6
CONTINUOUS
 10
120.2857672586
 20
137.5252572333
 11
120.2857672586
 21
128.7858373077
  0
LINE
  5
2C6
100
AcDbEntity
  8
0
100
AcDbLine
 62
7
  6
CONTINUOUS
 10
120.2857672586
 20
127.9752572333
 11
120.2857672586
 21
49.3252572333
  0
LINE
  5
2C7
100
AcDbEntity
  8
0
100
AcDbLine
 62
7
  6
CONTINUOUS
 10
112.8701073103
 20
146.925231804
 11
117.7357672586
 21
146.9252572333
  0
LINE
  5
2C8
100
AcDbEntity
  8
0
100
AcDbLine
 62
7
  6
CONTINUOUS
 10
112.4774530794
 20
147.0252572333
 11
86.1805307392
 21
147.0252572333
  0
LINE
  5
2C9
100
AcDbEntity
  8
0
100
AcDbLine
 62
7
  6
CONTINUOUS
 10
83.6910037781
 20
147.0252572333
 11
51.1805307392
 21
147.0252572333
  0
LINE
  5
2CA
100
AcDbEntity
  8
0
100
AcDbLine
 62
7
  6
CONTINUOUS
 10
48.6910037781
 20
147.0252572333
 11
16.7357672586
 21
147.0252572333
  0
LINE
  5
2CB
100
AcDbEntity
  8
0
100
AcDbLine
 62
7
  6
CONTINUOUS
 10
17.0357672586
 20
147.3252572333
 11
48.6857672586
 21
147.3252572333
  0
LINE
  5
2CC
100
AcDbEntity
  8
0
100
AcDbLine
 62
7
  6
CONTINUOUS
 10
51.1857672586
 20
147.3252572333
 11
83.6857672586
 21
147.3252572333
  0
LINE
  5
2CD
100
AcDbEntity
  8
0
100
AcDbLine
 62
7
  6
CONTINUOUS
 10
86.1857672586
 20
147.3252572333
 11
112.7357672584
 21
147.3252572333
  0
LINE
  5
2CE
100
AcDbEntity
  8
0
100
AcDbLine
 62
7
  6
CONTINUOUS
 10
112.7649468895
 20
147.3252572333
 11
117.8357672586
 21
147.3252572333
  0
LINE
  5
2CF
100
AcDbEntity
  8
0
100
AcDbLine
 62
7
  6
CONTINUOUS
 10
112.7758007279
 20
147.3023816448
 11
112.7946832662
 21
147.226838837
  0
LINE
  5
2D0
100
AcDbEntity
  8
0
100
AcDbLine
 62
7
  6
CONTINUOUS
 10
112.4929582165
 20
147.0195383132
 11
112.8700945718
 21
146.9252348954
  0
CIRCLE
  5
2D1
100
AcDbEntity
  8
0
100
AcDbCircle
 62
7
  6
CONTINUOUS
 10
49.9357672586
 20
53.4752572333
 40
2.7966950726
  0
ARC
  5
2D2
100
AcDbEntity
  8
0
100
AcDbCircle
 62
7
  6
CONTINUOUS
 10
49.9357672586
 20
44.6252572333
 40
2.7886752899
100
AcDbArc
 50
0.4999999997
 51
179.4999999997
  0
ARC
  5
2D3
100
AcDbEntity
  8
0
100
AcDbCircle
 62
7
  6
CONTINUOUS
 10
49.9357672586
 20
44.6252572333
 40
2.6198177072
100
AcDbArc
 50
297.556632657
 51
242.443367343
  0
CIRCLE
  5
2D4
100
AcDbEntity
  8
0
100
AcDbCircle
 62
7
  6
CONTINUOUS
 10
32.4357672586
 20
54.6252572333
 40
2.45
  0
ARC
  5
2D5
100
AcDbEntity
  8
0
100
AcDbCircle
 62
7
  6
CONTINUOUS
 10
49.9357672586
 20
60.3752572333
 40
2.25
100
AcDbArc
 50
180.0
 51
360.0
  0
ARC
  5
2D6
100
AcDbEntity
  8
0
100
AcDbCircle
 62
7
  6
CONTINUOUS
 10
49.9357672586
 20
65.4252572333
 40
2.25
100
AcDbArc
 50
0.0
 51
180.0
  0
CIRCLE
  5
2D7
100
AcDbEntity
  8
0
100
AcDbCircle
 62
7
  6
CONTINUOUS
 10
32.4357672586
 20
54.6252572333
 40
1.95
  0
ARC
  5
2D8
100
AcDbEntity
  8
0
100
AcDbCircle
 62
7
  6
CONTINUOUS
 10
25.8857672586
 20
59.1252572333
 40
1.5
100
AcDbArc
 50
90.0
 51
180.0
  0
ARC
  5
2D9
100
AcDbEntity
  8
0
100
AcDbCircle
 62
7
  6
CONTINUOUS
 10
19.7357672586
 20
65.6752572333
 40
1.5
100
AcDbArc
 50
0.0
 51
180.0
  0
ARC
  5
2DA
100
AcDbEntity
  8
0
100
AcDbCircle
 62
7
  6
CONTINUOUS
 10
19.7357672586
 20
61.7502572333
 40
1.5
100
AcDbArc
 50
180.0
 51
360.0
  0
ARC
  5
2DB
100
AcDbEntity
  8
0
100
AcDbCircle
 62
7
  6
CONTINUOUS
 10
19.7357672586
 20
56.7502572333
 40
1.5
100
AcDbArc
 50
0.0
 51
180.0
  0
ARC
  5
2DC
100
AcDbEntity
  8
0
100
AcDbCircle
 62
7
  6
CONTINUOUS
 10
19.7357672586
 20
52.8252572333
 40
1.5
100
AcDbArc
 50
180.0
 51
360.0
  0
ARC
  5
2DD
100
AcDbEntity
  8
0
100
AcDbCircle
 62
7
  6
CONTINUOUS
 10
55.1857672586
 20
50.3252572333
 40
1.0
100
AcDbArc
 50
270.0
 51
360.0
  0
ARC
  5
2DE
100
AcDbEntity
  8
0
100
AcDbCircle
 62
7
  6
CONTINUOUS
 10
44.6857672586
 20
50.3252572333
 40
1.0
100
AcDbArc
 50
180.0
 51
270.0
  0
ARC
  5
2DF
100
AcDbEntity
  8
0
100
AcDbCircle
 62
7
  6
CONTINUOUS
 10
23.3857672586
 20
50.3252572333
 40
1.0
100
AcDbArc
 50
270.0
 51
360.0
  0
ARC
  5
2E0
100
AcDbEntity
  8
0
100
AcDbCircle
 62
7
  6
CONTINUOUS
 10
17.0357672586
 20
40.4252572333
 40
0.3
100
AcDbArc
 50
180.0
 51
270.0
  0
ARC
  5
2E1
100
AcDbEntity
  8
0
100
AcDbCircle
 62
7
  6
CONTINUOUS
 10
32.4357672586
 20
133.5752572333
 40
5.65
100
AcDbArc
 50
55.798684546
 51
124.2013154541
  0
CIRCLE
  5
2E2
100
AcDbEntity
  8
0
100
AcDbCircle
 62
7
  6
CONTINUOUS
 10
32.4357672586
 20
133.5752572333
 40
2.65
  0
ARC
  5
2E3
100
AcDbEntity
  8
0
100
AcDbCircle
 62
7
  6
CONTINUOUS
 10
23.2857672586
 20
129.3752572333
 40
1.4
100
AcDbArc
 50
270.0
 51
360.0
  0
ARC
  5
2E4
100
AcDbEntity
  8
0
100
AcDbCircle
 62
7
  6
CONTINUOUS
 10
20.2346247336
 20
131.1552572333
 40
1.3
100
AcDbArc
 50
90.0000000327
 51
179.5000000065
  0
ARC
  5
2E5
100
AcDbEntity
  8
0
100
AcDbCircle
 62
7
  6
CONTINUOUS
 10
20.2346247336
 20
131.1552572333
 40
1.0
100
AcDbArc
 50
90.0000000301
 51
179.5000000006
  0
ARC
  5
2E6
100
AcDbEntity
  8
0
100
AcDbCircle
 62
7
  6
CONTINUOUS
 10
23.4357672583
 20
134.7252572333
 40
1.0
100
AcDbArc
 50
180.0
 51
270.0
  0
ARC
  5
2E7
100
AcDbEntity
  8
0
100
AcDbCircle
 62
7
  6
CONTINUOUS
 10
14.8857673038
 20
128.5752572333
 40
0.3
100
AcDbArc
 50
180.0
 51
269.9999913678
  0
ARC
  5
2E8
100
AcDbEntity
  8
0
100
AcDbCircle
 62
7
  6
CONTINUOUS
 10
28.6977865203
 20
139.0752572333
 40
1.0
100
AcDbArc
 50
270.0
 51
304.2013154598
  0
ARC
  5
2E9
100
AcDbEntity
  8
0
100
AcDbCircle
 62
7
  6
CONTINUOUS
 10
25.1857672586
 20
137.5752572333
 40
0.5
100
AcDbArc
 50
90.0
 51
180.0
  0
ARC
  5
2EA
100
AcDbEntity
  8
0
100
AcDbCircle
 62
7
  6
CONTINUOUS
 10
22.1357672091
 20
147.0252572333
 40
0.3
100
AcDbArc
 50
0.0
 51
89.9999906011
  0
ARC
  5
2EB
100
AcDbEntity
  8
0
100
AcDbCircle
 62
7
  6
CONTINUOUS
 10
14.8857672586
 20
137.7252572333
 40
0.3
100
AcDbArc
 50
90.0
 51
180.0
  0
ARC
  5
2EC
100
AcDbEntity
  8
0
100
AcDbCircle
 62
7
  6
CONTINUOUS
 10
17.0357672586
 20
147.0252572333
 40
0.3
100
AcDbArc
 50
90.0
 51
180.0
  0
ARC
  5
2ED
100
AcDbEntity
  8
0
100
AcDbCircle
 62
7
  6
CONTINUOUS
 10
50.2756659947
 20
129.5903582682
 40
1.4999087368
100
AcDbArc
 50
269.9947761984
 51
0.0072790204
  0
ARC
  5
2EE
100
AcDbEntity
  8
0
100
AcDbCircle
 62
7
  6
CONTINUOUS
 10
50.2756602708
 20
136.7201679951
 40
1.4998964415
100
AcDbArc
 50
359.988200948
 51
90.005037539
  0
ARC
  5
2EF
100
AcDbEntity
  8
0
100
AcDbCircle
 62
7
  6
CONTINUOUS
 10
44.5357672586
 20
129.3752572333
 40
1.4
100
AcDbArc
 50
180.0
 51
270.0
  0
ARC
  5
2F0
100
AcDbEntity
  8
0
100
AcDbCircle
 62
7
  6
CONTINUOUS
 10
55.3357672586
 20
129.3752572333
 40
1.4
100
AcDbArc
 50
270.0
 51
360.0
  0
ARC
  5
2F1
100
AcDbEntity
  8
0
100
AcDbCircle
 62
7
  6
CONTINUOUS
 10
55.1484296224
 20
134.7252572333
 40
1.3
100
AcDbArc
 50
179.9999999992
 51
269.9999999653
  0
ARC
  5
2F2
100
AcDbEntity
  8
0
100
AcDbCircle
 62
7
  6
CONTINUOUS
 10
55.2346247337
 20
131.1552572333
 40
1.3
100
AcDbArc
 50
90.0000000349
 51
179.5000000009
  0
ARC
  5
2F3
100
AcDbEntity
  8
0
100
AcDbCircle
 62
7
  6
CONTINUOUS
 10
50.2756602489
 20
136.7201679638
 40
1.1999040592
100
AcDbArc
 50
359.9898248161
 51
90.0071023476
  0
ARC
  5
2F4
100
AcDbEntity
  8
0
100
AcDbCircle
 62
7
  6
CONTINUOUS
 10
50.2756655886
 20
129.5903594811
 40
1.1998975271
100
AcDbArc
 50
269.9940244107
 51
0.0089031998
  0
ARC
  5
2F5
100
AcDbEntity
  8
0
100
AcDbCircle
 62
7
  6
CONTINUOUS
 10
44.7231048936
 20
134.7252572333
 40
1.0
100
AcDbArc
 50
270.0
 51
360.0
  0
ARC
  5
2F6
100
AcDbEntity
  8
0
100
AcDbCircle
 62
7
  6
CONTINUOUS
 10
55.2346247337
 20
131.1552572333
 40
1.0
100
AcDbArc
 50
90.0000000331
 51
179.5000000006
  0
ARC
  5
2F7
100
AcDbEntity
  8
0
100
AcDbCircle
 62
7
  6
CONTINUOUS
 10
55.1484296224
 20
134.7252572333
 40
1.0
100
AcDbArc
 50
179.999999997
 51
270.0
  0
ARC
  5
2F8
100
AcDbEntity
  8
0
100
AcDbCircle
 62
7
  6
CONTINUOUS
 10
45.9636998007
 20
128.0904569048
 40
0.2999944082
100
AcDbArc
 50
89.9989416951
 51
180.4988955698
  0
ARC
  5
2F9
100
AcDbEntity
  8
0
100
AcDbCircle
 62
7
  6
CONTINUOUS
 10
49.9357672586
 20
142.6752572333
 40
2.55
100
AcDbArc
 50
243.722765413
 51
296.277234587
  0
ARC
  5
2FA
100
AcDbEntity
  8
0
100
AcDbCircle
 62
7
  6
CONTINUOUS
 10
36.173747997
 20
139.0752572333
 40
1.0
100
AcDbArc
 50
235.7986845397
 51
270.0
  0
ARC
  5
2FB
100
AcDbEntity
  8
0
100
AcDbCircle
 62
7
  6
CONTINUOUS
 10
42.6357672586
 20
137.5752572333
 40
0.5
100
AcDbArc
 50
0.0
 51
90.0
  0
ARC
  5
2FC
100
AcDbEntity
  8
0
100
AcDbCircle
 62
7
  6
CONTINUOUS
 10
57.2357672586
 20
137.5752572333
 40
0.5
100
AcDbArc
 50
90.0
 51
180.0
  0
ARC
  5
2FD
100
AcDbEntity
  8
0
100
AcDbCircle
 62
7
  6
CONTINUOUS
 10
46.0231048936
 20
138.2200631535
 40
0.3
100
AcDbArc
 50
180.0
 51
270.0
  0
ARC
  5
2FE
100
AcDbEntity
  8
0
100
AcDbCircle
 62
7
  6
CONTINUOUS
 10
46.0230983682
 20
147.0252574311
 40
0.2999998514
100
AcDbArc
 50
89.998753733
 51
180.0000377896
  0
ARC
  5
2FF
100
AcDbEntity
  8
0
100
AcDbCircle
 62
7
  6
CONTINUOUS
 10
53.848413973
 20
147.0252570305
 40
0.2999998471
100
AcDbArc
 50
0.0000387226
 51
89.9970111983
  0
CIRCLE
  5
300
100
AcDbEntity
  8
0
100
AcDbCircle
 62
7
  6
CONTINUOUS
 10
84.9357672586
 20
53.4752572333
 40
2.7966950726
  0
ARC
  5
301
100
AcDbEntity
  8
0
100
AcDbCircle
 62
7
  6
CONTINUOUS
 10
84.9357672586
 20
44.6252572333
 40
2.7886752899
100
AcDbArc
 50
0.4999999997
 51
179.4999999997
  0
ARC
  5
302
100
AcDbEntity
  8
0
100
AcDbCircle
 62
7
  6
CONTINUOUS
 10
84.9357672586
 20
44.6252572333
 40
2.6198177072
100
AcDbArc
 50
297.556632657
 51
242.443367343
  0
CIRCLE
  5
303
100
AcDbEntity
  8
0
100
AcDbCircle
 62
7
  6
CONTINUOUS
 10
102.4357672586
 20
54.6252572333
 40
2.45
  0
CIRCLE
  5
304
100
AcDbEntity
  8
0
100
AcDbCircle
 62
7
  6
CONTINUOUS
 10
67.4357672586
 20
54.6252572333
 40
2.45
  0
ARC
  5
305
100
AcDbEntity
  8
0
100
AcDbCircle
 62
7
  6
CONTINUOUS
 10
84.9357672586
 20
65.4252572333
 40
2.25
100
AcDbArc
 50
0.0
 51
180.0
  0
ARC
  5
306
100
AcDbEntity
  8
0
100
AcDbCircle
 62
7
  6
CONTINUOUS
 10
84.9357672586
 20
60.3752572333
 40
2.25
100
AcDbArc
 50
180.0
 51
360.0
  0
CIRCLE
  5
307
100
AcDbEntity
  8
0
100
AcDbCircle
 62
7
  6
CONTINUOUS
 10
102.4357672586
 20
54.6252572333
 40
1.95
  0
CIRCLE
  5
308
100
AcDbEntity
  8
0
100
AcDbCircle
 62
7
  6
CONTINUOUS
 10
67.4357672586
 20
54.6252572333
 40
1.95
  0
ARC
  5
309
100
AcDbEntity
  8
0
100
AcDbCircle
 62
7
  6
CONTINUOUS
 10
108.9857672586
 20
59.1252572333
 40
1.5
100
AcDbArc
 50
0.0
 51
90.0
  0
ARC
  5
30A
100
AcDbEntity
  8
0
100
AcDbCircle
 62
7
  6
CONTINUOUS
 10
115.1357672586
 20
52.8252572333
 40
1.5
100
AcDbArc
 50
180.0
 51
360.0
  0
ARC
  5
30B
100
AcDbEntity
  8
0
100
AcDbCircle
 62
7
  6
CONTINUOUS
 10
115.1357672586
 20
56.7502572333
 40
1.5
100
AcDbArc
 50
0.0
 51
180.0
  0
ARC
  5
30C
100
AcDbEntity
  8
0
100
AcDbCircle
 62
7
  6
CONTINUOUS
 10
115.1357672586
 20
65.6752572333
 40
1.5
100
AcDbArc
 50
0.0
 51
180.0
  0
ARC
  5
30D
100
AcDbEntity
  8
0
100
AcDbCircle
 62
7
  6
CONTINUOUS
 10
115.1357672586
 20
61.7502572333
 40
1.5
100
AcDbArc
 50
180.0
 51
360.0
  0
ARC
  5
30E
100
AcDbEntity
  8
0
100
AcDbCircle
 62
7
  6
CONTINUOUS
 10
111.4857672586
 20
50.3252572333
 40
1.0
100
AcDbArc
 50
180.0
 51
270.0
  0
ARC
  5
30F
100
AcDbEntity
  8
0
100
AcDbCircle
 62
7
  6
CONTINUOUS
 10
90.1857672586
 20
50.3252572333
 40
1.0
100
AcDbArc
 50
270.0
 51
360.0
  0
ARC
  5
310
100
AcDbEntity
  8
0
100
AcDbCircle
 62
7
  6
CONTINUOUS
 10
79.6857672586
 20
50.3252572333
 40
1.0
100
AcDbArc
 50
180.0
 51
270.0
  0
ARC
  5
311
100
AcDbEntity
  8
0
100
AcDbCircle
 62
7
  6
CONTINUOUS
 10
117.8357672586
 20
40.4252572333
 40
0.3
100
AcDbArc
 50
270.0
 51
360.0
  0
CIRCLE
  5
312
100
AcDbEntity
  8
0
100
AcDbCircle
 62
7
  6
CONTINUOUS
 10
67.4357672586
 20
133.5752572333
 40
2.65
  0
CIRCLE
  5
313
100
AcDbEntity
  8
0
100
AcDbCircle
 62
7
  6
CONTINUOUS
 10
67.4357672586
 20
133.5752572333
 40
2.425
  0
ARC
  5
314
100
AcDbEntity
  8
0
100
AcDbCircle
 62
7
  6
CONTINUOUS
 10
84.5958974861
 20
136.720119341
 40
1.5999444736
100
AcDbArc
 50
89.9932267299
 51
180.0029746494
  0
ARC
  5
315
100
AcDbEntity
  8
0
100
AcDbCircle
 62
7
  6
CONTINUOUS
 10
79.5357672586
 20
129.3752572333
 40
1.4
100
AcDbArc
 50
180.0
 51
270.0
  0
ARC
  5
316
100
AcDbEntity
  8
0
100
AcDbCircle
 62
7
  6
CONTINUOUS
 10
90.3357672586
 20
129.3752572333
 40
1.4
100
AcDbArc
 50
270.0
 51
360.0
  0
ARC
  5
317
100
AcDbEntity
  8
0
100
AcDbCircle
 62
7
  6
CONTINUOUS
 10
79.6369097836
 20
131.1552572333
 40
1.3
100
AcDbArc
 50
0.500000032
 51
89.9999999999
  0
ARC
  5
318
100
AcDbEntity
  8
0
100
AcDbCircle
 62
7
  6
CONTINUOUS
 10
79.7231048976
 20
134.7252572333
 40
1.3
100
AcDbArc
 50
270.0000000152
 51
360.0
  0
ARC
  5
319
100
AcDbEntity
  8
0
100
AcDbCircle
 62
7
  6
CONTINUOUS
 10
84.5958973589
 20
136.7201192207
 40
1.1999311364
100
AcDbArc
 50
89.9917749789
 51
180.0056217252
  0
ARC
  5
31A
100
AcDbEntity
  8
0
100
AcDbCircle
 62
7
  6
CONTINUOUS
 10
84.5958721396
 20
129.5903621033
 40
1.1998982294
100
AcDbArc
 50
179.9941772318
 51
270.0087774542
  0
ARC
  5
31B
100
AcDbEntity
  8
0
100
AcDbCircle
 62
7
  6
CONTINUOUS
 10
90.1484296235
 20
134.7252572333
 40
1.0
100
AcDbArc
 50
180.0
 51
270.0
  0
ARC
  5
31C
100
AcDbEntity
  8
0
100
AcDbCircle
 62
7
  6
CONTINUOUS
 10
79.6369097836
 20
131.1552572333
 40
1.0
100
AcDbArc
 50
0.5000000326
 51
90.0000000001
  0
ARC
  5
31D
100
AcDbEntity
  8
0
100
AcDbCircle
 62
7
  6
CONTINUOUS
 10
79.7231048976
 20
134.7252572333
 40
1.0
100
AcDbArc
 50
270.0
 51
360.0
  0
ARC
  5
31E
100
AcDbEntity
  8
0
100
AcDbCircle
 62
7
  6
CONTINUOUS
 10
88.9078443427
 20
128.0904901549
 40
0.299960539
100
AcDbArc
 50
36.6724654735
 51
90.0028971191
  0
ARC
  5
31F
100
AcDbEntity
  8
0
100
AcDbCircle
 62
7
  6
CONTINUOUS
 10
84.9357672586
 20
142.6752572333
 40
2.55
100
AcDbArc
 50
243.722765413
 51
296.277234587
  0
ARC
  5
320
100
AcDbEntity
  8
0
100
AcDbCircle
 62
7
  6
CONTINUOUS
 10
77.6357672586
 20
137.5752572333
 40
0.5
100
AcDbArc
 50
0.0
 51
90.0
  0
ARC
  5
321
100
AcDbEntity
  8
0
100
AcDbCircle
 62
7
  6
CONTINUOUS
 10
92.2357672586
 20
137.5752572333
 40
0.5
100
AcDbArc
 50
90.0
 51
180.0
  0
ARC
  5
322
100
AcDbEntity
  8
0
100
AcDbCircle
 62
7
  6
CONTINUOUS
 10
88.8484296235
 20
138.2200631535
 40
0.3
100
AcDbArc
 50
269.9999999985
 51
360.0
  0
ARC
  5
323
100
AcDbEntity
  8
0
100
AcDbCircle
 62
7
  6
CONTINUOUS
 10
81.0230983722
 20
147.0252574312
 40
0.2999998514
100
AcDbArc
 50
89.9987537472
 51
180.0000378057
  0
ARC
  5
324
100
AcDbEntity
  8
0
100
AcDbCircle
 62
7
  6
CONTINUOUS
 10
88.8484309315
 20
147.0252583355
 40
0.2999987825
100
AcDbArc
 50
0.0
 51
90.0002498053
  0
ARC
  5
325
100
AcDbEntity
  8
0
100
AcDbCircle
 62
7
  6
CONTINUOUS
 10
102.4357672586
 20
133.5752572333
 40
5.65
100
AcDbArc
 50
55.798684546
 51
124.2013154541
  0
CIRCLE
  5
326
100
AcDbEntity
  8
0
100
AcDbCircle
 62
7
  6
CONTINUOUS
 10
102.4357672586
 20
133.5752572333
 40
2.65
  0
ARC
  5
327
100
AcDbEntity
  8
0
100
AcDbCircle
 62
7
  6
CONTINUOUS
 10
111.5857672586
 20
129.3752572333
 40
1.4
100
AcDbArc
 50
180.0
 51
270.0
  0
ARC
  5
328
100
AcDbEntity
  8
0
100
AcDbCircle
 62
7
  6
CONTINUOUS
 10
114.6369097836
 20
131.1552572333
 40
1.4
100
AcDbArc
 50
0.5000000417
 51
89.9999999999
  0
ARC
  5
329
100
AcDbEntity
  8
0
100
AcDbCircle
 62
7
  6
CONTINUOUS
 10
114.6369097836
 20
131.1552572333
 40
1.0
100
AcDbArc
 50
0.5000000326
 51
90.0000000006
  0
ARC
  5
32A
100
AcDbEntity
  8
0
100
AcDbCircle
 62
7
  6
CONTINUOUS
 10
111.4357672584
 20
134.7252572333
 40
1.0
100
AcDbArc
 50
270.0
 51
360.0
  0
ARC
  5
32B
100
AcDbEntity
  8
0
100
AcDbCircle
 62
7
  6
CONTINUOUS
 10
119.7857672586
 20
128.7858373077
 40
0.5
100
AcDbArc
 50
270.0000000003
 51
359.9999999997
  0
ARC
  5
32C
100
AcDbEntity
  8
0
100
AcDbCircle
 62
7
  6
CONTINUOUS
 10
119.7857672586
 20
137.5252572333
 40
0.5
100
AcDbArc
 50
0.0
 51
89.9999999998
  0
ARC
  5
32D
100
AcDbEntity
  8
0
100
AcDbCircle
 62
7
  6
CONTINUOUS
 10
98.6977865203
 20
139.0752572333
 40
1.0
100
AcDbArc
 50
270.0
 51
304.2013154598
  0
ARC
  5
32E
100
AcDbEntity
  8
0
100
AcDbCircle
 62
7
  6
CONTINUOUS
 10
106.173747997
 20
139.0752572333
 40
1.0
100
AcDbArc
 50
235.7986845398
 51
270.0
  0
ARC
  5
32F
100
AcDbEntity
  8
0
100
AcDbCircle
 62
7
  6
CONTINUOUS
 10
109.6857672586
 20
137.5752572333
 40
0.5
100
AcDbArc
 50
0.0
 51
90.0
  0
ARC
  5
330
100
AcDbEntity
  8
0
100
AcDbCircle
 62
7
  6
CONTINUOUS
 10
117.8357672586
 20
147.0252572333
 40
0.3
100
AcDbArc
 50
0.0
 51
90.0
  0
ARC
  5
331
100
AcDbEntity
  8
0
100
AcDbCircle
 62
7
  6
CONTINUOUS
 10
112.7357672947
 20
147.0252572333
 40
0.3
100
AcDbArc
 50
90.0000069218
 51
180.0
  0
SPLINE
  5
332
100
AcDbEntity
  8
0
100
AcDbSpline
 62
7
  6
CONTINUOUS
 70
0
 71
3
 72
14
 73
10
 74
0
 42
0.0000001
 43
0.0000001
 44
0.0000000001
 40
0.0
 40
0.0
 40
0.0
 40
0.0
 40
0.1253306362
 40
0.2502575443
 40
0.375427873
 40
0.5007232344
 40
0.7498220058
 40
0.874828662
 40
1.0
 40
1.0
 40
1.0
 40
1.0
 10
82.9959613359
 20
129.5904840469
 30
0.0
 10
83.0017743938
 20
129.4859507024
 30
0.0
 10
83.0223946499
 20
129.2773489149
 30
0.0
 10
83.1057522636
 20
128.9726019402
 30
0.0
 10
83.2572481832
 20
128.6949875805
 30
0.0
 10
83.524033509
 20
128.3721023952
 30
0.0
 10
83.8800201087
 20
128.1300052144
 30
0.0
 10
84.2828236167
 20
128.0132694942
 30
0.0
 10
84.4916098076
 20
127.9915264157
 30
0.0
 10
84.5960579323
 20
127.9866524731
 30
0.0
  0
SPLINE
  5
333
100
AcDbEntity
  8
0
100
AcDbSpline
 62
7
  6
CONTINUOUS
 70
0
 71
3
 72
18
 73
14
 74
0
 42
0.0000001
 43
0.0000001
 44
0.0000000001
 40
0.0
 40
0.0
 40
0.0
 40
0.0
 40
0.1919060578
 40
0.377902576
 40
0.5500801808
 40
0.701908438
 40
0.8275278109
 40
0.8788960735
 40
0.9218496451
 40
0.9558060815
 40
0.9803315538
 40
0.9951414552
 40
1.0
 40
1.0
 40
1.0
 40
1.0
 10
117.7357672586
 20
146.9252572333
 30
0.0
 10
117.742444308
 20
146.9507741843
 30
0.0
 10
117.7551578455
 20
147.0011364169
 30
0.0
 10
117.7731055854
 20
147.0745773339
 30
0.0
 10
117.7900136418
 20
147.1426109504
 30
0.0
 10
117.8051011019
 20
147.2025170423
 30
0.0
 10
117.8160429835
 20
147.2464191403
 30
0.0
 10
117.8232597229
 20
147.275688944
 30
0.0
 10
117.827679286
 20
147.2929450463
 30
0.0
 10
117.8307999788
 20
147.306040484
 30
0.0
 10
117.8342372493
 20
147.316699746
 30
0.0
 10
117.8343257709
 20
147.3209318995
 30
0.0
 10
117.8364350315
 20
147.3252572381
 30
0.0
 10
117.83576726
 20
147.3252572333
 30
0.0
  0
SPLINE
  5
334
100
AcDbEntity
  8
0
100
AcDbSpline
 62
7
  6
CONTINUOUS
 70
0
 71
3
 72
9
 73
5
 74
0
 42
0.0000001
 43
0.0000001
 44
0.0000000001
 40
0.0
 40
0.0
 40
0.0
 40
0.0
 40
0.6047825177
 40
1.0
 40
1.0
 40
1.0
 40
1.0
 10
112.4929581159
 20
132.1781335336
 30
0.0
 10
112.4866671977
 20
132.1718426094
 30
0.0
 10
112.4758633015
 20
132.1620817785
 30
0.0
 10
112.4617852425
 20
132.1552572333
 30
0.0
 10
112.4559713612
 20
132.1552572333
 30
0.0
  0
SPLINE
  5
335
100
AcDbEntity
  8
0
100
AcDbSpline
 62
7
  6
CONTINUOUS
 70
0
 71
3
 72
10
 73
6
 74
0
 42
0.0000001
 43
0.0000001
 44
0.0000000001
 40
0.0
 40
0.0
 40
0.0
 40
0.0
 40
0.3123661361
 40
0.5916433063
 40
1.0
 40
1.0
 40
1.0
 40
1.0
 10
22.2357672462
 20
147.0252572333
 30
0.0
 10
22.2357672462
 20
147.0590618812
 30
0.0
 10
22.2302140104
 20
147.1235778501
 30
0.0
 10
22.2029388361
 20
147.2271743469
 30
0.0
 10
22.156391
 20
147.296103118
 30
0.0
 10
22.1162899343
 20
147.3146749728
 30
0.0
  0
SPLINE
  5
336
100
AcDbEntity
  8
0
100
AcDbSpline
 62
7
  6
CONTINUOUS
 70
0
 71
3
 72
8
 73
4
 74
0
 42
0.0000001
 43
0.0000001
 44
0.0000000001
 40
0.0
 40
0.0
 40
0.0
 40
0.0
 40
1.0
 40
1.0
 40
1.0
 40
1.0
 10
22.1162899343
 20
147.3146749728
 30
0.0
 10
22.1014028882
 20
147.3215695541
 30
0.0
 10
22.0846288686
 20
147.3252572333
 30
0.0
 10
22.0682227906
 20
147.3252572333
 30
0.0
  0
SPLINE
  5
337
100
AcDbEntity
  8
0
100
AcDbSpline
 62
7
  6
CONTINUOUS
 70
0
 71
3
 72
9
 73
5
 74
0
 42
0.0000001
 43
0.0000001
 44
0.0000000001
 40
0.0
 40
0.0
 40
0.0
 40
0.0
 40
0.7162929275
 40
1.0
 40
1.0
 40
1.0
 40
1.0
 10
112.4774532086
 20
147.0252577108
 30
0.0
 10
112.4814305725
 20
147.0252575005
 30
0.0
 10
112.4869814863
 20
147.0233829622
 30
0.0
 10
112.4916675573
 20
147.0204419047
 30
0.0
 10
112.4929581363
 20
147.0195385178
 30
0.0
  0
LINE
  5
338
100
AcDbEntity
  8
0
100
AcDbLine
 62
7
  6
CONTINUOUS
 10
112.7946832662
 20
147.226838837
 11
112.8273078244
 21
147.0963628903
  0
SPLINE
  5
339
100
AcDbEntity
  8
0
100
AcDbSpline
 62
7
  6
CONTINUOUS
 70
0
 71
3
 72
9
 73
5
 74
0
 42
0.0000001
 43
0.0000001
 44
0.0000000001
 40
0.0
 40
0.0
 40
0.0
 40
0.0
 40
0.2403085912
 40
1.0
 40
1.0
 40
1.0
 40
1.0
 10
112.8273078244
 20
147.0963628903
 30
0.0
 10
112.8306935505
 20
147.0826462076
 30
0.0
 10
112.8447039376
 20
147.0255478974
 30
0.0
 10
112.8587889557
 20
146.9684635561
 30
0.0
 10
112.8701073103
 20
146.9252572333
 30
0.0
  0
SPLINE
  5
33A
100
AcDbEntity
  8
0
100
AcDbSpline
 62
7
  6
CONTINUOUS
 70
0
 71
3
 72
9
 73
5
 74
0
 42
0.0000001
 43
0.0000001
 44
0.0000000001
 40
0.0
 40
0.0
 40
0.0
 40
0.0
 40
0.1426815259
 40
1.0
 40
1.0
 40
1.0
 40
1.0
 10
112.7649473059
 20
147.3252572333
 30
0.0
 10
112.7655568547
 20
147.3252572939
 30
0.0
 10
112.7696287244
 20
147.3231987399
 30
0.0
 10
112.7707996336
 20
147.3184840696
 30
0.0
 10
112.7720520289
 20
147.3150423057
 30
0.0
  0
SPLINE
  5
33B
100
AcDbEntity
  8
0
100
AcDbSpline
 62
7
  6
CONTINUOUS
 70
0
 71
3
 72
9
 73
5
 74
0
 42
0.0000001
 43
0.0000001
 44
0.0000000001
 40
0.0
 40
0.0
 40
0.0
 40
0.0
 40
0.216391249
 40
1.0
 40
1.0
 40
1.0
 40
1.0
 10
112.7720520289
 20
147.3150423057
 30
0.0
 10
112.7723777878
 20
147.314147073
 30
0.0
 10
112.7738030882
 20
147.3099808188
 30
0.0
 10
112.7749661317
 20
147.3057289954
 30
0.0
 10
112.7758007279
 20
147.3023816448
 30
0.0
  0
SPLINE
  5
33C
100
AcDbEntity
  8
0
100
AcDbSpline
 62
7
  6
CONTINUOUS
 70
0
 71
3
 72
9
 73
5
 74
0
 42
0.0000001
 43
0.0000001
 44
0.0000000001
 40
0.0
 40
0.0
 40
0.0
 40
0.0
 40
0.2413412013
 40
1.0
 40
1.0
 40
1.0
 40
1.0
 10
112.7758003393
 20
147.3023831001
 30
0.0
 10
112.7646957309
 20
147.3011493148
 30
0.0
 10
112.7190533948
 20
147.2928735098
 30
0.0
 10
112.6756694046
 20
147.2738720353
 30
0.0
 10
112.6457710094
 20
147.2554421951
 30
0.0
  0
SPLINE
  5
33D
100
AcDbEntity
  8
0
100
AcDbSpline
 62
7
  6
CONTINUOUS
 70
0
 71
3
 72
9
 73
5
 74
0
 42
0.0000001
 43
0.0000001
 44
0.0000000001
 40
0.0
 40
0.0
 40
0.0
 40
0.0
 40
0.2579374533
 40
1.0
 40
1.0
 40
1.0
 40
1.0
 10
112.6457710094
 20
147.2554421951
 30
0.0
 10
112.6352186647
 20
147.2489375642
 30
0.0
 10
112.595592149
 20
147.2217142492
 30
0.0
 10
112.5618957696
 20
147.1857091422
 30
0.0
 10
112.5425305926
 20
147.1557626696
 30
0.0
  0
SPLINE
  5
33E
100
AcDbEntity
  8
0
100
AcDbSpline
 62
7
  6
CONTINUOUS
 70
0
 71
3
 72
9
 73
5
 74
0
 42
0.0000001
 43
0.0000001
 44
0.0000000001
 40
0.0
 40
0.0
 40
0.0
 40
0.0
 40
0.270640559
 40
1.0
 40
1.0
 40
1.0
 40
1.0
 10
112.5425305926
 20
147.1557626696
 30
0.0
 10
112.5353936384
 20
147.1447260235
 30
0.0
 10
112.5115802259
 20
147.1023697005
 30
0.0
 10
112.4968686843
 20
147.054742221
 30
0.0
 10
112.4929574154
 20
147.0195387331
 30
0.0
  0
SPLINE
  5
33F
100
AcDbEntity
  8
0
100
AcDbSpline
 62
7
  6
CONTINUOUS
 70
0
 71
3
 72
10
 73
6
 74
0
 42
0.0000001
 43
0.0000001
 44
0.0000000001
 40
0.0
 40
0.0
 40
0.0
 40
0.0
 40
0.4965042093
 40
0.7520687634
 40
1.0
 40
1.0
 40
1.0
 40
1.0
 10
112.7649467369
 20
147.3252584577
 30
0.0
 10
112.7149615609
 20
147.3252584259
 30
0.0
 10
112.6384725501
 20
147.3006470605
 30
0.0
 10
112.5582116447
 20
147.2388887338
 30
0.0
 10
112.5279358069
 20
147.197159951
 30
0.0
 10
112.5160131612
 20
147.1752312862
 30
0.0
  0
SPLINE
  5
340
100
AcDbEntity
  8
0
100
AcDbSpline
 62
7
  6
CONTINUOUS
 70
0
 71
3
 72
9
 73
5
 74
0
 42
0.0000001
 43
0.0000001
 44
0.0000000001
 40
0.0
 40
0.0
 40
0.0
 40
0.0
 40
0.2659360926
 40
1.0
 40
1.0
 40
1.0
 40
1.0
 10
112.5160131612
 20
147.1752312862
 30
0.0
 10
112.5094183041
 20
147.1631017292
 30
0.0
 10
112.4878353946
 20
147.1158237398
 30
0.0
 10
112.4774525247
 20
147.0633672269
 30
0.0
 10
112.477452567
 20
147.0252572333
 30
0.0
  0
SPLINE
  5
341
100
AcDbEntity
  8
0
100
AcDbSpline
 62
7
  6
CONTINUOUS
 70
0
 71
3
 72
11
 73
7
 74
0
 42
0.0000001
 43
0.0000001
 44
0.0000000001
 40
0.0
 40
0.0
 40
0.0
 40
0.0
 40
0.3417405973
 40
0.6371935633
 40
0.8616427063
 40
1.0
 40
1.0
 40
1.0
 40
1.0
 10
22.2357672588
 20
132.4552572333
 30
0.0
 10
22.2357672588
 20
132.4148901884
 30
0.0
 10
22.2472173358
 20
132.3393413359
 30
0.0
 10
22.2898410228
 20
132.2449673299
 30
0.0
 10
22.3351088664
 20
132.1836743588
 30
0.0
 10
22.373363435
 20
132.1552572333
 30
0.0
 10
22.3897064599
 20
132.1552572333
 30
0.0
  0
ELLIPSE
  5
342
100
AcDbEntity
  8
0
100
AcDbEllipse
 62
7
  6
CONTINUOUS
 10
17.3194841161
 20
128.5752572333
 30
0.0
 11
-0.0
 21
0.3
 31
0.0
 40
0.2679491924
 41
1.5707963268
 42
3.1415926536
  0
ELLIPSE
  5
343
100
AcDbEntity
  8
0
100
AcDbEllipse
 62
7
  6
CONTINUOUS
 10
17.3194841161
 20
137.7252572333
 30
0.0
 11
-0.0
 21
0.3
 31
0.0
 40
0.2679491924
 41
0.0
 42
1.5707963268
  0
ELLIPSE
  5
344
100
AcDbEntity
  8
0
100
AcDbEllipse
 62
7
  6
CONTINUOUS
 10
117.4992203926
 20
128.7858373077
 30
0.0
 11
0.0
 21
0.5
 31
0.0
 40
0.2664295327
 41
-3.1415926536
 42
-1.5707963268
  0
ELLIPSE
  5
345
100
AcDbEntity
  8
0
100
AcDbEllipse
 62
7
  6
CONTINUOUS
 10
117.4992203926
 20
137.5252572333
 30
0.0
 11
0.0
 21
0.5
 31
0.0
 40
0.2664295327
 41
-1.5707963268
 42
-0.0
  0
ENDSEC
  0
SECTION
  2
OBJECTS
  0
DICTIONARY
  5
C
100
AcDbDictionary
280
0
281
1
  3
ACAD_GROUP
350
D
  3
ACAD_MLINESTYLE
350
17
  3
ACAD_LAYOUT
350
1A
  3
ACAD_PLOTSETTINGS
350
19
  3
ACAD_PLOTSTYLENAME
350
E
  0
DICTIONARY
  5
D
102
{ACAD_REACTORS
330
C
102
}
100
AcDbDictionary
280
0
281
1
  0
ACDBDICTIONARYWDFLT
  5
E
102
{ACAD_REACTORS
330
C
102
}
100
AcDbDictionary
281
1
  3
Normal
350
F
100
AcDbDictionaryWithDefault
340
F
  0
DICTIONARY
  5
17
102
{ACAD_REACTORS
330
C
102
}
100
AcDbDictionary
280
0
281
1
  3
Standard
350
18
  0
DICTIONARY
  5
19
102
{ACAD_REACTORS
330
C
102
}
100
AcDbDictionary
281
1
  0
DICTIONARY
  5
1A
102
{ACAD_REACTORS
330
C
102
}
100
AcDbDictionary
281
1
  3
Model
350
346
  3
Layout1
350
347
  0
ACDBPLACEHOLDER
  5
F
102
{ACAD_REACTORS
330
E
102
}
  0
MLINESTYLE
  5
18
102
{ACAD_REACTORS
330
17
102
}
100
AcDbMlineStyle
  2
STANDARD
 70
0
  3

 62
256
 51
90.0
 52
90.0
 71
2
 49
0.5
 62
256
  6
BYLAYER
 49
-0.5
 62
256
  6
BYLAYER
  0
LAYOUT
  5
346
102
{ACAD_REACTORS
330
1A
102
}
100
AcDbPlotSettings
  1

  2
none_device
  4

  6

 40
0.0
 41
0.0
 42
0.0
 43
0.0
 44
210.0
 45
297.0
 46
0.0
 47
0.0
 48
0.0
 49
0.0
140
0.0
141
0.0
142
1.0
143
1.0
 70
1024
 72
1
 73
0
 74
0
  7

 75
0
147
1.0
148
0.0
149
0.0
100
AcDbLayout
  1
Model
 70
0
 71
0
 10
0.0
 20
0.0
 11
210.0
 21
297.0
 12
0.0
 22
0.0
 32
0.0
 14
0.0
 24
0.0
 34
0.0
 15
0.0
 25
0.0
 35
0.0
146
0.0
 13
0.0
 23
0.0
 33
0.0
 16
1.0
 26
0.0
 36
0.0
 17
0.0
 27
1.0
 37
0.0
 76
0
330
210
345
0
346
0
  0
LAYOUT
  5
347
102
{ACAD_REACTORS
330
1A
102
}
100
AcDbPlotSettings
  1

  2
none_device
  4

  6

 40
0.0
 41
0.0
 42
0.0
 43
0.0
 44
210.0
 45
297.0
 46
0.0
 47
0.0
 48
0.0
 49
0.0
140
0.0
141
0.0
142
1.0
143
1.0
 70
0
 72
1
 73
0
 74
0
  7

 75
0
147
1.0
148
0.0
149
0.0
100
AcDbLayout
  1
Layout1
 70
0
 71
1
 10
0.0
 20
0.0
 11
210.0
 21
297.0
 12
0.0
 22
0.0
 32
0.0
 14
0.0
 24
0.0
 34
0.0
 15
0.0
 25
0.0
 35
0.0
146
0.0
 13
0.0
 23
0.0
 33
0.0
 16
1.0
 26
0.0
 36
0.0
 17
0.0
 27
1.0
 37
0.0
 76
0
330
211
345
0
346
0
  0
ENDSEC
  0
EOF
