999
DXF file: C:\Users\sesa63760\Dev\_Creo\CAD\MCADID0004818_3D-CAD\drw0001_1.dxf
999
Pro/ENGINEER 2019471 by Parametric Technology Corporation
  0
SECTION
  2
HEADER
  9
$ACADVER
  1
AC1024
  9
$DWGCODEPAGE
  3
ANSI_1252
  9
$EXTMAX
 10
85.3686743805
 20
120.7356966238
 30
0.0
  9
$EXTMIN
 10
0.0
 20
0.0
 30
0.0
  9
$LIMMIN
 10
0.0
 20
0.0
  9
$LIMMAX
 10
85.3686743805
 20
120.7356966238
  9
$VIEWCTR
 10
42.6843371902
 20
60.3678483119
  9
$VIEWSIZE
 40
120.7356966238
  9
$CLAYER
  8
0
  9
$LTSCALE
 40
7.8701787429
  9
$CELTYPE
  6
BYLAYER
  9
$DIMSCALE
 40
1.0
  9
$DIMASZ
 40
1.0162937426
  9
$DIMEXO
 40
1.0
  9
$DIMDLI
 40
5.4375780405
  9
$DIMEXE
 40
1.0
  9
$DIMCEN
 40
1.2878474307
  9
$DIMLFAC
 40
1.0
  9
$DIMBLK
  1
_FILLED
  9
$DIMALT
 70
0
  9
$DIMALTF
 40
0.0393700787
  9
$DIMTXT
 40
1.4228112397
  9
$DIMTOL
 70
1
  9
$DIMLIM
 70
0
  9
$DIMTFAC
 40
1.0
  9
$DIMTP
 40
0.01
  9
$DIMTM
 40
0.01
  9
$DIMGAP
 40
0.625
  9
$DIMDSEP
 70
46
  9
$AUNITS
 70
0
  9
$PDMODE
 70
3
  9
$PDSIZE
 40
0.3125
  9
$HANDSEED
  5
2C6
  9
$TILEMODE
 70
1
  9
$MEASUREMENT
 70
1
  9
$INSUNITS
 70
4
  0
ENDSEC
  0
SECTION
  2
CLASSES
  0
CLASS
  1
ACDBDICTIONARYWDFLT
  2
AcDbDictionaryWithDefault
  3
AutoCAD 2000
 90
0
 91
1
280
0
281
0
  0
CLASS
  1
ACDBPLACEHOLDER
  2
AcDbPlaceHolder
  3
AutoCAD 2000
 90
0
 91
1
280
0
281
0
  0
CLASS
  1
LAYOUT
  2
AcDbLayout
  3
AutoCAD 2000
 90
0
 91
0
280
0
281
0
  0
ENDSEC
  0
SECTION
  2
TABLES
  0
TABLE
  2
VPORT
  5
8
100
AcDbSymbolTable
 70
2
  0
VPORT
  5
1F4
100
AcDbSymbolTableRecord
100
AcDbViewportTableRecord
  2
*ACTIVE
 70
0
 10
0.0
 20
0.0
 11
1.0
 21
1.0
 12
42.6843371902
 22
60.3678483119
 13
0.0
 23
0.0
 14
1.0
 24
1.0
 15
0.0
 25
0.0
 16
0.0
 26
0.0
 36
1.0
 17
0.0
 27
0.0
 37
0.0
 40
120.7356966238
 41
0.7070707071
 42
50.0
 43
0.0
 44
0.0
 50
0.0
 51
0.0
 71
0
 72
100
 73
1
 74
1
 75
0
 76
0
 77
0
 78
0
  0
ENDTAB
  0
TABLE
  2
LTYPE
  5
5
100
AcDbSymbolTable
 70
6
  0
LTYPE
  5
14
100
AcDbSymbolTableRecord
100
AcDbLinetypeTableRecord
  2
BYBLOCK
 70
0
  3

 72
65
 73
0
 40
0.0
  0
LTYPE
  5
15
100
AcDbSymbolTableRecord
100
AcDbLinetypeTableRecord
  2
BYLAYER
 70
0
  3

 72
65
 73
0
 40
0.0
  0
LTYPE
  5
16
100
AcDbSymbolTableRecord
100
AcDbLinetypeTableRecord
  2
CONTINUOUS
 70
64
  3
Solid line
 72
65
 73
0
 40
0.0
  0
LTYPE
  5
1F5
100
AcDbSymbolTableRecord
100
AcDbLinetypeTableRecord
  2
CENTER
 70
64
  3
____ _ ____ _ ____ _ ____ _ ____ _ ____ _ ____
 72
65
 73
4
 40
0.6
 49
0.375
 74
0
 49
-0.075
 74
0
 49
0.075
 74
0
 49
-0.075
 74
0
  0
LTYPE
  5
1F6
100
AcDbSymbolTableRecord
100
AcDbLinetypeTableRecord
  2
HIDDEN
 70
64
  3
- - - - - - - - - - - - - - - - - - - -
 72
65
 73
2
 40
0.2
 49
0.1
 74
0
 49
-0.1
 74
0
  0
LTYPE
  5
1F7
100
AcDbSymbolTableRecord
100
AcDbLinetypeTableRecord
  2
PHANTOM
 70
64
  3
_____ _ _ _____ _ _ _____ _ _ _____
 72
65
 73
6
 40
0.8
 49
0.45
 74
0
 49
-0.05
 74
0
 49
0.1
 74
0
 49
-0.05
 74
0
 49
0.1
 74
0
 49
-0.05
 74
0
  0
LTYPE
  5
1F8
100
AcDbSymbolTableRecord
100
AcDbLinetypeTableRecord
  2
DOT
 70
64
  3
. . . . . . . . . . . . . . . . . . . .
 72
65
 73
2
 40
0.2
 49
0.1
 74
0
 49
-0.1
 74
0
  0
LTYPE
  5
1F9
100
AcDbSymbolTableRecord
100
AcDbLinetypeTableRecord
  2
DASHED
 70
64
  3
- - - - - - - - - - - - - - - - - - - -
 72
65
 73
2
 40
0.2
 49
0.1
 74
0
 49
-0.1
 74
0
  0
ENDTAB
  0
TABLE
  2
LAYER
  5
2
100
AcDbSymbolTable
 70
36
  0
LAYER
  5
10
100
AcDbSymbolTableRecord
100
AcDbLayerTableRecord
  2
0
 70
0
 62
7
  6
CONTINUOUS
370
-3
390
F
  0
LAYER
  5
1FA
100
AcDbSymbolTableRecord
100
AcDbLayerTableRecord
  2
DEFAULT_1
 70
0
 62
7
  6
CENTER
370
-3
390
F
  0
LAYER
  5
1FB
100
AcDbSymbolTableRecord
100
AcDbLayerTableRecord
  2
DEFAULT_2
 70
0
 62
7
  6
HIDDEN
370
-3
390
F
  0
LAYER
  5
1FC
100
AcDbSymbolTableRecord
100
AcDbLayerTableRecord
  2
DEFAULT_3
 70
0
 62
7
  6
PHANTOM
370
-3
390
F
  0
LAYER
  5
1FD
100
AcDbSymbolTableRecord
100
AcDbLayerTableRecord
  2
00_COMPONENTS
 70
0
 62
7
  6
CONTINUOUS
370
-3
390
F
  0
LAYER
  5
1FE
100
AcDbSymbolTableRecord
100
AcDbLayerTableRecord
  2
01_1_DEFAULT_DATUMS
 70
0
 62
7
  6
CONTINUOUS
370
-3
390
F
  0
LAYER
  5
1FF
100
AcDbSymbolTableRecord
100
AcDbLayerTableRecord
  2
01_PLANES
 70
0
 62
7
  6
CONTINUOUS
370
-3
390
F
  0
LAYER
  5
200
100
AcDbSymbolTableRecord
100
AcDbLayerTableRecord
  2
02_COORD_SYS
 70
0
 62
7
  6
CONTINUOUS
370
-3
390
F
  0
LAYER
  5
201
100
AcDbSymbolTableRecord
100
AcDbLayerTableRecord
  2
03_AXES
 70
0
 62
7
  6
CONTINUOUS
370
-3
390
F
  0
LAYER
  5
202
100
AcDbSymbolTableRecord
100
AcDbLayerTableRecord
  2
04_POINTS
 70
0
 62
7
  6
CONTINUOUS
370
-3
390
F
  0
LAYER
  5
203
100
AcDbSymbolTableRecord
100
AcDbLayerTableRecord
  2
05_CURVES
 70
0
 62
7
  6
CONTINUOUS
370
-3
390
F
  0
LAYER
  5
204
100
AcDbSymbolTableRecord
100
AcDbLayerTableRecord
  2
06_SURFS
 70
0
 62
7
  6
CONTINUOUS
370
-3
390
F
  0
LAYER
  5
205
100
AcDbSymbolTableRecord
100
AcDbLayerTableRecord
  2
07_COSMETICS
 70
0
 62
7
  6
CONTINUOUS
370
-3
390
F
  0
LAYER
  5
206
100
AcDbSymbolTableRecord
100
AcDbLayerTableRecord
  2
10_NOTES
 70
0
 62
7
  6
CONTINUOUS
370
-3
390
F
  0
LAYER
  5
207
100
AcDbSymbolTableRecord
100
AcDbLayerTableRecord
  2
11_NOTES_PUB
 70
0
 62
7
  6
CONTINUOUS
370
-3
390
F
  0
LAYER
  5
208
100
AcDbSymbolTableRecord
100
AcDbLayerTableRecord
  2
13_REF_GTOL
 70
0
 62
7
  6
CONTINUOUS
370
-3
390
F
  0
LAYER
  5
209
100
AcDbSymbolTableRecord
100
AcDbLayerTableRecord
  2
16_MISC
 70
0
 62
7
  6
CONTINUOUS
370
-3
390
F
  0
LAYER
  5
20A
100
AcDbSymbolTableRecord
100
AcDbLayerTableRecord
  2
17_NO_PRINT
 70
0
 62
7
  6
CONTINUOUS
370
-3
390
F
  0
LAYER
  5
20B
100
AcDbSymbolTableRecord
100
AcDbLayerTableRecord
  2
18_DATUM_CAMS_JOINTS
 70
0
 62
7
  6
CONTINUOUS
370
-3
390
F
  0
LAYER
  5
20C
100
AcDbSymbolTableRecord
100
AcDbLayerTableRecord
  2
19_DATUM_FUNCTIONAL
 70
0
 62
7
  6
CONTINUOUS
370
-3
390
F
  0
LAYER
  5
20D
100
AcDbSymbolTableRecord
100
AcDbLayerTableRecord
  2
20_DATUM_KINEMATIC_SCHEME
 70
0
 62
7
  6
CONTINUOUS
370
-3
390
F
  0
ENDTAB
  0
TABLE
  2
STYLE
  5
3
100
AcDbSymbolTable
 70
1
  0
STYLE
  5
11
100
AcDbSymbolTableRecord
100
AcDbTextStyleTableRecord
  2
STANDARD
 70
0
 40
0.0
 41
1.0
 50
0.0
 71
0
 42
0.2
  3
ARIAL.TTF
  4

  0
STYLE
  5
20E
100
AcDbSymbolTableRecord
100
AcDbTextStyleTableRecord
  2
TEXTSTYLE_1
 70
0
 40
0.0
 41
0.8
 50
0.0
 71
0
 42
0.2
  3
gdt
  4

  0
ENDTAB
  0
TABLE
  2
VIEW
  5
6
100
AcDbSymbolTable
 70
0
  0
ENDTAB
  0
TABLE
  2
UCS
  5
7
100
AcDbSymbolTable
 70
0
  0
ENDTAB
  0
TABLE
  2
APPID
  5
9
100
AcDbSymbolTable
 70
1
  0
APPID
  5
20F
100
AcDbSymbolTableRecord
100
AcDbRegAppTableRecord
  2
ACAD
 70
0
  0
ENDTAB
  0
TABLE
  2
BLOCK_RECORD
  5
1
100
AcDbSymbolTable
 70
0
  0
BLOCK_RECORD
  5
210
100
AcDbSymbolTableRecord
100
AcDbBlockTableRecord
  2
*Model_Space
  0
BLOCK_RECORD
  5
211
100
AcDbSymbolTableRecord
100
AcDbBlockTableRecord
  2
*Paper_Space
  0
BLOCK_RECORD
  5
212
100
AcDbSymbolTableRecord
100
AcDbBlockTableRecord
  2
_FILLED
  0
ENDTAB
  0
TABLE
  2
DIMSTYLE
  5
A
100
AcDbSymbolTable
 70
1
100
AcDbDimStyleTable
 71
0
  0
DIMSTYLE
105
213
100
AcDbSymbolTableRecord
100
AcDbDimStyleTableRecord
  2
STANDARD
 70
0
  3

  4

 40
1.0
 41
1.0162937426
 42
1.0
 43
0.38
 44
1.0
 45
0.0
 46
0.0
 47
0.01
 48
0.01
140
1.4228112397
141
0.09
142
0.0
143
25.4
144
1.0
145
0.0
146
1.0
147
0.625
 71
1
 72
0
 73
0
 74
0
 75
0
 76
0
 77
1
 78
8
 79
2
170
0
171
1
172
0
173
0
174
0
175
0
176
0
177
0
178
0
270
2
179
2
271
2
272
2
273
2
274
2
275
0
280
0
281
0
282
0
283
1
284
8
285
0
286
0
287
3
288
0
340
11
278
46
341
212
342
212
343
212
344
212
  0
ENDTAB
  0
ENDSEC
  0
SECTION
  2
BLOCKS
  0
BLOCK
  5
20
100
AcDbEntity
  8
0
100
AcDbBlockBegin
  2
*Model_Space
 70
0
 10
0.0
 20
0.0
 30
0.0
  3
*Model_Space
  1

  0
ENDBLK
  5
21
100
AcDbEntity
  8
0
100
AcDbBlockEnd
  0
BLOCK
  5
1C
100
AcDbEntity
  8
0
100
AcDbBlockBegin
  2
*Paper_Space
 70
0
 10
0.0
 20
0.0
 30
0.0
  3
*Paper_Space
  1

  0
ENDBLK
  5
1D
100
AcDbEntity
  8
0
100
AcDbBlockEnd
  0
BLOCK
  5
214
100
AcDbEntity
  8
0
100
AcDbBlockBegin
  2
_FILLED
 70
64
 10
0.0
 20
0.0
  3
_FILLED
  1

  0
SOLID
  5
215
100
AcDbEntity
  8
0
  6
BYBLOCK
 62
0
100
AcDbTrace
 10
0.0
 20
0.0
 11
-1.0
 21
0.25
 12
-1.0
 22
-0.25
 13
-1.0
 23
-0.25
  0
ENDBLK
  5
216
100
AcDbEntity
  8
0
  6
BYBLOCK
 62
0
100
AcDbBlockEnd
  0
ENDSEC
  0
SECTION
  2
ENTITIES
  0
LINE
  5
217
100
AcDbEntity
  8
0
100
AcDbLine
 62
7
  6
BYLAYER
 10
10.6402598394
 20
62.6098907919
 11
10.8486411808
 21
61.6256401239
  0
LINE
  5
218
100
AcDbEntity
  8
0
100
AcDbLine
 62
7
  6
BYLAYER
 10
17.8006278905
 20
68.4387529915
 11
17.5922276537
 21
67.4545420601
  0
LINE
  5
219
100
AcDbEntity
  8
0
100
AcDbLine
 62
7
  6
BYLAYER
 10
17.2728996653
 20
66.0635362437
 11
17.5922582612
 21
67.4545282466
  0
LINE
  5
21A
100
AcDbEntity
  8
0
100
AcDbLine
 62
7
  6
BYLAYER
 10
17.5922808064
 20
64.6724949941
 11
17.2728996653
 21
66.0635362437
  0
LINE
  5
21B
100
AcDbEntity
  8
0
100
AcDbLine
 62
7
  6
BYLAYER
 10
21.5729670762
 20
51.081729438
 11
21.5729670762
 21
53.6945371728
  0
LINE
  5
21C
100
AcDbEntity
  8
0
100
AcDbLine
 62
7
  6
BYLAYER
 10
21.5729670762
 20
59.7366550596
 11
21.5729670762
 21
62.3494627944
  0
LWPOLYLINE
  5
21D
100
AcDbEntity
  8
0
100
AcDbPolyline
 62
7
  6
BYLAYER
 90
3
 70
0
 10
42.5917491409
 20
38.3282239908
 10
42.9101175887
 20
38.3821619561
 10
43.1591931706
 20
38.4876513157
  0
LINE
  5
21E
100
AcDbEntity
  8
0
100
AcDbLine
 62
7
  6
BYLAYER
 10
42.5916349657
 20
38.3282177813
 11
42.5917491409
 21
38.3282239908
  0
LWPOLYLINE
  5
21F
100
AcDbEntity
  8
0
100
AcDbPolyline
 62
7
  6
BYLAYER
 90
4
 70
0
 10
42.361268663
 20
38.3433049985
 10
42.3943178211
 20
38.3387952772
 10
42.5337764846
 20
38.3287309562
 10
42.5916321298
 20
38.3282857444
  0
LINE
  5
220
100
AcDbEntity
  8
0
100
AcDbLine
 62
7
  6
BYLAYER
 10
42.361268663
 20
38.3433049985
 11
42.3613599579
 21
38.3432913322
  0
LWPOLYLINE
  5
221
100
AcDbEntity
  8
0
100
AcDbPolyline
 62
7
  6
BYLAYER
 90
3
 70
0
 10
23.7011685903
 20
49.8530395176
 10
24.1253691294
 20
49.0032846838
 10
25.099983374
 20
48.2091378767
  0
LINE
  5
222
100
AcDbEntity
  8
0
100
AcDbLine
 62
7
  6
BYLAYER
 10
25.0999389745
 20
48.209163495
 11
25.0378052783
 21
48.3464993393
  0
LINE
  5
223
100
AcDbEntity
  8
0
100
AcDbLine
 62
7
  6
BYLAYER
 10
23.5733245042
 20
62.3903056175
 11
23.5733245642
 21
62.8973812286
  0
LWPOLYLINE
  5
224
100
AcDbEntity
  8
0
100
AcDbPolyline
 62
7
  6
BYLAYER
 90
3
 70
0
 10
23.7627375426
 20
63.6814844942
 10
23.624329906
 20
63.3085970068
 10
23.5733246128
 20
62.8973751084
  0
LINE
  5
225
100
AcDbEntity
  8
0
100
AcDbLine
 62
7
  6
BYLAYER
 10
23.7627376113
 20
63.6814846726
 11
23.7627966618
 21
63.6816034951
  0
LWPOLYLINE
  5
226
100
AcDbEntity
  8
0
100
AcDbPolyline
 62
7
  6
BYLAYER
 90
4
 70
0
 10
41.9291657237
 20
38.4930247113
 10
42.0940940398
 20
38.414120168
 10
42.2779329642
 20
38.3586954932
 10
42.3612741666
 20
38.3433041773
  0
LINE
  5
227
100
AcDbEntity
  8
0
100
AcDbLine
 62
7
  6
BYLAYER
 10
41.9291465406
 20
38.4930357848
 11
41.9291654781
 21
38.4930248531
  0
LINE
  5
228
100
AcDbEntity
  8
0
100
AcDbLine
 62
7
  6
BYLAYER
 10
25.0999389745
 20
48.209163495
 11
41.9291504811
 21
38.4930335096
  0
LINE
  5
229
100
AcDbEntity
  8
0
100
AcDbLine
 62
7
  6
BYLAYER
 10
41.8670169129
 20
38.6303692801
 11
25.0378052852
 21
48.3464993353
  0
LINE
  5
22A
100
AcDbEntity
  8
0
100
AcDbLine
 62
7
  6
BYLAYER
 10
25.0378053182
 20
48.9180510083
 11
41.8670167767
 21
39.2019210507
  0
LINE
  5
22B
100
AcDbEntity
  8
0
100
AcDbLine
 62
7
  6
BYLAYER
 10
42.7862588306
 20
38.8345068024
 11
21.5729670762
 21
51.081729438
  0
LINE
  5
22C
100
AcDbEntity
  8
0
100
AcDbLine
 62
7
  6
BYLAYER
 10
25.0378052852
 20
48.3464993353
 11
25.0378053182
 21
48.9180510083
  0
LINE
  5
22D
100
AcDbEntity
  8
0
100
AcDbLine
 62
7
  6
BYLAYER
 10
25.0378053182
 20
60.3490848481
 11
25.0378052853
 21
60.9206365591
  0
LINE
  5
22E
100
AcDbEntity
  8
0
100
AcDbLine
 62
7
  6
BYLAYER
 10
43.7408472001
 20
39.3856353647
 11
43.8115593945
 21
39.3448105838
  0
LINE
  5
22F
100
AcDbEntity
  8
0
100
AcDbLine
 62
7
  6
BYLAYER
 10
24.7549608393
 20
51.8574537775
 11
21.5729670762
 21
53.6945371728
  0
LINE
  5
230
100
AcDbEntity
  8
0
100
AcDbLine
 62
7
  6
BYLAYER
 10
30.0582837779
 20
51.8167070619
 11
30.0582837779
 21
57.4505737401
  0
LWPOLYLINE
  5
231
100
AcDbEntity
  8
0
100
AcDbPolyline
 62
7
  6
BYLAYER
 90
4
 70
0
 10
24.4942481375
 20
64.556895451
 10
24.2079079191
 20
64.2964374082
 10
23.9323230965
 20
63.9654269665
 10
23.7627966618
 20
63.6816034951
  0
LINE
  5
232
100
AcDbEntity
  8
0
100
AcDbLine
 62
7
  6
BYLAYER
 10
24.4934013499
 20
64.5562074836
 11
24.4942482675
 21
64.5568955677
  0
LWPOLYLINE
  5
233
100
AcDbEntity
  8
0
100
AcDbPolyline
 62
7
  6
BYLAYER
 90
3
 70
0
 10
24.9444016951
 20
64.8592981465
 10
24.8881272079
 20
64.8263791696
 10
24.4934013499
 20
64.5562074836
  0
LINE
  5
234
100
AcDbEntity
  8
0
100
AcDbLine
 62
7
  6
BYLAYER
 10
30.9068083826
 20
52.3066000466
 11
30.9068083826
 21
56.9606910047
  0
LINE
  5
235
100
AcDbEntity
  8
0
100
AcDbLine
 62
7
  6
BYLAYER
 10
31.6492600517
 20
59.4713794636
 11
31.6492600517
 21
60.2878818807
  0
LINE
  5
236
100
AcDbEntity
  8
0
100
AcDbLine
 62
7
  6
BYLAYER
 10
24.9443948551
 20
64.8592942079
 11
55.7576164928
 21
82.6492098489
  0
LINE
  5
237
100
AcDbEntity
  8
0
100
AcDbLine
 62
7
  6
BYLAYER
 10
24.8714087927
 20
64.5804184834
 11
49.7110276367
 21
78.921493505
  0
LINE
  5
238
100
AcDbEntity
  8
0
100
AcDbLine
 62
7
  6
BYLAYER
 10
50.85174634
 20
79.5800838243
 11
56.1901254943
 21
82.6621800681
  0
LINE
  5
239
100
AcDbEntity
  8
0
100
AcDbLine
 62
7
  6
BYLAYER
 10
21.5729670762
 20
62.3494627944
 11
23.730724422
 21
63.5952371426
  0
LINE
  5
23A
100
AcDbEntity
  8
0
100
AcDbLine
 62
7
  6
BYLAYER
 10
24.7549608393
 20
57.8995716642
 11
21.5729670762
 21
59.7366550596
  0
LINE
  5
23B
100
AcDbEntity
  8
0
100
AcDbLine
 62
7
  6
BYLAYER
 10
41.8670167849
 20
38.630369354
 11
41.9291465406
 21
38.4930357848
  0
LINE
  5
23C
100
AcDbEntity
  8
0
100
AcDbLine
 62
7
  6
BYLAYER
 10
34.3009421288
 20
49.3672625348
 11
34.3009421288
 21
55.001129213
  0
LINE
  5
23D
100
AcDbEntity
  8
0
100
AcDbLine
 62
7
  6
BYLAYER
 10
58.0065254082
 20
79.6896678718
 11
59.067181164
 21
80.3020341026
  0
LINE
  5
23E
100
AcDbEntity
  8
0
100
AcDbLine
 62
7
  6
BYLAYER
 10
42.7862588306
 20
50.1022401588
 11
21.5729670762
 21
62.3494627944
  0
LINE
  5
23F
100
AcDbEntity
  8
0
100
AcDbLine
 62
7
  6
BYLAYER
 10
25.0378052853
 20
60.9206365591
 11
41.8670169178
 21
51.2045065011
  0
LINE
  5
240
100
AcDbEntity
  8
0
100
AcDbLine
 62
7
  6
BYLAYER
 10
42.0791479278
 20
51.5719305538
 11
25.2499364693
 21
61.2880605114
  0
LINE
  5
241
100
AcDbEntity
  8
0
100
AcDbLine
 62
7
  6
BYLAYER
 10
30.3764731447
 20
59.5530424037
 11
31.6492600517
 21
60.2878818807
  0
LINE
  5
242
100
AcDbEntity
  8
0
100
AcDbLine
 62
7
  6
BYLAYER
 10
36.2808393497
 20
56.1442321035
 11
30.3764731447
 21
59.5530424037
  0
LINE
  5
243
100
AcDbEntity
  8
0
100
AcDbLine
 62
7
  6
BYLAYER
 10
31.5785478573
 20
59.4305540028
 11
36.7757921179
 21
56.4299915117
  0
LINE
  5
244
100
AcDbEntity
  8
0
100
AcDbLine
 62
7
  6
BYLAYER
 10
31.6492600517
 20
59.4713794636
 11
36.8465043123
 21
56.4708169725
  0
LINE
  5
245
100
AcDbEntity
  8
0
100
AcDbLine
 62
7
  6
BYLAYER
 10
31.6492600517
 20
60.2878818807
 11
37.5536262567
 21
56.8790715804
  0
LINE
  5
246
100
AcDbEntity
  8
0
100
AcDbLine
 62
7
  6
BYLAYER
 10
21.5729670762
 20
53.6945371728
 11
21.9164160391
 21
53.8928263404
  0
LINE
  5
247
100
AcDbEntity
  8
0
100
AcDbLine
 62
7
  6
BYLAYER
 10
31.0835950891
 20
59.1447945946
 11
31.6492600517
 21
59.4713794636
  0
LINE
  5
248
100
AcDbEntity
  8
0
100
AcDbLine
 62
7
  6
BYLAYER
 10
41.8670167767
 20
39.2019210507
 11
41.8670169129
 21
38.6303692801
  0
LINE
  5
249
100
AcDbEntity
  8
0
100
AcDbLine
 62
7
  6
BYLAYER
 10
41.8670169178
 20
51.2045065011
 11
41.8670167767
 21
50.6329548905
  0
LINE
  5
24A
100
AcDbEntity
  8
0
100
AcDbLine
 62
7
  6
BYLAYER
 10
42.7862588306
 20
50.1022401588
 11
42.7862588306
 21
38.8345068024
  0
LINE
  5
24B
100
AcDbEntity
  8
0
100
AcDbLine
 62
7
  6
BYLAYER
 10
43.5640730515
 20
38.9569744048
 11
43.5640730515
 21
39.2019251299
  0
LINE
  5
24C
100
AcDbEntity
  8
0
100
AcDbLine
 62
7
  6
BYLAYER
 10
43.5640802736
 20
50.8779129612
 11
43.5640730515
 21
50.6329589698
  0
LINE
  5
24D
100
AcDbEntity
  8
0
100
AcDbLine
 62
7
  6
BYLAYER
 10
26.9386407951
 20
53.1181944622
 11
24.7549608393
 21
51.8574537775
  0
LINE
  5
24E
100
AcDbEntity
  8
0
100
AcDbLine
 62
7
  6
BYLAYER
 10
37.5536262567
 20
56.8790715804
 11
36.2808393497
 21
56.1442321035
  0
LINE
  5
24F
100
AcDbEntity
  8
0
100
AcDbLine
 62
7
  6
BYLAYER
 10
43.8115593945
 20
50.7758444236
 11
43.8115593945
 21
48.9384991101
  0
LINE
  5
250
100
AcDbEntity
  8
0
100
AcDbLine
 62
7
  6
BYLAYER
 10
43.8115593945
 20
41.1821558973
 11
43.8115593945
 21
39.3448105838
  0
LINE
  5
251
100
AcDbEntity
  8
0
100
AcDbLine
 62
7
  6
BYLAYER
 10
30.9068083826
 20
52.3066000466
 11
30.0582837779
 21
51.8167070619
  0
LINE
  5
252
100
AcDbEntity
  8
0
100
AcDbLine
 62
7
  6
BYLAYER
 10
72.3254885105
 20
72.6475199553
 11
71.2648327547
 21
72.0351537245
  0
LINE
  5
253
100
AcDbEntity
  8
0
100
AcDbLine
 62
7
  6
BYLAYER
 10
69.8241220054
 20
67.2798667056
 11
69.8241624672
 21
67.2798827022
  0
LINE
  5
254
100
AcDbEntity
  8
0
100
AcDbLine
 62
7
  6
BYLAYER
 10
51.5897016039
 20
55.1848798745
 11
51.5897016039
 21
43.9171465181
  0
LINE
  5
255
100
AcDbEntity
  8
0
100
AcDbLine
 62
7
  6
BYLAYER
 10
70.4076924766
 20
67.5535243013
 11
70.4078127559
 21
67.5535937526
  0
LINE
  5
256
100
AcDbEntity
  8
0
100
AcDbLine
 62
7
  6
BYLAYER
 10
76.4134636335
 20
70.9864944889
 11
71.0750830406
 21
67.9043974139
  0
LINE
  5
257
100
AcDbEntity
  8
0
100
AcDbLine
 62
7
  6
BYLAYER
 10
69.9343657761
 20
67.2458079254
 11
42.5882733111
 21
51.4576283224
  0
LWPOLYLINE
  5
258
100
AcDbEntity
  8
0
100
AcDbPolyline
 62
7
  6
BYLAYER
 90
4
 70
0
 10
70.4078089373
 20
67.5536003839
 10
70.2372401305
 20
67.4617111488
 10
69.9922230754
 20
67.3486628201
 10
69.8241741593
 20
67.2799124882
  0
LINE
  5
259
100
AcDbEntity
  8
0
100
AcDbLine
 62
7
  6
BYLAYER
 10
43.5640802736
 20
50.8779129612
 11
76.7908823622
 21
70.0613024853
  0
LINE
  5
25A
100
AcDbEntity
  8
0
100
AcDbLine
 62
7
  6
BYLAYER
 10
43.8115593945
 20
50.7758444236
 11
43.5640730515
 21
50.6329589698
  0
LINE
  5
25B
100
AcDbEntity
  8
0
100
AcDbLine
 62
7
  6
BYLAYER
 10
42.7862588306
 20
50.1022401588
 11
51.5897016039
 21
55.1848798745
  0
LINE
  5
25C
100
AcDbEntity
  8
0
100
AcDbLine
 62
7
  6
BYLAYER
 10
70.8815928646
 20
67.8887093675
 11
70.8817735621
 21
67.8888616012
  0
LWPOLYLINE
  5
25D
100
AcDbEntity
  8
0
100
AcDbPolyline
 62
7
  6
BYLAYER
 90
4
 70
0
 10
70.8817060807
 20
67.8888263975
 10
70.7518270515
 20
67.7840262768
 10
70.55355093
 20
67.6431609827
 10
70.4076924766
 20
67.5535243013
  0
LINE
  5
25E
100
AcDbEntity
  8
0
100
AcDbLine
 62
7
  6
BYLAYER
 10
59.067181164
 20
79.077311839
 11
59.067181164
 21
80.3020341026
  0
LINE
  5
25F
100
AcDbEntity
  8
0
100
AcDbLine
 62
7
  6
BYLAYER
 10
69.8241624672
 20
67.2798827022
 11
69.9343657761
 21
67.2458079255
  0
LINE
  5
260
100
AcDbEntity
  8
0
100
AcDbLine
 62
7
  6
BYLAYER
 10
42.7862588306
 20
38.8345068024
 11
51.5897016039
 21
43.9171465181
  0
LINE
  5
261
100
AcDbEntity
  8
0
100
AcDbLine
 62
7
  6
BYLAYER
 10
43.8115593945
 20
39.3448105838
 11
43.5640730515
 21
39.2019251299
  0
LINE
  5
262
100
AcDbEntity
  8
0
100
AcDbLine
 62
7
  6
BYLAYER
 10
76.7908823622
 20
58.1403671952
 11
43.5640730515
 21
38.9569744048
  0
LINE
  5
263
100
AcDbEntity
  8
0
100
AcDbLine
 62
7
  6
BYLAYER
 10
43.2123796888
 20
38.517178004
 11
76.6809514982
 21
57.8401516049
  0
LINE
  5
264
100
AcDbEntity
  8
0
100
AcDbLine
 62
7
  6
BYLAYER
 10
43.1873154252
 20
38.5032180121
 11
43.2123796888
 21
38.517178004
  0
LINE
  5
265
100
AcDbEntity
  8
0
100
AcDbLine
 62
7
  6
BYLAYER
 10
43.1591931706
 20
38.4876513157
 11
43.1876929972
 21
38.502681368
  0
LINE
  5
266
100
AcDbEntity
  8
0
100
AcDbLine
 62
7
  6
BYLAYER
 10
71.2648327547
 20
72.0351537245
 11
58.0065254082
 21
79.6896678718
  0
LINE
  5
267
100
AcDbEntity
  8
0
100
AcDbLine
 62
7
  6
BYLAYER
 10
59.067181164
 20
80.3020341026
 11
72.3254885105
 21
72.6475199553
  0
LINE
  5
268
100
AcDbEntity
  8
0
100
AcDbLine
 62
7
  6
BYLAYER
 10
76.7908823622
 20
70.0613024853
 11
76.7908823622
 21
58.1403671952
  0
ARC
  5
269
100
AcDbEntity
  8
0
100
AcDbCircle
 62
7
  6
BYLAYER
 10
67.9709589902
 20
72.2176394911
 40
5.3454724136
100
AcDbArc
 50
290.5673713627
 51
291.5493675477
  0
ARC
  5
26A
100
AcDbEntity
  8
0
100
AcDbCircle
 62
7
  6
BYLAYER
 10
54.2698751567
 20
79.4291769186
 40
4.2943618457
100
AcDbArc
 50
297.7323315674
 51
299.3487254295
  0
ARC
  5
26B
100
AcDbEntity
  8
0
100
AcDbCircle
 62
7
  6
BYLAYER
 10
54.3776496808
 20
79.2388318075
 40
4.0756241827
100
AcDbArc
 50
299.3395978142
 51
301.1436524658
  0
ARC
  5
26C
100
AcDbEntity
  8
0
100
AcDbCircle
 62
7
  6
BYLAYER
 10
66.4486683067
 20
67.5158484308
 40
3.7331310969
100
AcDbArc
 50
119.9897496019
 51
121.6353452529
  0
ARC
  5
26D
100
AcDbEntity
  8
0
100
AcDbCircle
 62
7
  6
BYLAYER
 10
66.4432207298
 20
64.5047944053
 40
3.7217427555
100
AcDbArc
 50
119.9941014501
 51
122.2574680322
  0
ARC
  5
26E
100
AcDbEntity
  8
0
100
AcDbCircle
 62
7
  6
BYLAYER
 10
52.2940762039
 20
72.681418696
 40
3.7080406901
100
AcDbArc
 50
119.9923135739
 51
122.5813902411
  0
ARC
  5
26F
100
AcDbEntity
  8
0
100
AcDbCircle
 62
7
  6
BYLAYER
 10
54.3862440709
 20
72.741041868
 40
3.6381981328
100
AcDbArc
 50
56.9361330938
 51
60.0044368248
  0
ARC
  5
270
100
AcDbEntity
  8
0
100
AcDbCircle
 62
7
  6
BYLAYER
 10
68.5951195217
 20
64.6799647059
 40
3.5148799013
100
AcDbArc
 50
56.7684819606
 51
57.2802633262
  0
ARC
  5
271
100
AcDbEntity
  8
0
100
AcDbCircle
 62
7
  6
BYLAYER
 10
69.4489756334
 20
69.5356776634
 40
2.327886198
100
AcDbArc
 50
293.9811886816
 51
295.8999322706
  0
ARC
  5
272
100
AcDbEntity
  8
0
100
AcDbCircle
 62
7
  6
BYLAYER
 10
69.5400671702
 20
69.3485960851
 40
2.119806575
100
AcDbArc
 50
295.8938567834
 51
299.9239644729
  0
ARC
  5
273
100
AcDbEntity
  8
0
100
AcDbCircle
 62
7
  6
BYLAYER
 10
69.6030288473
 20
69.1921709642
 40
1.9558390428
100
AcDbArc
 50
314.5905955694
 51
318.8201587836
  0
ARC
  5
274
100
AcDbEntity
  8
0
100
AcDbCircle
 62
7
  6
BYLAYER
 10
69.6459902305
 20
69.1488821589
 40
1.8948508633
100
AcDbArc
 50
313.0687139953
 51
314.5844190063
  0
ARC
  5
275
100
AcDbEntity
  8
0
100
AcDbCircle
 62
7
  6
BYLAYER
 10
42.4465470891
 20
39.6344455815
 40
1.1593206824
100
AcDbArc
 50
240.0074240219
 51
247.2783664408
  0
ARC
  5
276
100
AcDbEntity
  8
0
100
AcDbCircle
 62
7
  6
BYLAYER
 10
42.5123659823
 20
52.3234998985
 40
0.8674852945
100
AcDbArc
 50
240.0401598493
 51
263.1308579651
  0
SPLINE
  5
277
100
AcDbEntity
  8
0
100
AcDbSpline
 62
7
  6
BYLAYER
 70
0
 71
3
 72
22
 73
18
 74
0
 42
0.0000001
 43
0.0000001
 44
0.0000000001
 40
0.0
 40
0.0
 40
0.0
 40
0.0
 40
0.054386724
 40
0.1097376446
 40
0.1668554164
 40
0.2262696994
 40
0.2881891215
 40
0.3525131521
 40
0.4188756511
 40
0.4867060354
 40
0.5552965664
 40
0.6238714548
 40
0.7575956809
 40
0.8218283755
 40
0.8836468203
 40
0.9429655801
 40
1.0
 40
1.0
 40
1.0
 40
1.0
 10
10.8485792273
 20
70.5012970573
 30
0.0
 10
10.9188255408
 20
70.6567807752
 30
0.0
 10
11.0962761758
 20
70.9556529478
 30
0.0
 10
11.457555752
 20
71.3396661628
 30
0.0
 10
11.9029950323
 20
71.6499750847
 30
0.0
 10
12.4179751633
 20
71.8774563241
 30
0.0
 10
12.98654225
 20
72.0160755511
 30
0.0
 10
13.5914807032
 20
72.0622920976
 30
0.0
 10
14.2147329422
 20
72.0151442913
 30
0.0
 10
14.8376737013
 20
71.8763419818
 30
0.0
 10
15.4419766267
 20
71.6499692921
 30
0.0
 10
16.1910832965
 20
71.2449347656
 30
0.0
 10
16.8405195012
 20
70.69618974
 30
0.0
 10
17.3285062584
 20
70.0400330166
 30
0.0
 10
17.5964504081
 20
69.5205895248
 30
0.0
 10
17.7618790434
 20
68.9835637696
 30
0.0
 10
17.8006278905
 20
68.6176747778
 30
0.0
 10
17.8006278905
 20
68.4387529915
 30
0.0
  0
SPLINE
  5
278
100
AcDbEntity
  8
0
100
AcDbSpline
 62
7
  6
BYLAYER
 70
0
 71
3
 72
11
 73
7
 74
0
 42
0.0000001
 43
0.0000001
 44
0.0000000001
 40
0.0
 40
0.0
 40
0.0
 40
0.0
 40
0.2489150609
 40
0.4982593581
 40
0.74838521
 40
1.0
 40
1.0
 40
1.0
 40
1.0
 10
9.8728996689
 20
66.0635641905
 30
0.0
 10
9.872901196
 20
66.4432507645
 30
0.0
 10
9.9147884246
 20
67.2039326236
 30
0.0
 10
10.1020182091
 20
68.3322135998
 30
0.0
 10
10.409620456
 20
69.437969288
 30
0.0
 10
10.690557503
 20
70.1515326316
 30
0.0
 10
10.8485796588
 20
70.5012968476
 30
0.0
  0
SPLINE
  5
279
100
AcDbEntity
  8
0
100
AcDbSpline
 62
7
  6
BYLAYER
 70
0
 71
3
 72
16
 73
12
 74
0
 42
0.0000001
 43
0.0000001
 44
0.0000000001
 40
0.0
 40
0.0
 40
0.0
 40
0.0
 40
0.1752316666
 40
0.3386499971
 40
0.4887518775
 40
0.6240885072
 40
0.6858217464
 40
0.7434282542
 40
0.8458414024
 40
0.9309151982
 40
1.0
 40
1.0
 40
1.0
 40
1.0
 10
21.5691583976
 20
61.6506436432
 30
0.0
 10
21.2926992076
 20
61.7611694395
 30
0.0
 10
20.7648410024
 20
61.9914214271
 30
0.0
 10
20.0277977741
 20
62.3755541624
 30
0.0
 10
19.3793331561
 20
62.7784062835
 30
0.0
 10
18.9050406299
 20
63.1305370479
 30
0.0
 10
18.5767835198
 20
63.4127265321
 30
0.0
 10
18.3032387565
 20
63.6719948224
 30
0.0
 10
18.0226353856
 20
63.9808636582
 30
0.0
 10
17.7665375885
 20
64.3348128919
 30
0.0
 10
17.640611013
 20
64.5655251809
 30
0.0
 10
17.5922808064
 20
64.6724949941
 30
0.0
  0
SPLINE
  5
27A
100
AcDbEntity
  8
0
100
AcDbSpline
 62
7
  6
BYLAYER
 70
0
 71
3
 72
18
 73
14
 74
0
 42
0.0000001
 43
0.0000001
 44
0.0000000001
 40
0.0
 40
0.0
 40
0.0
 40
0.0
 40
0.1394547904
 40
0.2762419409
 40
0.4089437537
 40
0.5365849627
 40
0.598402413
 40
0.6588826391
 40
0.7760564188
 40
0.8331065929
 40
0.8893293603
 40
0.9448770758
 40
1.0
 40
1.0
 40
1.0
 40
1.0
 10
27.3147238762
 20
53.008828935
 30
0.0
 10
26.4105427204
 20
53.0522199737
 30
0.0
 10
24.6222459148
 20
53.2204530776
 30
0.0
 10
22.0109228153
 20
53.7196132583
 30
0.0
 10
19.5363135632
 20
54.4581881143
 30
0.0
 10
17.6061654407
 20
55.2767179172
 30
0.0
 10
16.178377272
 20
56.0495692512
 30
0.0
 10
14.8635178628
 20
56.8801276695
 30
0.0
 10
13.6641188054
 20
57.8315675203
 30
0.0
 10
12.6186803224
 20
58.9037357594
 30
0.0
 10
11.9269039702
 20
59.7558136149
 30
0.0
 10
11.3283197019
 20
60.6608215514
 30
0.0
 10
10.9959652889
 20
61.2995659473
 30
0.0
 10
10.8486411808
 20
61.6256401239
 30
0.0
  0
SPLINE
  5
27B
100
AcDbEntity
  8
0
100
AcDbSpline
 62
7
  6
BYLAYER
 70
0
 71
3
 72
11
 73
7
 74
0
 42
0.0000001
 43
0.0000001
 44
0.0000000001
 40
0.0
 40
0.0
 40
0.0
 40
0.0
 40
0.2516140349
 40
0.5017407557
 40
0.7510848416
 40
1.0
 40
1.0
 40
1.0
 40
1.0
 10
10.8486411808
 20
61.6256401239
 30
0.0
 10
10.690607967
 20
61.9754168899
 30
0.0
 10
10.4096510972
 20
62.6890094624
 30
0.0
 10
10.1020253782
 20
63.7948119764
 30
0.0
 10
9.9147876229
 20
64.9231446859
 30
0.0
 10
9.8728981416
 20
65.6838605103
 30
0.0
 10
9.8728996689
 20
66.0635641905
 30
0.0
  0
SPLINE
  5
27C
100
AcDbEntity
  8
0
100
AcDbSpline
 62
7
  6
BYLAYER
 70
0
 71
3
 72
22
 73
18
 74
0
 42
0.0000001
 43
0.0000001
 44
0.0000000001
 40
0.0
 40
0.0
 40
0.0
 40
0.0
 40
0.0543865484
 40
0.1097382464
 40
0.1668558528
 40
0.2262693411
 40
0.2881881367
 40
0.3525118635
 40
0.4188744425
 40
0.4867051827
 40
0.5552961962
 40
0.6238715443
 40
0.7575964101
 40
0.8218301702
 40
0.8836482609
 40
0.9429661122
 40
1.0
 40
1.0
 40
1.0
 40
1.0
 10
17.5922819561
 20
64.6724955135
 30
0.0
 10
17.5220344031
 20
64.8279774652
 30
0.0
 10
17.344580748
 20
65.1268488797
 30
0.0
 10
16.983294951
 20
65.5108559072
 30
0.0
 10
16.5378548751
 20
65.821159362
 30
0.0
 10
16.0228780081
 20
66.0486312346
 30
0.0
 10
15.4543169655
 20
66.1872438489
 30
0.0
 10
14.8493826781
 20
66.2334545504
 30
0.0
 10
14.2261324386
 20
66.1863017495
 30
0.0
 10
13.6031920307
 20
66.047493904
 30
0.0
 10
12.9988891902
 20
65.8211153161
 30
0.0
 10
12.2497840273
 20
65.4160730323
 30
0.0
 10
11.6003508097
 20
64.8673186419
 30
0.0
 10
11.1123668944
 20
64.2111575456
 30
0.0
 10
10.8444305843
 20
63.6917128782
 30
0.0
 10
10.6790065863
 20
63.1546937191
 30
0.0
 10
10.6402598394
 20
62.7888103341
 30
0.0
 10
10.6402598394
 20
62.6098907919
 30
0.0
  0
SPLINE
  5
27D
100
AcDbEntity
  8
0
100
AcDbSpline
 62
7
  6
BYLAYER
 70
0
 71
3
 72
21
 73
17
 74
0
 42
0.0000001
 43
0.0000001
 44
0.0000000001
 40
0.0
 40
0.0
 40
0.0
 40
0.0
 40
0.0596051667
 40
0.1226377806
 40
0.188542428
 40
0.2567431843
 40
0.3970834311
 40
0.5376877673
 40
0.6062085779
 40
0.6725484414
 40
0.7360835932
 40
0.7963016007
 40
0.8528394932
 40
0.905533159
 40
0.9544608526
 40
1.0
 40
1.0
 40
1.0
 40
1.0
 10
30.9068083826
 20
52.3066000466
 30
0.0
 10
30.9068083826
 20
52.1979610018
 30
0.0
 10
30.9196634479
 20
51.9743130503
 30
0.0
 10
30.9730233957
 20
51.6343709759
 30
0.0
 10
31.0602611709
 20
51.2853335524
 30
0.0
 10
31.2212638594
 20
50.8112471754
 30
0.0
 10
31.495862525
 20
50.2343416739
 30
0.0
 10
31.8519426224
 20
49.7031700403
 30
0.0
 10
32.1781723822
 20
49.320921486
 30
0.0
 10
32.4348682942
 20
49.0656073539
 30
0.0
 10
32.7013570335
 20
48.8434329632
 30
0.0
 10
32.9733667084
 20
48.6580385155
 30
0.0
 10
33.2465423966
 20
48.5124910617
 30
0.0
 10
33.5166104126
 20
48.4092081432
 30
0.0
 10
33.7792580585
 20
48.3500882487
 30
0.0
 10
33.9523069374
 20
48.3408200142
 30
0.0
 10
34.0352228269
 20
48.3445930141
 30
0.0
  0
SPLINE
  5
27E
100
AcDbEntity
  8
0
100
AcDbSpline
 62
7
  6
BYLAYER
 70
0
 71
3
 72
15
 73
11
 74
0
 42
0.0000001
 43
0.0000001
 44
0.0000000001
 40
0.0
 40
0.0
 40
0.0
 40
0.0
 40
0.1485543838
 40
0.2895087704
 40
0.4227318319
 40
0.548638914
 40
0.667999567
 40
0.7819385784
 40
0.8919877039
 40
1.0
 40
1.0
 40
1.0
 40
1.0
 10
27.3712668224
 20
53.3680219291
 30
0.0
 10
27.3712668224
 20
53.2716819345
 30
0.0
 10
27.3634794191
 20
53.0838026043
 30
0.0
 10
27.3265253423
 20
52.8117208937
 30
0.0
 10
27.2647329341
 20
52.5591728832
 30
0.0
 10
27.1786335775
 20
52.3286390059
 30
0.0
 10
27.068901076
 20
52.1223096236
 30
0.0
 10
26.9363517266
 20
51.9423037231
 30
0.0
 10
26.7822525143
 20
51.7906221448
 30
0.0
 10
26.6656088201
 20
51.7092497654
 30
0.0
 10
26.6049455783
 20
51.6742260328
 30
0.0
  0
SPLINE
  5
27F
100
AcDbEntity
  8
0
100
AcDbSpline
 62
7
  6
BYLAYER
 70
0
 71
3
 72
15
 73
11
 74
0
 42
0.0000001
 43
0.0000001
 44
0.0000000001
 40
0.0
 40
0.0
 40
0.0
 40
0.0
 40
0.1141577899
 40
0.2373246518
 40
0.3669755934
 40
0.4999989082
 40
0.6330223748
 40
0.7626737603
 40
0.8858413213
 40
1.0
 40
1.0
 40
1.0
 40
1.0
 10
24.7549608393
 20
57.8995716642
 30
0.0
 10
24.9340727681
 20
57.7961636833
 30
0.0
 10
25.2878421616
 20
57.5481832171
 30
0.0
 10
25.77459938
 20
57.0927693252
 30
0.0
 10
26.2231837587
 20
56.554457882
 30
0.0
 10
26.6166800707
 20
55.9534071389
 30
0.0
 10
26.9404605391
 20
55.3121047917
 30
0.0
 10
27.1823640034
 20
54.6544626917
 30
0.0
 10
27.3333903497
 20
54.0052090292
 30
0.0
 10
27.3712668224
 20
53.5748430102
 30
0.0
 10
27.3712668224
 20
53.3680219291
 30
0.0
  0
SPLINE
  5
280
100
AcDbEntity
  8
0
100
AcDbSpline
 62
7
  6
BYLAYER
 70
0
 71
3
 72
15
 73
11
 74
0
 42
0.0000001
 43
0.0000001
 44
0.0000000001
 40
0.0
 40
0.0
 40
0.0
 40
0.0
 40
0.148525595
 40
0.2894999604
 40
0.4227408657
 40
0.5486454022
 40
0.6679970071
 40
0.7819411668
 40
0.8919886947
 40
1.0
 40
1.0
 40
1.0
 40
1.0
 10
34.3009421288
 20
49.3672625348
 30
0.0
 10
34.3009421288
 20
49.28916423
 30
0.0
 10
34.2946165383
 20
49.1368354179
 30
0.0
 10
34.2646711979
 20
48.9162213246
 30
0.0
 10
34.2145580456
 20
48.7114373619
 30
0.0
 10
34.1447662882
 20
48.5245054315
 30
0.0
 10
34.0557567572
 20
48.3572375117
 30
0.0
 10
33.9483234836
 20
48.2112605338
 30
0.0
 10
33.8233458984
 20
48.0883067184
 30
0.0
 10
33.7287912599
 20
48.0223036053
 30
0.0
 10
33.6796046695
 20
47.9939074314
 30
0.0
  0
SPLINE
  5
281
100
AcDbEntity
  8
0
100
AcDbSpline
 62
7
  6
BYLAYER
 70
0
 71
3
 72
15
 73
11
 74
0
 42
0.0000001
 43
0.0000001
 44
0.0000000001
 40
0.0
 40
0.0
 40
0.0
 40
0.0
 40
0.1080128002
 40
0.2180623532
 40
0.3320016531
 40
0.4513624104
 40
0.5772694035
 40
0.7104921984
 40
0.8514461641
 40
1.0
 40
1.0
 40
1.0
 40
1.0
 10
26.6049455783
 20
51.6742260328
 30
0.0
 10
26.5442836787
 20
51.6392030753
 30
0.0
 10
26.4154940153
 20
51.5788746657
 30
0.0
 10
26.2070891881
 20
51.5212628757
 30
0.0
 10
25.9849303648
 20
51.4964745962
 30
0.0
 10
25.7513836623
 20
51.5046065984
 30
0.0
 10
25.5086921707
 20
51.5453064243
 30
0.0
 10
25.2590895428
 20
51.6180624421
 30
0.0
 10
25.0049894414
 20
51.722094725
 30
0.0
 10
24.8383916506
 20
51.8092860658
 30
0.0
 10
24.7549608393
 20
51.8574537775
 30
0.0
  0
SPLINE
  5
282
100
AcDbEntity
  8
0
100
AcDbSpline
 62
7
  6
BYLAYER
 70
0
 71
3
 72
23
 73
19
 74
0
 42
0.0000001
 43
0.0000001
 44
0.0000000001
 40
0.0
 40
0.0
 40
0.0
 40
0.0
 40
0.0428150415
 40
0.0873977296
 40
0.1351805973
 40
0.1870897189
 40
0.2435367894
 40
0.3044940043
 40
0.369590879
 40
0.4381980727
 40
0.5094955099
 40
0.5825312991
 40
0.6562733787
 40
0.7296613026
 40
0.8016510018
 40
0.8712488819
 40
0.9376159472
 40
1.0
 40
1.0
 40
1.0
 40
1.0
 10
33.6796046695
 20
47.9939074314
 30
0.0
 10
33.6056407783
 20
47.9512069412
 30
0.0
 10
33.4425990438
 20
47.8834488042
 30
0.0
 10
33.1734681543
 20
47.8440125394
 30
0.0
 10
32.8844671157
 20
47.8652816317
 30
0.0
 10
32.5820068404
 20
47.9456354514
 30
0.0
 10
32.2720354728
 20
48.0826399163
 30
0.0
 10
31.9607173836
 20
48.2731072806
 30
0.0
 10
31.6543724525
 20
48.5129336658
 30
0.0
 10
31.3593622294
 20
48.7970442309
 30
0.0
 10
31.0819041501
 20
49.1194272274
 30
0.0
 10
30.827879235
 20
49.4732189295
 30
0.0
 10
30.6026879023
 20
49.8508723852
 30
0.0
 10
30.4111397914
 20
50.2443451666
 30
0.0
 10
30.2573498475
 20
50.6452363661
 30
0.0
 10
30.1445176647
 20
51.0450737708
 30
0.0
 10
30.0751668071
 20
51.4352728981
 30
0.0
 10
30.0582837779
 20
51.6922671284
 30
0.0
 10
30.0582837779
 20
51.8167070619
 30
0.0
  0
SPLINE
  5
283
100
AcDbEntity
  8
0
100
AcDbSpline
 62
7
  6
BYLAYER
 70
0
 71
3
 72
11
 73
7
 74
0
 42
0.0000001
 43
0.0000001
 44
0.0000000001
 40
0.0
 40
0.0
 40
0.0
 40
0.0
 40
0.316949142
 40
0.587374469
 40
0.8111664799
 40
1.0
 40
1.0
 40
1.0
 40
1.0
 10
76.7908823622
 20
58.1403671952
 30
0.0
 10
76.7908823622
 20
58.1052665941
 30
0.0
 10
76.7870172975
 20
58.0400775261
 30
0.0
 10
76.7669343527
 20
57.9519635837
 30
0.0
 10
76.7332013823
 20
57.8831977995
 30
0.0
 10
76.6990448015
 20
57.8506513669
 30
0.0
 10
76.6809341731
 20
57.8401950775
 30
0.0
  0
SPLINE
  5
284
100
AcDbEntity
  8
0
100
AcDbSpline
 62
7
  6
BYLAYER
 70
0
 71
3
 72
9
 73
5
 74
0
 42
0.0000001
 43
0.0000001
 44
0.0000000001
 40
0.0
 40
0.0
 40
0.0
 40
0.0
 40
0.4875617229
 40
1.0
 40
1.0
 40
1.0
 40
1.0
 10
67.457023392
 20
77.4913049721
 30
0.0
 10
65.7104868385
 20
78.4996455097
 30
0.0
 10
62.0225572545
 20
80.387945896
 30
0.0
 10
58.1842741098
 20
81.9437581307
 30
0.0
 10
56.1901254943
 20
82.6621800681
 30
0.0
  0
SPLINE
  5
285
100
AcDbEntity
  8
0
100
AcDbSpline
 62
7
  6
BYLAYER
 70
0
 71
3
 72
10
 73
6
 74
0
 42
0.0000001
 43
0.0000001
 44
0.0000000001
 40
0.0
 40
0.0
 40
0.0
 40
0.0
 40
0.4843318949
 40
0.7383124256
 40
1.0
 40
1.0
 40
1.0
 40
1.0
 10
76.4134636335
 20
70.9864944889
 30
0.0
 10
75.0994443073
 20
72.2022268157
 30
0.0
 10
72.9739334557
 20
73.9270185165
 30
0.0
 10
69.9226602065
 20
76.0143922787
 30
0.0
 10
68.2946752369
 20
77.0076973946
 30
0.0
 10
67.457023392
 20
77.4913049721
 30
0.0
  0
SPLINE
  5
286
100
AcDbEntity
  8
0
100
AcDbSpline
 62
7
  6
BYLAYER
 70
0
 71
3
 72
13
 73
9
 74
0
 42
0.0000001
 43
0.0000001
 44
0.0000000001
 40
0.0
 40
0.0
 40
0.0
 40
0.0
 40
0.1176818218
 40
0.2459249008
 40
0.516262654
 40
0.7771548348
 40
0.8948840512
 40
1.0
 40
1.0
 40
1.0
 40
1.0
 10
76.7908823475
 20
70.0613020252
 30
0.0
 10
76.7908823682
 20
70.1013561504
 30
0.0
 10
76.7851925263
 20
70.1850955513
 30
0.0
 10
76.7552973629
 20
70.3584737591
 30
0.0
 10
76.6871287528
 20
70.5734967483
 30
0.0
 10
76.5870258681
 20
70.7718528004
 30
0.0
 10
76.4911126414
 20
70.9060071871
 30
0.0
 10
76.4397250294
 20
70.9621974125
 30
0.0
 10
76.4134636335
 20
70.9864944889
 30
0.0
  0
SPLINE
  5
287
100
AcDbEntity
  8
0
100
AcDbSpline
 62
7
  6
BYLAYER
 70
0
 71
3
 72
11
 73
7
 74
0
 42
0.0000001
 43
0.0000001
 44
0.0000000001
 40
0.0
 40
0.0
 40
0.0
 40
0.0
 40
0.2266418463
 40
0.4693445237
 40
0.727572746
 40
1.0
 40
1.0
 40
1.0
 40
1.0
 10
64.5200986027
 20
75.9842972181
 30
0.0
 10
64.7191993353
 20
75.9275824947
 30
0.0
 10
65.1232742268
 20
75.7799731754
 30
0.0
 10
65.716335576
 20
75.477116448
 30
0.0
 10
66.3086087367
 20
75.0899605204
 30
0.0
 10
66.6878922048
 20
74.7869132439
 30
0.0
 10
66.8755725707
 20
74.6235158511
 30
0.0
  0
SPLINE
  5
288
100
AcDbEntity
  8
0
100
AcDbSpline
 62
7
  6
BYLAYER
 70
0
 71
3
 72
11
 73
7
 74
0
 42
0.0000001
 43
0.0000001
 44
0.0000000001
 40
0.0
 40
0.0
 40
0.0
 40
0.0
 40
0.2913887628
 40
0.5504116556
 40
0.7832805805
 40
1.0
 40
1.0
 40
1.0
 40
1.0
 10
70.8815928646
 20
67.8887093675
 30
0.0
 10
70.9860545893
 20
67.9768710329
 30
0.0
 10
71.171594509
 20
68.1584933506
 30
0.0
 10
71.3836266288
 20
68.4616405517
 30
0.0
 10
71.5105972659
 20
68.7721330516
 30
0.0
 10
71.5391533097
 20
68.9839233088
 30
0.0
 10
71.5391533097
 20
69.0855876046
 30
0.0
  0
SPLINE
  5
289
100
AcDbEntity
  8
0
100
AcDbSpline
 62
7
  6
BYLAYER
 70
0
 71
3
 72
21
 73
17
 74
0
 42
0.0000001
 43
0.0000001
 44
0.0000000001
 40
0.0
 40
0.0
 40
0.0
 40
0.0
 40
0.037413659
 40
0.0772568988
 40
0.1210013524
 40
0.1697279847
 40
0.2237422711
 40
0.2829026274
 40
0.3467880032
 40
0.4147686823
 40
0.4860758721
 40
0.5598414986
 40
0.7108438031
 40
0.8600602605
 40
0.9316681435
 40
1.0
 40
1.0
 40
1.0
 40
1.0
 10
63.3891533097
 20
69.0855876046
 30
0.0
 10
63.3891533097
 20
68.9926632538
 30
0.0
 10
63.4128179767
 20
68.8000843774
 30
0.0
 10
63.5184116948
 20
68.5161995461
 30
0.0
 10
63.6954370135
 20
68.2368523738
 30
0.0
 10
63.9428643417
 20
67.9679067328
 30
0.0
 10
64.2575641063
 20
67.7154949311
 30
0.0
 10
64.6342279418
 20
67.4864719993
 30
0.0
 10
65.065474259
 20
67.2865629463
 30
0.0
 10
65.5427988249
 20
67.1205663418
 30
0.0
 10
66.0568660328
 20
66.9922390617
 30
0.0
 10
66.7834338994
 20
66.8743388416
 30
0.0
 10
67.7154084985
 20
66.8355597828
 30
0.0
 10
68.6374261737
 20
66.938057832
 30
0.0
 10
69.3363892941
 20
67.106221669
 30
0.0
 10
69.6663122386
 20
67.2175385172
 30
0.0
 10
69.8241624672
 20
67.2798827022
 30
0.0
  0
SPLINE
  5
28A
100
AcDbEntity
  8
0
100
AcDbSpline
 62
7
  6
BYLAYER
 70
0
 71
3
 72
11
 73
7
 74
0
 42
0.0000001
 43
0.0000001
 44
0.0000000001
 40
0.0
 40
0.0
 40
0.0
 40
0.0
 40
0.2266626674
 40
0.4669062394
 40
0.7247537064
 40
1.0
 40
1.0
 40
1.0
 40
1.0
 10
55.7576443039
 20
82.6491724305
 30
0.0
 10
55.7867985195
 20
82.6660046975
 30
0.0
 10
55.8520241942
 20
82.6922495571
 30
0.0
 10
55.9596380371
 20
82.7065477317
 30
0.0
 10
56.074841662
 20
82.6969927867
 30
0.0
 10
56.151665107
 20
82.6760359993
 30
0.0
 10
56.1901254943
 20
82.6621800681
 30
0.0
  0
SPLINE
  5
28B
100
AcDbEntity
  8
0
100
AcDbSpline
 62
7
  6
BYLAYER
 70
0
 71
3
 72
23
 73
19
 74
0
 42
0.0000001
 43
0.0000001
 44
0.0000000001
 40
0.0
 40
0.0
 40
0.0
 40
0.0
 40
0.0620324458
 40
0.1288152256
 40
0.1994480476
 40
0.2729244725
 40
0.3481228658
 40
0.4238715083
 40
0.4989822485
 40
0.5722862987
 40
0.6426717833
 40
0.7091258386
 40
0.7707823025
 40
0.8269966858
 40
0.8774424886
 40
0.9222631344
 40
0.9625466284
 40
1.0
 40
1.0
 40
1.0
 40
1.0
 10
56.3303288989
 20
75.7624136375
 30
0.0
 10
56.1856708677
 20
75.6749852904
 30
0.0
 10
55.8726597608
 20
75.5138653957
 30
0.0
 10
55.3636112918
 20
75.3208985844
 30
0.0
 10
54.8076302967
 20
75.172101675
 30
0.0
 10
54.217804635
 20
75.0714019594
 30
0.0
 10
53.6075880136
 20
75.0214039778
 30
0.0
 10
52.9908944141
 20
75.0233358303
 30
0.0
 10
52.3817132071
 20
75.0771388017
 30
0.0
 10
51.7939108473
 20
75.1814693793
 30
0.0
 10
51.2409850001
 20
75.3336791806
 30
0.0
 10
50.7358052223
 20
75.5297581658
 30
0.0
 10
50.2902254238
 20
75.7642036529
 30
0.0
 10
49.9146880918
 20
76.0301951587
 30
0.0
 10
49.6175938961
 20
76.3195552532
 30
0.0
 10
49.4037733088
 20
76.6238964558
 30
0.0
 10
49.2757645232
 20
76.9356365771
 30
0.0
 10
49.2469588067
 20
77.1483499797
 30
0.0
 10
49.2469588067
 20
77.250402695
 30
0.0
  0
SPLINE
  5
28C
100
AcDbEntity
  8
0
100
AcDbSpline
 62
7
  6
BYLAYER
 70
0
 71
3
 72
13
 73
9
 74
0
 42
0.0000001
 43
0.0000001
 44
0.0000000001
 40
0.0
 40
0.0
 40
0.0
 40
0.0
 40
0.1009402915
 40
0.2054772344
 40
0.4329734523
 40
0.5599901865
 40
0.6968510835
 40
1.0
 40
1.0
 40
1.0
 40
1.0
 10
57.3969588067
 20
77.250402695
 30
0.0
 10
57.3969588067
 20
77.1861494551
 30
0.0
 10
57.3859033942
 20
77.0550978821
 30
0.0
 10
57.3179694647
 20
76.7869338353
 30
0.0
 10
57.1784557335
 20
76.5247311882
 30
0.0
 10
56.9822852025
 20
76.2806143301
 30
0.0
 10
56.7251321648
 20
76.0263240025
 30
0.0
 10
56.4954781075
 20
75.8622264318
 30
0.0
 10
56.3303288989
 20
75.7624136375
 30
0.0
  0
SPLINE
  5
28D
100
AcDbEntity
  8
0
100
AcDbSpline
 62
7
  6
BYLAYER
 70
0
 71
3
 72
14
 73
10
 74
0
 42
0.0000001
 43
0.0000001
 44
0.0000000001
 40
0.0
 40
0.0
 40
0.0
 40
0.0
 40
0.2892749824
 40
0.422558598
 40
0.5485023015
 40
0.6678908559
 40
0.7818708695
 40
0.8919542479
 40
1.0
 40
1.0
 40
1.0
 40
1.0
 10
25.0378053182
 20
60.3490848481
 30
0.0
 10
24.8183311394
 20
60.4757954589
 30
0.0
 10
24.5109500606
 20
60.6874218261
 30
0.0
 10
24.1632130687
 20
61.0202473419
 30
0.0
 10
23.9515473954
 20
61.2767772312
 30
0.0
 10
23.7842969593
 20
61.5446231392
 30
0.0
 10
23.6631245642
 20
61.8213301095
 30
0.0
 10
23.5898069223
 20
62.1041740447
 30
0.0
 10
23.5733330425
 20
62.2956498312
 30
0.0
 10
23.5733330403
 20
62.3903056175
 30
0.0
  0
SPLINE
  5
28E
100
AcDbEntity
  8
0
100
AcDbSpline
 62
7
  6
BYLAYER
 70
0
 71
3
 72
15
 73
11
 74
0
 42
0.0000001
 43
0.0000001
 44
0.0000000001
 40
0.0
 40
0.0
 40
0.0
 40
0.0
 40
0.1141231508
 40
0.2373468505
 40
0.36697191
 40
0.499999412
 40
0.6330269908
 40
0.762652311
 40
0.8858763559
 40
1.0
 40
1.0
 40
1.0
 40
1.0
 10
43.5640730515
 20
50.6329589698
 30
0.0
 10
43.5060010205
 20
50.5994309818
 30
0.0
 10
43.3789597167
 20
50.5403014919
 30
0.0
 10
43.1721281146
 20
50.4773965575
 30
0.0
 10
42.9481622709
 20
50.4387232286
 30
0.0
 10
42.715546464
 20
50.4256438006
 30
0.0
 10
42.4829304459
 20
50.4387221271
 30
0.0
 10
42.2589639988
 20
50.4773942814
 30
0.0
 10
42.0521314321
 20
50.5402983538
 30
0.0
 10
41.9250894264
 20
50.5994273946
 30
0.0
 10
41.8670167767
 20
50.6329548905
 30
0.0
  0
SPLINE
  5
28F
100
AcDbEntity
  8
0
100
AcDbSpline
 62
7
  6
BYLAYER
 70
0
 71
3
 72
9
 73
5
 74
0
 42
0.0000001
 43
0.0000001
 44
0.0000000001
 40
0.0
 40
0.0
 40
0.0
 40
0.0
 40
0.5124025309
 40
1.0
 40
1.0
 40
1.0
 40
1.0
 10
70.597533281
 20
67.5113847908
 30
0.0
 10
70.6606269523
 20
67.5478242254
 30
0.0
 10
70.7799297343
 20
67.6258628409
 30
0.0
 10
70.88928374
 20
67.7172832425
 30
0.0
 10
70.9399364593
 20
67.764626781
 30
0.0
  0
SPLINE
  5
290
100
AcDbEntity
  8
0
100
AcDbSpline
 62
7
  6
BYLAYER
 70
0
 71
3
 72
15
 73
11
 74
0
 42
0.0000001
 43
0.0000001
 44
0.0000000001
 40
0.0
 40
0.0
 40
0.0
 40
0.0
 40
0.117469163
 40
0.2294868932
 40
0.3403665863
 40
0.4545717845
 40
0.5757708088
 40
0.706423363
 40
0.847769267
 40
1.0
 40
1.0
 40
1.0
 40
1.0
 10
24.1791940945
 20
63.8542801662
 30
0.0
 10
24.1145277807
 20
63.7499523916
 30
0.0
 10
24.0091800699
 20
63.5317979004
 30
0.0
 10
23.9352459791
 20
63.180171021
 30
0.0
 10
23.9532422727
 20
62.8245475415
 30
0.0
 10
24.0598649553
 20
62.4753228565
 30
0.0
 10
24.2502747371
 20
62.1405524576
 30
0.0
 10
24.5172874415
 20
61.8256698053
 30
0.0
 10
24.8545925994
 20
61.5357830874
 30
0.0
 10
25.1121804582
 20
61.3675923581
 30
0.0
 10
25.2499364539
 20
61.2880605025
 30
0.0
  0
SPLINE
  5
291
100
AcDbEntity
  8
0
100
AcDbSpline
 62
7
  6
BYLAYER
 70
0
 71
3
 72
9
 73
5
 74
0
 42
0.0000001
 43
0.0000001
 44
0.0000000001
 40
0.0
 40
0.0
 40
0.0
 40
0.0
 40
0.2668009097
 40
1.0
 40
1.0
 40
1.0
 40
1.0
 10
24.8714156051
 20
64.5804154158
 30
0.0
 10
24.7994779148
 20
64.5271644473
 30
0.0
 10
24.5378376444
 20
64.317533852
 30
0.0
 10
24.3087769632
 20
64.0633402669
 30
0.0
 10
24.1791944042
 20
63.8542801022
 30
0.0
  0
SPLINE
  5
292
100
AcDbEntity
  8
0
100
AcDbSpline
 62
7
  6
BYLAYER
 70
0
 71
3
 72
26
 73
22
 74
0
 42
0.0000001
 43
0.0000001
 44
0.0000000001
 40
0.0
 40
0.0
 40
0.0
 40
0.0
 40
0.0714314355
 40
0.1464699995
 40
0.2237246895
 40
0.3017043918
 40
0.3788521073
 40
0.4536712031
 40
0.5248075437
 40
0.591164876
 40
0.6520311584
 40
0.7072364088
 40
0.7573370315
 40
0.7809416779
 40
0.8038835114
 40
0.8264704107
 40
0.849034261
 40
0.87190708
 40
0.8953979173
 40
0.9451878486
 40
1.0
 40
1.0
 40
1.0
 40
1.0
 10
55.7921712722
 20
75.4106230155
 30
0.0
 10
55.5772830738
 20
75.3257512373
 30
0.0
 10
55.1250161273
 20
75.1802750434
 30
0.0
 10
54.4144882933
 20
75.0366074251
 30
0.0
 10
53.6718230963
 20
74.965065161
 30
0.0
 10
52.9189726972
 20
74.9676859867
 30
0.0
 10
52.1779114032
 20
75.0444526398
 30
0.0
 10
51.470346531
 20
75.1930852525
 30
0.0
 10
50.8168649861
 20
75.4093330709
 30
0.0
 10
50.2363302359
 20
75.687081162
 30
0.0
 10
49.7453289695
 20
76.0190044154
 30
0.0
 10
49.3581113397
 20
76.3965097243
 30
0.0
 10
49.1277911058
 20
76.749575622
 30
0.0
 10
49.0126612401
 20
77.0411836112
 30
0.0
 10
48.9605654181
 20
77.2594596302
 30
0.0
 10
48.9415069301
 20
77.47970506
 30
0.0
 10
48.9558519071
 20
77.7000881317
 30
0.0
 10
49.0032857486
 20
77.9187470522
 30
0.0
 10
49.1120866449
 20
78.2110986458
 30
0.0
 10
49.3348579898
 20
78.5658380936
 30
0.0
 10
49.5755425678
 20
78.8071495109
 30
0.0
 10
49.7110276367
 20
78.921493505
 30
0.0
  0
SPLINE
  5
293
100
AcDbEntity
  8
0
100
AcDbSpline
 62
7
  6
BYLAYER
 70
0
 71
3
 72
23
 73
19
 74
0
 42
0.0000001
 43
0.0000001
 44
0.0000000001
 40
0.0
 40
0.0
 40
0.0
 40
0.0
 40
0.0623828458
 40
0.1287483921
 40
0.1983450811
 40
0.2703346099
 40
0.3437242463
 40
0.4174674219
 40
0.4905038334
 40
0.5618025021
 40
0.6304108552
 40
0.6955087493
 40
0.756466712
 40
0.8129138725
 40
0.8648224677
 40
0.9126045701
 40
0.9571860373
 40
1.0
 40
1.0
 40
1.0
 40
1.0
 10
64.5826811797
 20
70.7491686792
 30
0.0
 10
64.7290637383
 20
70.8336821844
 30
0.0
 10
65.0428392982
 20
70.9883602716
 30
0.0
 10
65.5489416034
 20
71.1717861919
 30
0.0
 10
66.0959150021
 20
71.310611973
 30
0.0
 10
66.6719536998
 20
71.4019765767
 30
0.0
 10
67.2649164191
 20
71.4438843251
 30
0.0
 10
67.8621217425
 20
71.4354750608
 30
0.0
 10
68.4508390475
 20
71.3769387848
 30
0.0
 10
69.0185243598
 20
71.269505954
 30
0.0
 10
69.5531096646
 20
71.1154298667
 30
0.0
 10
70.0432988173
 20
70.9179452298
 30
0.0
 10
70.4788006014
 20
70.6810887284
 30
0.0
 10
70.8504906613
 20
70.4095038064
 30
0.0
 10
71.1504364188
 20
70.108282179
 30
0.0
 10
71.3717324413
 20
69.7827670228
 30
0.0
 10
71.5081342576
 20
69.4394019204
 30
0.0
 10
71.5391514708
 20
69.2015930292
 30
0.0
 10
71.5391534225
 20
69.0855876046
 30
0.0
  0
SPLINE
  5
294
100
AcDbEntity
  8
0
100
AcDbSpline
 62
7
  6
BYLAYER
 70
0
 71
3
 72
9
 73
5
 74
0
 42
0.0000001
 43
0.0000001
 44
0.0000000001
 40
0.0
 40
0.0
 40
0.0
 40
0.0
 40
0.2443071071
 40
1.0
 40
1.0
 40
1.0
 40
1.0
 10
56.2682203367
 20
75.6281033593
 30
0.0
 10
56.2304877143
 20
75.6082580988
 30
0.0
 10
56.0748676781
 20
75.5292674544
 30
0.0
 10
55.9148245797
 20
75.4590659006
 30
0.0
 10
55.7921712722
 20
75.4106230155
 30
0.0
  0
SPLINE
  5
295
100
AcDbEntity
  8
0
100
AcDbSpline
 62
7
  6
BYLAYER
 70
0
 71
3
 72
15
 73
11
 74
0
 42
0.0000001
 43
0.0000001
 44
0.0000000001
 40
0.0
 40
0.0
 40
0.0
 40
0.0
 40
0.1169852148
 40
0.2407303268
 40
0.3692685918
 40
0.5002690512
 40
0.6312322346
 40
0.7596816589
 40
0.883280391
 40
1.0
 40
1.0
 40
1.0
 40
1.0
 10
66.1345195224
 20
67.0215106367
 30
0.0
 10
66.2314912526
 20
67.0664115112
 30
0.0
 10
66.4374505118
 20
67.1453486489
 30
0.0
 10
66.7648216128
 20
67.2291940516
 30
0.0
 10
67.1118121415
 20
67.2802703061
 30
0.0
 10
67.4686869054
 20
67.297188012
 30
0.0
 10
67.8254407667
 20
67.27942015
 30
0.0
 10
68.172051147
 20
67.2274523314
 30
0.0
 10
68.498736164
 20
67.1427927197
 30
0.0
 10
68.7041338834
 20
67.0634317357
 30
0.0
 10
68.800732298
 20
67.0183035238
 30
0.0
  0
SPLINE
  5
296
100
AcDbEntity
  8
0
100
AcDbSpline
 62
7
  6
BYLAYER
 70
0
 71
3
 72
21
 73
17
 74
0
 42
0.0000001
 43
0.0000001
 44
0.0000000001
 40
0.0
 40
0.0
 40
0.0
 40
0.0
 40
0.067172872
 40
0.1372499988
 40
0.2827272354
 40
0.4297276316
 40
0.5016189661
 40
0.5712744375
 40
0.637955638
 40
0.7010536094
 40
0.7601350152
 40
0.8150030314
 40
0.8657569355
 40
0.912858728
 40
0.9571849192
 40
1.0
 40
1.0
 40
1.0
 40
1.0
 10
51.0211323569
 20
79.1921801646
 30
0.0
 10
51.1769820409
 20
79.2537342185
 30
0.0
 10
51.5019830304
 20
79.3633800417
 30
0.0
 10
52.1884786347
 20
79.5281723227
 30
0.0
 10
53.0916053393
 20
79.6274381163
 30
0.0
 10
54.0035482728
 20
79.587138734
 30
0.0
 10
54.7143137211
 20
79.4691117636
 30
0.0
 10
55.2183680215
 20
79.340863036
 30
0.0
 10
55.6880689887
 20
79.1746479289
 30
0.0
 10
56.1150079185
 20
78.9733642276
 30
0.0
 10
56.4915272363
 20
78.7404620931
 30
0.0
 10
56.8109041382
 20
78.47985467
 30
0.0
 10
57.067273029
 20
78.1957335106
 30
0.0
 10
57.2554336151
 20
77.8924589605
 30
0.0
 10
57.3708085978
 20
77.5753808566
 30
0.0
 10
57.3969643827
 20
77.3572063543
 30
0.0
 10
57.3969572747
 20
77.250402695
 30
0.0
  0
SPLINE
  5
297
100
AcDbEntity
  8
0
100
AcDbSpline
 62
7
  6
BYLAYER
 70
0
 71
3
 72
11
 73
7
 74
0
 42
0.0000001
 43
0.0000001
 44
0.0000000001
 40
0.0
 40
0.0
 40
0.0
 40
0.0
 40
0.2151474677
 40
0.4100788796
 40
0.618836001
 40
1.0
 40
1.0
 40
1.0
 40
1.0
 10
49.9586360892
 20
78.5787464616
 30
0.0
 10
49.9586391002
 20
78.6105504471
 30
0.0
 10
49.9468608141
 20
78.6713134732
 30
0.0
 10
49.9072246386
 20
78.7544521856
 30
0.0
 10
49.8366255423
 20
78.8470570425
 30
0.0
 10
49.763438715
 20
78.9008238792
 30
0.0
 10
49.7110323807
 20
78.9215207745
 30
0.0
  0
SPLINE
  5
298
100
AcDbEntity
  8
0
100
AcDbSpline
 62
7
  6
BYLAYER
 70
0
 71
3
 72
11
 73
7
 74
0
 42
0.0000001
 43
0.0000001
 44
0.0000000001
 40
0.0
 40
0.0
 40
0.0
 40
0.0
 40
0.2253862792
 40
0.4646412247
 40
0.7222131279
 40
1.0
 40
1.0
 40
1.0
 40
1.0
 10
23.6835265426
 20
49.8140658157
 30
0.0
 10
23.7345311247
 20
49.6698355561
 30
0.0
 10
23.8748085782
 20
49.3840630206
 30
0.0
 10
24.1778779844
 20
48.9952154252
 30
0.0
 10
24.5703348592
 20
48.6419378205
 30
0.0
 10
24.8745148658
 20
48.4407730555
 30
0.0
 10
25.0378053017
 20
48.3464993258
 30
0.0
  0
SPLINE
  5
299
100
AcDbEntity
  8
0
100
AcDbSpline
 62
7
  6
BYLAYER
 70
0
 71
3
 72
9
 73
5
 74
0
 42
0.0000001
 43
0.0000001
 44
0.0000000001
 40
0.0
 40
0.0
 40
0.0
 40
0.0
 40
0.5236165638
 40
1.0
 40
1.0
 40
1.0
 40
1.0
 10
50.1885788369
 20
79.2942335673
 30
0.0
 10
50.0967084267
 20
79.2411943142
 30
0.0
 10
49.9262670107
 20
79.1307103186
 30
0.0
 10
49.7746070455
 20
78.9941043543
 30
0.0
 10
49.7110276366
 20
78.9214935047
 30
0.0
  0
SPLINE
  5
29A
100
AcDbEntity
  8
0
100
AcDbSpline
 62
7
  6
BYLAYER
 70
0
 71
3
 72
13
 73
9
 74
0
 42
0.0000001
 43
0.0000001
 44
0.0000000001
 40
0.0
 40
0.0
 40
0.0
 40
0.0
 40
0.2301622909
 40
0.368410883
 40
0.5131055836
 40
0.655648891
 40
0.788025302
 40
1.0
 40
1.0
 40
1.0
 40
1.0
 10
50.4404898906
 20
78.9081899663
 30
0.0
 10
50.4404923942
 20
78.9453061157
 30
0.0
 10
50.4293144556
 20
79.004876143
 30
0.0
 10
50.3985693598
 20
79.0817761879
 30
0.0
 10
50.3651374025
 20
79.1419599032
 30
0.0
 10
50.3241152435
 20
79.1961076184
 30
0.0
 10
50.2687362281
 20
79.2518055419
 30
0.0
 10
50.2207704728
 20
79.2827622738
 30
0.0
 10
50.1885761444
 20
79.2942521243
 30
0.0
  0
SPLINE
  5
29B
100
AcDbEntity
  8
0
100
AcDbSpline
 62
7
  6
BYLAYER
 70
0
 71
3
 72
11
 73
7
 74
0
 42
0.0000001
 43
0.0000001
 44
0.0000000001
 40
0.0
 40
0.0
 40
0.0
 40
0.0
 40
0.2518325571
 40
0.5010689539
 40
0.7493710105
 40
1.0
 40
1.0
 40
1.0
 40
1.0
 10
43.2123407456
 20
38.5172069558
 30
0.0
 10
43.2543283702
 20
38.5414377167
 30
0.0
 10
43.334225729
 20
38.596382146
 30
0.0
 10
43.4373784133
 20
38.698517996
 30
0.0
 10
43.5168478509
 20
38.8199320701
 30
0.0
 10
43.5514847254
 20
38.9103995743
 30
0.0
 10
43.5640730515
 20
38.9569744048
 30
0.0
  0
SPLINE
  5
29C
100
AcDbEntity
  8
0
100
AcDbSpline
 62
7
  6
BYLAYER
 70
0
 71
3
 72
9
 73
5
 74
0
 42
0.0000001
 43
0.0000001
 44
0.0000000001
 40
0.0
 40
0.0
 40
0.0
 40
0.0
 40
0.5160845258
 40
1.0
 40
1.0
 40
1.0
 40
1.0
 10
50.8517463406
 20
79.5800838243
 30
0.0
 10
50.7322886199
 20
79.5452182516
 30
0.0
 10
50.5055146019
 20
79.461097981
 30
0.0
 10
50.2896301722
 20
79.3525774324
 30
0.0
 10
50.1885788369
 20
79.2942335673
 30
0.0
  0
SPLINE
  5
29D
100
AcDbEntity
  8
0
100
AcDbSpline
 62
7
  6
BYLAYER
 70
0
 71
3
 72
11
 73
7
 74
0
 42
0.0000001
 43
0.0000001
 44
0.0000000001
 40
0.0
 40
0.0
 40
0.0
 40
0.0
 40
0.2252593926
 40
0.5007187034
 40
0.7766092695
 40
1.0
 40
1.0
 40
1.0
 40
1.0
 10
51.0211442997
 20
79.1921802114
 30
0.0
 10
51.0211445249
 20
79.2247213988
 30
0.0
 10
51.0116416024
 20
79.2970636318
 30
0.0
 10
50.9767022623
 20
79.4042835611
 30
0.0
 10
50.9234356868
 20
79.5033474207
 30
0.0
 10
50.8764051478
 20
79.5592994557
 30
0.0
 10
50.8517425524
 20
79.5801126542
 30
0.0
  0
SPLINE
  5
29E
100
AcDbEntity
  8
0
100
AcDbSpline
 62
7
  6
BYLAYER
 70
0
 71
3
 72
9
 73
5
 74
0
 42
0.0000001
 43
0.0000001
 44
0.0000000001
 40
0.0
 40
0.0
 40
0.0
 40
0.0
 40
0.2560284805
 40
1.0
 40
1.0
 40
1.0
 40
1.0
 10
51.0211361246
 20
79.1922003088
 30
0.0
 10
50.9698022373
 20
79.171921422
 30
0.0
 10
50.7711213849
 20
79.0881125561
 30
0.0
 10
50.579376731
 20
78.988408101
 30
0.0
 10
50.4404877667
 20
78.9082024449
 30
0.0
  0
SPLINE
  5
29F
100
AcDbEntity
  8
0
100
AcDbSpline
 62
7
  6
BYLAYER
 70
0
 71
3
 72
9
 73
5
 74
0
 42
0.0000001
 43
0.0000001
 44
0.0000000001
 40
0.0
 40
0.0
 40
0.0
 40
0.0
 40
0.2611023449
 40
1.0
 40
1.0
 40
1.0
 40
1.0
 10
50.4404895045
 20
78.9082104696
 30
0.0
 10
50.3964614598
 20
78.8827981029
 30
0.0
 10
50.22928499
 20
78.783123025
 30
0.0
 10
50.0685852789
 20
78.6715419643
 30
0.0
 10
49.9586386315
 20
78.5787650273
 30
0.0
  0
SPLINE
  5
2A0
100
AcDbEntity
  8
0
100
AcDbSpline
 62
7
  6
BYLAYER
 70
0
 71
3
 72
14
 73
10
 74
0
 42
0.0000001
 43
0.0000001
 44
0.0000000001
 40
0.0
 40
0.0
 40
0.0
 40
0.0
 40
0.1090063483
 40
0.2199054668
 40
0.3344358258
 40
0.454032549
 40
0.5798193307
 40
0.7125948171
 40
1.0
 40
1.0
 40
1.0
 40
1.0
 10
63.3891560535
 20
69.0855876045
 30
0.0
 10
63.3891619855
 20
69.1595287549
 30
0.0
 10
63.4014601311
 20
69.3089689102
 30
0.0
 10
63.4563302851
 20
69.5300103371
 30
0.0
 10
63.5470672857
 20
69.7466775867
 30
0.0
 10
63.6724706573
 20
69.9569946677
 30
0.0
 10
63.8314023286
 20
70.1591758419
 30
0.0
 10
64.0926769087
 20
70.4224994219
 30
0.0
 10
64.3246219119
 20
70.5919846877
 30
0.0
 10
64.4905991272
 20
70.6942494243
 30
0.0
  0
SPLINE
  5
2A1
100
AcDbEntity
  8
0
100
AcDbSpline
 62
7
  6
BYLAYER
 70
0
 71
3
 72
15
 73
11
 74
0
 42
0.0000001
 43
0.0000001
 44
0.0000000001
 40
0.0
 40
0.0
 40
0.0
 40
0.0
 40
0.1120601919
 40
0.2339849099
 40
0.3632321373
 40
0.4965587111
 40
0.6303654684
 40
0.7610217974
 40
0.885153159
 40
1.0
 40
1.0
 40
1.0
 40
1.0
 10
70.4950181297
 20
67.6371197575
 30
0.0
 10
70.3014216139
 20
67.761503748
 30
0.0
 10
69.8716930157
 20
67.9824221358
 30
0.0
 10
69.162556634
 20
68.2205946341
 30
0.0
 10
68.3856286853
 20
68.3725987225
 30
0.0
 10
67.5720121331
 20
68.4322903799
 30
0.0
 10
66.7540765366
 20
68.3973759392
 30
0.0
 10
65.9644182411
 20
68.2691653622
 30
0.0
 10
65.2346818036
 20
68.0528874631
 30
0.0
 10
64.7869189244
 20
67.8460257489
 30
0.0
 10
64.5826811797
 20
67.7281097358
 30
0.0
  0
SPLINE
  5
2A2
100
AcDbEntity
  8
0
100
AcDbSpline
 62
7
  6
BYLAYER
 70
0
 71
3
 72
11
 73
7
 74
0
 42
0.0000001
 43
0.0000001
 44
0.0000000001
 40
0.0
 40
0.0
 40
0.0
 40
0.0
 40
0.2307939617
 40
0.474707952
 40
0.7327448593
 40
1.0
 40
1.0
 40
1.0
 40
1.0
 10
70.8817826311
 20
67.8888511265
 30
0.0
 10
70.8937071902
 20
67.8989372729
 30
0.0
 10
70.922229656
 20
67.9152571327
 30
0.0
 10
70.9715259377
 20
67.9251933433
 30
0.0
 10
71.0239476276
 20
67.921254346
 30
0.0
 10
71.0582594039
 20
67.9110579144
 30
0.0
 10
71.0750803973
 20
67.9044141958
 30
0.0
  0
SPLINE
  5
2A3
100
AcDbEntity
  8
0
100
AcDbSpline
 62
7
  6
BYLAYER
 70
0
 71
3
 72
15
 73
11
 74
0
 42
0.0000001
 43
0.0000001
 44
0.0000000001
 40
0.0
 40
0.0
 40
0.0
 40
0.0
 40
0.1167965189
 40
0.2404043522
 40
0.3688596206
 40
0.4998375231
 40
0.6308363397
 40
0.7593749278
 40
0.8831093545
 40
1.0
 40
1.0
 40
1.0
 40
1.0
 10
51.9851922458
 20
75.1830084926
 30
0.0
 10
52.081904106
 20
75.2281840853
 30
0.0
 10
52.2874473206
 20
75.3076868368
 30
0.0
 10
52.6143949205
 20
75.3923571977
 30
0.0
 10
52.9612136596
 20
75.4442694213
 30
0.0
 10
53.3181617179
 20
75.4620111136
 30
0.0
 10
53.6752239518
 20
75.4450275743
 30
0.0
 10
54.0223569964
 20
75.39378579
 30
0.0
 10
54.3497544089
 20
75.3097775124
 30
0.0
 10
54.555718653
 20
75.2308123586
 30
0.0
 10
54.6526326731
 20
75.1858672462
 30
0.0
  0
SPLINE
  5
2A4
100
AcDbEntity
  8
0
100
AcDbSpline
 62
7
  6
BYLAYER
 70
0
 71
3
 72
11
 73
7
 74
0
 42
0.0000001
 43
0.0000001
 44
0.0000000001
 40
0.0
 40
0.0
 40
0.0
 40
0.0
 40
0.2206274056
 40
0.4619184602
 40
0.7250230695
 40
1.0
 40
1.0
 40
1.0
 40
1.0
 10
70.407840928
 20
67.5535451606
 30
0.0
 10
70.4208751532
 20
67.561153116
 30
0.0
 10
70.4523968857
 20
67.5702467228
 30
0.0
 10
70.5025541058
 20
67.5646735168
 30
0.0
 10
70.5522221992
 20
67.5439366743
 30
0.0
 10
70.5828309598
 20
67.5231245811
 30
0.0
 10
70.5975350101
 20
67.5113941061
 30
0.0
  0
SPLINE
  5
2A5
100
AcDbEntity
  8
0
100
AcDbSpline
 62
7
  6
BYLAYER
 70
0
 71
3
 72
12
 73
8
 74
0
 42
0.0000001
 43
0.0000001
 44
0.0000000001
 40
0.0
 40
0.0
 40
0.0
 40
0.0
 40
0.2403866901
 40
0.3647778993
 40
0.4916366018
 40
0.7480037557
 40
1.0
 40
1.0
 40
1.0
 40
1.0
 10
23.7627946403
 20
63.6816046407
 30
0.0
 10
23.7801034842
 20
63.7162914445
 30
0.0
 10
23.8168366711
 20
63.764484117
 30
0.0
 10
23.8806519814
 20
63.8121019582
 30
0.0
 10
23.9545624857
 20
63.8482666285
 30
0.0
 10
24.0566254102
 20
63.8694819416
 30
0.0
 10
24.1393565431
 20
63.8624580828
 30
0.0
 10
24.1791541042
 20
63.8542371782
 30
0.0
  0
SPLINE
  5
2A6
100
AcDbEntity
  8
0
100
AcDbSpline
 62
7
  6
BYLAYER
 70
0
 71
3
 72
12
 73
8
 74
0
 42
0.0000001
 43
0.0000001
 44
0.0000000001
 40
0.0
 40
0.0
 40
0.0
 40
0.0
 40
0.1209951256
 40
0.2423454314
 40
0.4887133461
 40
0.7421342347
 40
1.0
 40
1.0
 40
1.0
 40
1.0
 10
24.4942974929
 20
64.5568261462
 30
0.0
 10
24.5067247746
 20
64.5669467173
 30
0.0
 10
24.5333799017
 20
64.5851846077
 30
0.0
 10
24.5925945248
 20
64.6119686785
 30
0.0
 10
24.674897957
 20
64.6272763847
 30
0.0
 10
24.7757599636
 20
64.6166606732
 30
0.0
 10
24.8403116631
 20
64.5944703955
 30
0.0
 10
24.8714563377
 20
64.5804456181
 30
0.0
  0
SPLINE
  5
2A7
100
AcDbEntity
  8
0
100
AcDbSpline
 62
7
  6
BYLAYER
 70
0
 71
3
 72
12
 73
8
 74
0
 42
0.0000001
 43
0.0000001
 44
0.0000000001
 40
0.0
 40
0.0
 40
0.0
 40
0.0
 40
0.3412248201
 40
0.6356844936
 40
0.7566022062
 40
0.8572482083
 40
1.0
 40
1.0
 40
1.0
 40
1.0
 10
42.2977362929
 20
38.4858656167
 30
0.0
 10
42.3007626663
 20
38.4677515493
 30
0.0
 10
42.3076225454
 20
38.4341916852
 30
0.0
 10
42.3196672066
 20
38.3951775494
 30
0.0
 10
42.3318955841
 20
38.370047768
 30
0.0
 10
42.3424636568
 20
38.3538234961
 30
0.0
 10
42.3536662483
 20
38.3444911837
 30
0.0
 10
42.361269172
 20
38.3433842841
 30
0.0
  0
SPLINE
  5
2A8
100
AcDbEntity
  8
0
100
AcDbSpline
 62
7
  6
BYLAYER
 70
0
 71
3
 72
15
 73
11
 74
0
 42
0.0000001
 43
0.0000001
 44
0.0000000001
 40
0.0
 40
0.0
 40
0.0
 40
0.0
 40
0.3787611517
 40
0.5481993221
 40
0.6966782113
 40
0.819480656
 40
0.9125521382
 40
0.9722477848
 40
0.9895100468
 40
1.0
 40
1.0
 40
1.0
 40
1.0
 10
42.5345977585
 20
38.4810735234
 30
0.0
 10
42.5404511203
 20
38.4612026119
 30
0.0
 10
42.5491727469
 20
38.4325147392
 30
0.0
 10
42.5610431321
 20
38.3963033245
 30
0.0
 10
42.5690155402
 20
38.37356201
 30
0.0
 10
42.5761411296
 20
38.3549254344
 30
0.0
 10
42.5821449905
 20
38.3411496202
 30
0.0
 10
42.5865510693
 20
38.3328341027
 30
0.0
 10
42.5895874491
 20
38.3291871624
 30
0.0
 10
42.5910313565
 20
38.3283744481
 30
0.0
 10
42.5916047185
 20
38.3283945253
 30
0.0
  0
SPLINE
  5
2A9
100
AcDbEntity
  8
0
100
AcDbSpline
 62
7
  6
BYLAYER
 70
0
 71
3
 72
9
 73
5
 74
0
 42
0.0000001
 43
0.0000001
 44
0.0000000001
 40
0.0
 40
0.0
 40
0.0
 40
0.0
 40
0.2397459614
 40
1.0
 40
1.0
 40
1.0
 40
1.0
 10
24.3886454426
 20
49.3793709075
 30
0.0
 10
24.4364028593
 20
49.3372115409
 30
0.0
 10
24.640603704
 20
49.1670498944
 30
0.0
 10
24.8628583828
 20
49.0190543844
 30
0.0
 10
25.0378053182
 20
48.9180510083
 30
0.0
  0
SPLINE
  5
2AA
100
AcDbEntity
  8
0
100
AcDbSpline
 62
7
  6
BYLAYER
 70
0
 71
3
 72
13
 73
9
 74
0
 42
0.0000001
 43
0.0000001
 44
0.0000000001
 40
0.0
 40
0.0
 40
0.0
 40
0.0
 40
0.0516077163
 40
0.1245311002
 40
0.2198313166
 40
0.3367672295
 40
0.6311189895
 40
1.0
 40
1.0
 40
1.0
 40
1.0
 10
24.9444065718
 20
64.8593026164
 30
0.0
 10
24.9400638312
 20
64.8567856043
 30
0.0
 10
24.9318847327
 20
64.8472333991
 30
0.0
 10
24.9223486955
 20
64.8281451053
 30
0.0
 10
24.9129910528
 20
64.8019431021
 30
0.0
 10
24.8999674407
 20
64.754419762
 30
0.0
 10
24.8853427575
 20
64.6798665022
 30
0.0
 10
24.8761279557
 20
64.6160183979
 30
0.0
 10
24.8714563911
 20
64.5804459641
 30
0.0
  0
SPLINE
  5
2AB
100
AcDbEntity
  8
0
100
AcDbSpline
 62
7
  6
BYLAYER
 70
0
 71
3
 72
26
 73
22
 74
0
 42
0.0000001
 43
0.0000001
 44
0.0000000001
 40
0.0
 40
0.0
 40
0.0
 40
0.0
 40
0.0716937838
 40
0.1471254411
 40
0.2247328256
 40
0.302816457
 40
0.379637756
 40
0.4535470903
 40
0.5231046156
 40
0.5872272497
 40
0.6453614384
 40
0.6976987258
 40
0.72207163
 40
0.7455227694
 40
0.7683626224
 40
0.790945847
 40
0.8136495064
 40
0.8368406112
 40
0.8858272816
 40
0.9399395701
 40
1.0
 40
1.0
 40
1.0
 40
1.0
 10
50.85174634
 20
79.5800838243
 30
0.0
 10
51.0796076803
 20
79.6700794466
 30
0.0
 10
51.5603042342
 20
79.8226691892
 30
0.0
 10
52.3159217704
 20
79.9678970635
 30
0.0
 10
53.1046218065
 20
80.032092214
 30
0.0
 10
53.9003848384
 20
80.0131471725
 30
0.0
 10
54.6772170085
 20
79.9116633753
 30
0.0
 10
55.4097353889
 20
79.7309451009
 30
0.0
 10
56.074187078
 20
79.4767822727
 30
0.0
 10
56.6493235396
 20
79.1568636324
 30
0.0
 10
57.1166858731
 20
78.7807245652
 30
0.0
 10
57.410245462
 20
78.419311441
 30
0.0
 10
57.5695254534
 20
78.1152352749
 30
0.0
 10
57.6503535218
 20
77.8867504747
 30
0.0
 10
57.6944538893
 20
77.654594039
 30
0.0
 10
57.701250022
 20
77.42090272
 30
0.0
 10
57.6706470437
 20
77.1879142254
 30
0.0
 10
57.5789943269
 20
76.8757162574
 30
0.0
 10
57.3655371756
 20
76.4938680091
 30
0.0
 10
56.9806391666
 20
76.0848463115
 30
0.0
 10
56.6611523192
 20
75.8567723596
 30
0.0
 10
56.4855036195
 20
75.7506138882
 30
0.0
  0
SPLINE
  5
2AC
100
AcDbEntity
  8
0
100
AcDbSpline
 62
7
  6
BYLAYER
 70
0
 71
3
 72
15
 73
11
 74
0
 42
0.0000001
 43
0.0000001
 44
0.0000000001
 40
0.0
 40
0.0
 40
0.0
 40
0.0
 40
0.1141300247
 40
0.2372866161
 40
0.3669313293
 40
0.4999583186
 40
0.6329894636
 40
0.7626521155
 40
0.8858368675
 40
1.0
 40
1.0
 40
1.0
 40
1.0
 10
56.2050991449
 20
75.8919547315
 30
0.0
 10
56.0078761604
 20
76.0059532053
 30
0.0
 10
55.5765471667
 20
76.2070275047
 30
0.0
 10
54.8740537197
 20
76.4207859546
 30
0.0
 10
54.1133951027
 20
76.5524215043
 30
0.0
 10
53.3231661837
 20
76.5969254175
 30
0.0
 10
52.5328865842
 20
76.5526906571
 30
0.0
 10
51.7720819568
 20
76.4213139178
 30
0.0
 10
51.0693539479
 20
76.2077861169
 30
0.0
 10
50.6378242501
 20
76.0068570473
 30
0.0
 10
50.4404866767
 20
75.8929248263
 30
0.0
  0
SPLINE
  5
2AD
100
AcDbEntity
  8
0
100
AcDbSpline
 62
7
  6
BYLAYER
 70
0
 71
3
 72
11
 73
7
 74
0
 42
0.0000001
 43
0.0000001
 44
0.0000000001
 40
0.0
 40
0.0
 40
0.0
 40
0.0
 40
0.2865177874
 40
0.5479803359
 40
0.7847584897
 40
1.0
 40
1.0
 40
1.0
 40
1.0
 10
25.0378053018
 20
60.9206365496
 30
0.0
 10
24.8630966698
 20
61.0215024496
 30
0.0
 10
24.5404003344
 20
61.2356337015
 30
0.0
 10
24.1295343317
 20
61.6087895893
 30
0.0
 10
23.8224720096
 20
62.010235773
 30
0.0
 10
23.6873560133
 20
62.3024396606
 30
0.0
 10
23.642818498
 20
62.4472975242
 30
0.0
  0
SPLINE
  5
2AE
100
AcDbEntity
  8
0
100
AcDbSpline
 62
7
  6
BYLAYER
 70
0
 71
3
 72
9
 73
5
 74
0
 42
0.0000001
 43
0.0000001
 44
0.0000000001
 40
0.0
 40
0.0
 40
0.0
 40
0.0
 40
0.5073020247
 40
1.0
 40
1.0
 40
1.0
 40
1.0
 10
23.642818498
 20
62.4472975242
 30
0.0
 10
23.620143433
 20
62.5210479672
 30
0.0
 10
23.5853766224
 20
62.66972532
 30
0.0
 10
23.5733269788
 20
62.8220289497
 30
0.0
 10
23.5733251599
 20
62.8969653057
 30
0.0
  0
SPLINE
  5
2AF
100
AcDbEntity
  8
0
100
AcDbSpline
 62
7
  6
BYLAYER
 70
0
 71
3
 72
11
 73
7
 74
0
 42
0.0000001
 43
0.0000001
 44
0.0000000001
 40
0.0
 40
0.0
 40
0.0
 40
0.0
 40
0.2282360119
 40
0.4661947889
 40
0.7218622253
 40
1.0
 40
1.0
 40
1.0
 40
1.0
 10
49.2469586939
 20
77.250402695
 30
0.0
 10
49.2469567058
 20
77.3685799599
 30
0.0
 10
49.2792240183
 20
77.6110208694
 30
0.0
 10
49.4207901881
 20
77.9605963157
 30
0.0
 10
49.650248026
 20
78.2911122891
 30
0.0
 10
49.8485759764
 20
78.4858650464
 30
0.0
 10
49.9586343303
 20
78.5787503041
 30
0.0
  0
SPLINE
  5
2B0
100
AcDbEntity
  8
0
100
AcDbSpline
 62
7
  6
BYLAYER
 70
0
 71
3
 72
26
 73
22
 74
0
 42
0.0000001
 43
0.0000001
 44
0.0000000001
 40
0.0
 40
0.0
 40
0.0
 40
0.0
 40
0.0714314357
 40
0.1464700004
 40
0.2237246908
 40
0.301704393
 40
0.3788521071
 40
0.4536712001
 40
0.5248075361
 40
0.5911648619
 40
0.6520311363
 40
0.7072363781
 40
0.7573369928
 40
0.7809416364
 40
0.8038834681
 40
0.8264703665
 40
0.8490342169
 40
0.871907038
 40
0.8953978786
 40
0.9451878223
 40
1.0
 40
1.0
 40
1.0
 40
1.0
 10
64.9939408442
 20
71.4152687343
 30
0.0
 10
65.2088290785
 20
71.5001405267
 30
0.0
 10
65.6610961038
 20
71.6456167405
 30
0.0
 10
66.3716240627
 20
71.7892843644
 30
0.0
 10
67.114289388
 20
71.8608266097
 30
0.0
 10
67.8671399079
 20
71.8582057411
 30
0.0
 10
68.6082013045
 20
71.7814390222
 30
0.0
 10
69.3157662515
 20
71.6328063232
 30
0.0
 10
69.9692478346
 20
71.4165584019
 30
0.0
 10
70.5497825798
 20
71.1388101959
 30
0.0
 10
71.0407837926
 20
70.8068868197
 30
0.0
 10
71.4280013181
 20
70.4293813862
 30
0.0
 10
71.6583214098
 20
70.0763153839
 30
0.0
 10
71.7734511347
 20
69.7847073271
 30
0.0
 10
71.8255468445
 20
69.5664312615
 30
0.0
 10
71.8446052019
 20
69.3461857914
 30
0.0
 10
71.830260065
 20
69.1258026887
 30
0.0
 10
71.7828260608
 20
68.9071437504
 30
0.0
 10
71.674025045
 20
68.6147920912
 30
0.0
 10
71.451253319
 20
68.2600525748
 30
0.0
 10
71.2105681707
 20
68.0187415127
 30
0.0
 10
71.0750830406
 20
67.9043974139
 30
0.0
  0
SPLINE
  5
2B1
100
AcDbEntity
  8
0
100
AcDbSpline
 62
7
  6
BYLAYER
 70
0
 71
3
 72
9
 73
5
 74
0
 42
0.0000001
 43
0.0000001
 44
0.0000000001
 40
0.0
 40
0.0
 40
0.0
 40
0.0
 40
0.2406195812
 40
1.0
 40
1.0
 40
1.0
 40
1.0
 10
64.2716871629
 20
71.0576292405
 30
0.0
 10
64.3267627585
 20
71.0915633637
 30
0.0
 10
64.5591298447
 20
71.2269227644
 30
0.0
 10
64.8040557785
 20
71.3402721393
 30
0.0
 10
64.9939408442
 20
71.4152687343
 30
0.0
  0
SPLINE
  5
2B2
100
AcDbEntity
  8
0
100
AcDbSpline
 62
7
  6
BYLAYER
 70
0
 71
3
 72
26
 73
22
 74
0
 42
0.0000001
 43
0.0000001
 44
0.0000000001
 40
0.0
 40
0.0
 40
0.0
 40
0.0
 40
0.0723107304
 40
0.1481338039
 40
0.2259427123
 40
0.3040585296
 40
0.3807849554
 40
0.4545183215
 40
0.5238681714
 40
0.5877980745
 40
0.6457930789
 40
0.698067545
 40
0.7224369467
 40
0.7458993406
 40
0.7687594789
 40
0.7913643988
 40
0.8140831191
 40
0.8372753591
 40
0.8862037686
 40
0.940165855
 40
1.0
 40
1.0
 40
1.0
 40
1.0
 10
69.8488690292
 20
67.212888827
 30
0.0
 10
69.62035018
 20
67.1271311508
 30
0.0
 10
69.1401382695
 20
66.9825413456
 30
0.0
 10
68.3880473847
 20
66.8476578268
 30
0.0
 10
67.606289233
 20
66.7923272271
 30
0.0
 10
66.8200112657
 20
66.8183813795
 30
0.0
 10
66.0543585607
 20
66.9249760282
 30
0.0
 10
65.3337864663
 20
67.1087321352
 30
0.0
 10
64.6811412892
 20
67.3638927871
 30
0.0
 10
64.1168349814
 20
67.6829176049
 30
0.0
 10
63.658595376
 20
68.0565139909
 30
0.0
 10
63.3709683017
 20
68.4144199683
 30
0.0
 10
63.2147689278
 20
68.7151436238
 30
0.0
 10
63.1353803323
 20
68.9410789079
 30
0.0
 10
63.0918738464
 20
69.1705727498
 30
0.0
 10
63.0848362822
 20
69.4015715686
 30
0.0
 10
63.1143305069
 20
69.631918498
 30
0.0
 10
63.2033372693
 20
69.9405752304
 30
0.0
 10
63.4112104533
 20
70.3185032493
 30
0.0
 10
63.7871192907
 20
70.7244808908
 30
0.0
 10
64.0997385332
 20
70.9516852934
 30
0.0
 10
64.2716871629
 20
71.0576292405
 30
0.0
  0
SPLINE
  5
2B3
100
AcDbEntity
  8
0
100
AcDbSpline
 62
7
  6
BYLAYER
 70
0
 71
3
 72
9
 73
5
 74
0
 42
0.0000001
 43
0.0000001
 44
0.0000000001
 40
0.0
 40
0.0
 40
0.0
 40
0.0
 40
0.7512694173
 40
1.0
 40
1.0
 40
1.0
 40
1.0
 10
42.4086121338
 20
51.4622394453
 30
0.0
 10
42.4533235806
 20
51.4568500989
 30
0.0
 10
42.5134899941
 20
51.4545869813
 30
0.0
 10
42.5733848935
 20
51.4568227256
 30
0.0
 10
42.5882733655
 20
51.4576279873
 30
0.0
  0
SPLINE
  5
2B4
100
AcDbEntity
  8
0
100
AcDbSpline
 62
7
  6
BYLAYER
 70
0
 71
3
 72
9
 73
5
 74
0
 42
0.0000001
 43
0.0000001
 44
0.0000000001
 40
0.0
 40
0.0
 40
0.0
 40
0.0
 40
0.4764966936
 40
1.0
 40
1.0
 40
1.0
 40
1.0
 10
41.8670167767
 20
39.2019210507
 30
0.0
 10
41.9526552622
 20
39.1524787745
 30
0.0
 10
42.1458766938
 20
39.0717129878
 30
0.0
 10
42.3500536546
 20
39.02884712
 30
0.0
 10
42.4578315585
 20
39.0151767014
 30
0.0
  0
SPLINE
  5
2B5
100
AcDbEntity
  8
0
100
AcDbSpline
 62
7
  6
BYLAYER
 70
0
 71
3
 72
9
 73
5
 74
0
 42
0.0000001
 43
0.0000001
 44
0.0000000001
 40
0.0
 40
0.0
 40
0.0
 40
0.0
 40
0.2624292875
 40
1.0
 40
1.0
 40
1.0
 40
1.0
 10
43.2468612056
 20
39.0706142811
 30
0.0
 10
43.2757818803
 20
39.0788582077
 30
0.0
 10
43.3850840611
 20
39.1132291489
 30
0.0
 10
43.4908757322
 20
39.1596648902
 30
0.0
 10
43.5640730515
 20
39.2019251299
 30
0.0
  0
SPLINE
  5
2B6
100
AcDbEntity
  8
0
100
AcDbSpline
 62
7
  6
BYLAYER
 70
0
 71
3
 72
11
 73
7
 74
0
 42
0.0000001
 43
0.0000001
 44
0.0000000001
 40
0.0
 40
0.0
 40
0.0
 40
0.0
 40
0.2513100914
 40
0.506593205
 40
0.7597770154
 40
1.0
 40
1.0
 40
1.0
 40
1.0
 10
42.5345976952
 20
38.4810735698
 30
0.0
 10
42.6306246857
 20
38.4878518722
 30
0.0
 10
42.8225875002
 20
38.5286338221
 30
0.0
 10
43.0912122598
 20
38.6430303055
 30
0.0
 10
43.3398623381
 20
38.7870150207
 30
0.0
 10
43.4930219488
 20
38.8985002583
 30
0.0
 10
43.5640730515
 20
38.9569744048
 30
0.0
  0
SPLINE
  5
2B7
100
AcDbEntity
  8
0
100
AcDbSpline
 62
7
  6
BYLAYER
 70
0
 71
3
 72
9
 73
5
 74
0
 42
0.0000001
 43
0.0000001
 44
0.0000000001
 40
0.0
 40
0.0
 40
0.0
 40
0.0
 40
0.2464086863
 40
1.0
 40
1.0
 40
1.0
 40
1.0
 10
42.2977368896
 20
38.4858655589
 30
0.0
 10
42.3170769345
 20
38.4835860443
 30
0.0
 10
42.3958448438
 20
38.4766943771
 30
0.0
 10
42.4751374009
 20
38.4776799765
 30
0.0
 10
42.5345976952
 20
38.4810735698
 30
0.0
  0
SPLINE
  5
2B8
100
AcDbEntity
  8
0
100
AcDbSpline
 62
7
  6
BYLAYER
 70
0
 71
3
 72
9
 73
5
 74
0
 42
0.0000001
 43
0.0000001
 44
0.0000000001
 40
0.0
 40
0.0
 40
0.0
 40
0.0
 40
0.242862163
 40
1.0
 40
1.0
 40
1.0
 40
1.0
 10
41.9987544396
 20
38.565097094
 30
0.0
 10
42.021891067
 20
38.5554081796
 30
0.0
 10
42.118415135
 20
38.5186194137
 30
0.0
 10
42.2200747571
 20
38.4950143834
 30
0.0
 10
42.2977368896
 20
38.4858655589
 30
0.0
  0
SPLINE
  5
2B9
100
AcDbEntity
  8
0
100
AcDbSpline
 62
7
  6
BYLAYER
 70
0
 71
3
 72
11
 73
7
 74
0
 42
0.0000001
 43
0.0000001
 44
0.0000000001
 40
0.0
 40
0.0
 40
0.0
 40
0.0
 40
0.2326659168
 40
0.4781402713
 40
0.7346590113
 40
1.0
 40
1.0
 40
1.0
 40
1.0
 10
44.6600839992
 20
45.5502204883
 30
0.0
 10
44.6600839992
 20
45.2034799764
 30
0.0
 10
44.6208675311
 20
44.490545443
 30
0.0
 10
44.4573744271
 20
43.4065596726
 30
0.0
 10
44.1897520553
 20
42.2934466479
 30
0.0
 10
43.9481556674
 20
41.5532503018
 30
0.0
 10
43.8115593945
 20
41.1821558973
 30
0.0
  0
SPLINE
  5
2BA
100
AcDbEntity
  8
0
100
AcDbSpline
 62
7
  6
BYLAYER
 70
0
 71
3
 72
11
 73
7
 74
0
 42
0.0000001
 43
0.0000001
 44
0.0000000001
 40
0.0
 40
0.0
 40
0.0
 40
0.0
 40
0.2245981541
 40
0.4651716155
 40
0.7235046027
 40
1.0
 40
1.0
 40
1.0
 40
1.0
 10
43.8115593945
 20
48.9384991101
 30
0.0
 10
43.9543182328
 20
48.7155054384
 30
0.0
 10
44.2063574601
 20
48.2247798485
 30
0.0
 10
44.4697994052
 20
47.4104055864
 30
0.0
 10
44.627461877
 20
46.5073977528
 30
0.0
 10
44.6600839992
 20
45.8761773547
 30
0.0
 10
44.6600839992
 20
45.5502204883
 30
0.0
  0
SPLINE
  5
2BB
100
AcDbEntity
  8
0
100
AcDbSpline
 62
7
  6
BYLAYER
 70
0
 71
3
 72
9
 73
5
 74
0
 42
0.0000001
 43
0.0000001
 44
0.0000000001
 40
0.0
 40
0.0
 40
0.0
 40
0.0
 40
0.5229878805
 40
1.0
 40
1.0
 40
1.0
 40
1.0
 10
42.2977368825
 20
51.0298720679
 30
0.0
 10
42.2202553369
 20
51.0539743318
 30
0.0
 10
42.073012562
 20
51.1030658761
 30
0.0
 10
41.9311128641
 20
51.1675032521
 30
0.0
 10
41.8670168472
 20
51.2045065421
 30
0.0
  0
SPLINE
  5
2BC
100
AcDbEntity
  8
0
100
AcDbSpline
 62
7
  6
BYLAYER
 70
0
 71
3
 72
9
 73
5
 74
0
 42
0.0000001
 43
0.0000001
 44
0.0000000001
 40
0.0
 40
0.0
 40
0.0
 40
0.0
 40
0.2518324829
 40
1.0
 40
1.0
 40
1.0
 40
1.0
 10
42.534597701
 20
50.9638101834
 30
0.0
 10
42.5144921471
 20
50.9684989441
 30
0.0
 10
42.4349036408
 20
50.9881977955
 30
0.0
 10
42.356303805
 20
51.011656615
 30
0.0
 10
42.2977368825
 20
51.0298720679
 30
0.0
  0
SPLINE
  5
2BD
100
AcDbEntity
  8
0
100
AcDbSpline
 62
7
  6
BYLAYER
 70
0
 71
3
 72
11
 73
7
 74
0
 42
0.0000001
 43
0.0000001
 44
0.0000000001
 40
0.0
 40
0.0
 40
0.0
 40
0.0
 40
0.2163532338
 40
0.4577942073
 40
0.7213823131
 40
1.0
 40
1.0
 40
1.0
 40
1.0
 10
43.5640766625
 20
50.8779119626
 30
0.0
 10
43.4927801136
 20
50.8534687735
 30
0.0
 10
43.3325078007
 20
50.8299386889
 30
0.0
 10
43.0808775124
 20
50.8443862832
 30
0.0
 10
42.8123996851
 20
50.8961976839
 30
0.0
 10
42.6285976237
 20
50.9396262758
 30
0.0
 10
42.534597701
 20
50.9638101834
 30
0.0
  0
SPLINE
  5
2BE
100
AcDbEntity
  8
0
100
AcDbSpline
 62
7
  6
BYLAYER
 70
0
 71
3
 72
11
 73
7
 74
0
 42
0.0000001
 43
0.0000001
 44
0.0000000001
 40
0.0
 40
0.0
 40
0.0
 40
0.0
 40
0.2280039892
 40
0.5012955594
 40
0.7737570979
 40
1.0
 40
1.0
 40
1.0
 40
1.0
 10
41.8670169088
 20
51.2045065063
 30
0.0
 10
41.867016989
 20
51.237929189
 30
0.0
 10
41.8796184613
 20
51.3114563288
 30
0.0
 10
41.9254724592
 20
51.4162327129
 30
0.0
 10
41.993301162
 20
51.5079963316
 30
0.0
 10
42.0504263075
 20
51.5553484287
 30
0.0
 10
42.0791476036
 20
51.571930741
 30
0.0
  0
SPLINE
  5
2BF
100
AcDbEntity
  8
0
100
AcDbSpline
 62
7
  6
BYLAYER
 70
0
 71
3
 72
11
 73
7
 74
0
 42
0.0000001
 43
0.0000001
 44
0.0000000001
 40
0.0
 40
0.0
 40
0.0
 40
0.0
 40
0.2274697433
 40
0.5005108836
 40
0.7732247596
 40
1.0
 40
1.0
 40
1.0
 40
1.0
 10
25.0378053142
 20
60.9206365424
 30
0.0
 10
25.0378052955
 20
60.9539809343
 30
0.0
 10
25.0503591448
 20
61.0273933183
 30
0.0
 10
25.0961224314
 20
61.1321237387
 30
0.0
 10
25.163946316
 20
61.2239890825
 30
0.0
 10
25.2211476044
 20
61.2714392544
 30
0.0
 10
25.249936589
 20
61.2880604423
 30
0.0
  0
SPLINE
  5
2C0
100
AcDbEntity
  8
0
100
AcDbSpline
 62
7
  6
BYLAYER
 70
0
 71
3
 72
11
 73
7
 74
0
 42
0.0000001
 43
0.0000001
 44
0.0000000001
 40
0.0
 40
0.0
 40
0.0
 40
0.0
 40
0.2385513994
 40
0.5280811283
 40
0.801768615
 40
1.0
 40
1.0
 40
1.0
 40
1.0
 10
42.2977376393
 20
51.0298718637
 30
0.0
 10
42.3040288763
 20
51.0648310242
 30
0.0
 10
42.3199033457
 20
51.1418671738
 30
0.0
 10
42.3476689243
 20
51.2579993201
 30
0.0
 10
42.3775426637
 20
51.3673843391
 30
0.0
 10
42.3985749744
 20
51.43448193
 30
0.0
 10
42.4086130571
 20
51.462239647
 30
0.0
  0
SPLINE
  5
2C1
100
AcDbEntity
  8
0
100
AcDbSpline
 62
7
  6
BYLAYER
 70
0
 71
3
 72
12
 73
8
 74
0
 42
0.0000001
 43
0.0000001
 44
0.0000000001
 40
0.0
 40
0.0
 40
0.0
 40
0.0
 40
0.2423732884
 40
0.5341393965
 40
0.8063647976
 40
0.9147680938
 40
1.0
 40
1.0
 40
1.0
 40
1.0
 10
42.5346041534
 20
50.9638083084
 30
0.0
 10
42.5465819617
 20
51.002359962
 30
0.0
 10
42.5674977284
 20
51.0890233364
 30
0.0
 10
42.5878820812
 20
51.221881708
 30
0.0
 10
42.5955726175
 20
51.3338510537
 30
0.0
 10
42.5937450682
 20
51.4114643444
 30
0.0
 10
42.5905521458
 20
51.4436157266
 30
0.0
 10
42.5882782066
 20
51.4576285872
 30
0.0
  0
SPLINE
  5
2C2
100
AcDbEntity
  8
0
100
AcDbSpline
 62
7
  6
BYLAYER
 70
0
 71
3
 72
14
 73
10
 74
0
 42
0.0000001
 43
0.0000001
 44
0.0000000001
 40
0.0
 40
0.0
 40
0.0
 40
0.0
 40
0.0992322704
 40
0.2102330237
 40
0.3307551145
 40
0.4583840893
 40
0.7265591725
 40
0.8637963128
 40
1.0
 40
1.0
 40
1.0
 40
1.0
 10
43.5640801235
 20
50.8779133262
 30
0.0
 10
43.5507035943
 20
50.9145926923
 30
0.0
 10
43.5108461085
 20
50.988181679
 30
0.0
 10
43.4265434756
 20
51.0881089745
 30
0.0
 10
43.318632476
 20
51.1802101509
 30
0.0
 10
43.1472453526
 20
51.2900880921
 30
0.0
 10
42.9525946068
 20
51.3726723585
 30
0.0
 10
42.7470510231
 20
51.4292125673
 30
0.0
 10
42.6413037226
 20
51.4499139865
 30
0.0
 10
42.5882733111
 20
51.4576283224
 30
0.0
  0
SPLINE
  5
2C3
100
AcDbEntity
  8
0
100
AcDbSpline
 62
7
  6
BYLAYER
 70
0
 71
3
 72
9
 73
5
 74
0
 42
0.0000001
 43
0.0000001
 44
0.0000000001
 40
0.0
 40
0.0
 40
0.0
 40
0.0
 40
0.2581622107
 40
1.0
 40
1.0
 40
1.0
 40
1.0
 10
69.9343657757
 20
67.2458079254
 30
0.0
 10
69.9747523859
 20
67.2575917858
 30
0.0
 10
70.1307533398
 20
67.3045832992
 30
0.0
 10
70.2846625641
 20
67.3595923224
 30
0.0
 10
70.3951139861
 20
67.408737051
 30
0.0
  0
ENDSEC
  0
SECTION
  2
OBJECTS
  0
DICTIONARY
  5
C
100
AcDbDictionary
280
0
281
1
  3
ACAD_GROUP
350
D
  3
ACAD_MLINESTYLE
350
17
  3
ACAD_LAYOUT
350
1A
  3
ACAD_PLOTSETTINGS
350
19
  3
ACAD_PLOTSTYLENAME
350
E
  0
DICTIONARY
  5
D
102
{ACAD_REACTORS
330
C
102
}
100
AcDbDictionary
280
0
281
1
  0
ACDBDICTIONARYWDFLT
  5
E
102
{ACAD_REACTORS
330
C
102
}
100
AcDbDictionary
281
1
  3
Normal
350
F
100
AcDbDictionaryWithDefault
340
F
  0
DICTIONARY
  5
17
102
{ACAD_REACTORS
330
C
102
}
100
AcDbDictionary
280
0
281
1
  3
Standard
350
18
  0
DICTIONARY
  5
19
102
{ACAD_REACTORS
330
C
102
}
100
AcDbDictionary
281
1
  0
DICTIONARY
  5
1A
102
{ACAD_REACTORS
330
C
102
}
100
AcDbDictionary
281
1
  3
Model
350
2C4
  3
Layout1
350
2C5
  0
ACDBPLACEHOLDER
  5
F
102
{ACAD_REACTORS
330
E
102
}
  0
MLINESTYLE
  5
18
102
{ACAD_REACTORS
330
17
102
}
100
AcDbMlineStyle
  2
STANDARD
 70
0
  3

 62
256
 51
90.0
 52
90.0
 71
2
 49
0.5
 62
256
  6
BYLAYER
 49
-0.5
 62
256
  6
BYLAYER
  0
LAYOUT
  5
2C4
102
{ACAD_REACTORS
330
1A
102
}
100
AcDbPlotSettings
  1

  2
none_device
  4

  6

 40
0.0
 41
0.0
 42
0.0
 43
0.0
 44
210.0
 45
297.0
 46
0.0
 47
0.0
 48
0.0
 49
0.0
140
0.0
141
0.0
142
1.0
143
1.0
 70
1024
 72
1
 73
0
 74
0
  7

 75
0
147
1.0
148
0.0
149
0.0
100
AcDbLayout
  1
Model
 70
0
 71
0
 10
0.0
 20
0.0
 11
210.0
 21
297.0
 12
0.0
 22
0.0
 32
0.0
 14
0.0
 24
0.0
 34
0.0
 15
0.0
 25
0.0
 35
0.0
146
0.0
 13
0.0
 23
0.0
 33
0.0
 16
1.0
 26
0.0
 36
0.0
 17
0.0
 27
1.0
 37
0.0
 76
0
330
210
345
0
346
0
  0
LAYOUT
  5
2C5
102
{ACAD_REACTORS
330
1A
102
}
100
AcDbPlotSettings
  1

  2
none_device
  4

  6

 40
0.0
 41
0.0
 42
0.0
 43
0.0
 44
210.0
 45
297.0
 46
0.0
 47
0.0
 48
0.0
 49
0.0
140
0.0
141
0.0
142
1.0
143
1.0
 70
0
 72
1
 73
0
 74
0
  7

 75
0
147
1.0
148
0.0
149
0.0
100
AcDbLayout
  1
Layout1
 70
0
 71
1
 10
0.0
 20
0.0
 11
210.0
 21
297.0
 12
0.0
 22
0.0
 32
0.0
 14
0.0
 24
0.0
 34
0.0
 15
0.0
 25
0.0
 35
0.0
146
0.0
 13
0.0
 23
0.0
 33
0.0
 16
1.0
 26
0.0
 36
0.0
 17
0.0
 27
1.0
 37
0.0
 76
0
330
211
345
0
346
0
  0
ENDSEC
  0
EOF
