999
DXF file: C:\Users\sesa63760\Dev\_Creo\CAD\MCADID0004615_3D-CAD\drw0001_5.dxf
999
Pro/ENGINEER 2019471 by Parametric Technology Corporation
  0
SECTION
  2
HEADER
  9
$ACADVER
  1
AC1024
  9
$DWGCODEPAGE
  3
ANSI_1252
  9
$EXTMAX
 10
188.403072396
 20
266.4557738173
 30
0.0
  9
$EXTMIN
 10
0.0
 20
0.0
 30
0.0
  9
$LIMMIN
 10
0.0
 20
0.0
  9
$LIMMAX
 10
188.403072396
 20
266.4557738173
  9
$VIEWCTR
 10
94.201536198
 20
133.2278869086
  9
$VIEWSIZE
 40
266.4557738173
  9
$CLAYER
  8
0
  9
$LTSCALE
 40
17.3689689599
  9
$CELTYPE
  6
BYLAYER
  9
$DIMSCALE
 40
1.0
  9
$DIMASZ
 40
2.242893719
  9
$DIMEXO
 40
1.0
  9
$DIMDLI
 40
12.0003785541
  9
$DIMEXE
 40
1.0
  9
$DIMCEN
 40
2.8421949207
  9
$DIMLFAC
 40
1.0
  9
$DIMBLK
  1
_FILLED
  9
$DIMALT
 70
0
  9
$DIMALTF
 40
0.0393700787
  9
$DIMTXT
 40
3.1400512066
  9
$DIMTOL
 70
1
  9
$DIMLIM
 70
0
  9
$DIMTFAC
 40
1.0
  9
$DIMTP
 40
0.01
  9
$DIMTM
 40
0.01
  9
$DIMGAP
 40
0.625
  9
$DIMDSEP
 70
46
  9
$AUNITS
 70
0
  9
$PDMODE
 70
3
  9
$PDSIZE
 40
0.3125
  9
$HANDSEED
  5
464
  9
$TILEMODE
 70
1
  9
$MEASUREMENT
 70
1
  9
$INSUNITS
 70
4
  0
ENDSEC
  0
SECTION
  2
CLASSES
  0
CLASS
  1
ACDBDICTIONARYWDFLT
  2
AcDbDictionaryWithDefault
  3
AutoCAD 2000
 90
0
 91
1
280
0
281
0
  0
CLASS
  1
ACDBPLACEHOLDER
  2
AcDbPlaceHolder
  3
AutoCAD 2000
 90
0
 91
1
280
0
281
0
  0
CLASS
  1
LAYOUT
  2
AcDbLayout
  3
AutoCAD 2000
 90
0
 91
0
280
0
281
0
  0
ENDSEC
  0
SECTION
  2
TABLES
  0
TABLE
  2
VPORT
  5
8
100
AcDbSymbolTable
 70
2
  0
VPORT
  5
1F4
100
AcDbSymbolTableRecord
100
AcDbViewportTableRecord
  2
*ACTIVE
 70
0
 10
0.0
 20
0.0
 11
1.0
 21
1.0
 12
94.201536198
 22
133.2278869086
 13
0.0
 23
0.0
 14
1.0
 24
1.0
 15
0.0
 25
0.0
 16
0.0
 26
0.0
 36
1.0
 17
0.0
 27
0.0
 37
0.0
 40
266.4557738173
 41
0.7070707071
 42
50.0
 43
0.0
 44
0.0
 50
0.0
 51
0.0
 71
0
 72
100
 73
1
 74
1
 75
0
 76
0
 77
0
 78
0
  0
ENDTAB
  0
TABLE
  2
LTYPE
  5
5
100
AcDbSymbolTable
 70
6
  0
LTYPE
  5
14
100
AcDbSymbolTableRecord
100
AcDbLinetypeTableRecord
  2
BYBLOCK
 70
0
  3

 72
65
 73
0
 40
0.0
  0
LTYPE
  5
15
100
AcDbSymbolTableRecord
100
AcDbLinetypeTableRecord
  2
BYLAYER
 70
0
  3

 72
65
 73
0
 40
0.0
  0
LTYPE
  5
16
100
AcDbSymbolTableRecord
100
AcDbLinetypeTableRecord
  2
CONTINUOUS
 70
64
  3
Solid line
 72
65
 73
0
 40
0.0
  0
LTYPE
  5
1F5
100
AcDbSymbolTableRecord
100
AcDbLinetypeTableRecord
  2
CENTER
 70
64
  3
____ _ ____ _ ____ _ ____ _ ____ _ ____ _ ____
 72
65
 73
4
 40
0.6
 49
0.375
 74
0
 49
-0.075
 74
0
 49
0.075
 74
0
 49
-0.075
 74
0
  0
LTYPE
  5
1F6
100
AcDbSymbolTableRecord
100
AcDbLinetypeTableRecord
  2
HIDDEN
 70
64
  3
- - - - - - - - - - - - - - - - - - - -
 72
65
 73
2
 40
0.2
 49
0.1
 74
0
 49
-0.1
 74
0
  0
LTYPE
  5
1F7
100
AcDbSymbolTableRecord
100
AcDbLinetypeTableRecord
  2
PHANTOM
 70
64
  3
_____ _ _ _____ _ _ _____ _ _ _____
 72
65
 73
6
 40
0.8
 49
0.45
 74
0
 49
-0.05
 74
0
 49
0.1
 74
0
 49
-0.05
 74
0
 49
0.1
 74
0
 49
-0.05
 74
0
  0
LTYPE
  5
1F8
100
AcDbSymbolTableRecord
100
AcDbLinetypeTableRecord
  2
DOT
 70
64
  3
. . . . . . . . . . . . . . . . . . . .
 72
65
 73
2
 40
0.2
 49
0.1
 74
0
 49
-0.1
 74
0
  0
LTYPE
  5
1F9
100
AcDbSymbolTableRecord
100
AcDbLinetypeTableRecord
  2
DASHED
 70
64
  3
- - - - - - - - - - - - - - - - - - - -
 72
65
 73
2
 40
0.2
 49
0.1
 74
0
 49
-0.1
 74
0
  0
ENDTAB
  0
TABLE
  2
LAYER
  5
2
100
AcDbSymbolTable
 70
36
  0
LAYER
  5
10
100
AcDbSymbolTableRecord
100
AcDbLayerTableRecord
  2
0
 70
0
 62
7
  6
CONTINUOUS
370
-3
390
F
  0
LAYER
  5
1FA
100
AcDbSymbolTableRecord
100
AcDbLayerTableRecord
  2
DEFAULT_1
 70
0
 62
7
  6
CENTER
370
-3
390
F
  0
LAYER
  5
1FB
100
AcDbSymbolTableRecord
100
AcDbLayerTableRecord
  2
DEFAULT_2
 70
0
 62
7
  6
HIDDEN
370
-3
390
F
  0
LAYER
  5
1FC
100
AcDbSymbolTableRecord
100
AcDbLayerTableRecord
  2
DEFAULT_3
 70
0
 62
7
  6
PHANTOM
370
-3
390
F
  0
LAYER
  5
1FD
100
AcDbSymbolTableRecord
100
AcDbLayerTableRecord
  2
00_COMPONENTS
 70
0
 62
7
  6
CONTINUOUS
370
-3
390
F
  0
LAYER
  5
1FE
100
AcDbSymbolTableRecord
100
AcDbLayerTableRecord
  2
01_1_DEFAULT_DATUMS
 70
0
 62
7
  6
CONTINUOUS
370
-3
390
F
  0
LAYER
  5
1FF
100
AcDbSymbolTableRecord
100
AcDbLayerTableRecord
  2
01_PLANES
 70
0
 62
7
  6
CONTINUOUS
370
-3
390
F
  0
LAYER
  5
200
100
AcDbSymbolTableRecord
100
AcDbLayerTableRecord
  2
02_COORD_SYS
 70
0
 62
7
  6
CONTINUOUS
370
-3
390
F
  0
LAYER
  5
201
100
AcDbSymbolTableRecord
100
AcDbLayerTableRecord
  2
03_AXES
 70
0
 62
7
  6
CONTINUOUS
370
-3
390
F
  0
LAYER
  5
202
100
AcDbSymbolTableRecord
100
AcDbLayerTableRecord
  2
04_POINTS
 70
0
 62
7
  6
CONTINUOUS
370
-3
390
F
  0
LAYER
  5
203
100
AcDbSymbolTableRecord
100
AcDbLayerTableRecord
  2
05_CURVES
 70
0
 62
7
  6
CONTINUOUS
370
-3
390
F
  0
LAYER
  5
204
100
AcDbSymbolTableRecord
100
AcDbLayerTableRecord
  2
06_SURFS
 70
0
 62
7
  6
CONTINUOUS
370
-3
390
F
  0
LAYER
  5
205
100
AcDbSymbolTableRecord
100
AcDbLayerTableRecord
  2
07_COSMETICS
 70
0
 62
7
  6
CONTINUOUS
370
-3
390
F
  0
LAYER
  5
206
100
AcDbSymbolTableRecord
100
AcDbLayerTableRecord
  2
10_NOTES
 70
0
 62
7
  6
CONTINUOUS
370
-3
390
F
  0
LAYER
  5
207
100
AcDbSymbolTableRecord
100
AcDbLayerTableRecord
  2
11_NOTES_PUB
 70
0
 62
7
  6
CONTINUOUS
370
-3
390
F
  0
LAYER
  5
208
100
AcDbSymbolTableRecord
100
AcDbLayerTableRecord
  2
13_REF_GTOL
 70
0
 62
7
  6
CONTINUOUS
370
-3
390
F
  0
LAYER
  5
209
100
AcDbSymbolTableRecord
100
AcDbLayerTableRecord
  2
16_MISC
 70
0
 62
7
  6
CONTINUOUS
370
-3
390
F
  0
LAYER
  5
20A
100
AcDbSymbolTableRecord
100
AcDbLayerTableRecord
  2
17_NO_PRINT
 70
0
 62
7
  6
CONTINUOUS
370
-3
390
F
  0
LAYER
  5
20B
100
AcDbSymbolTableRecord
100
AcDbLayerTableRecord
  2
18_DATUM_CAMS_JOINTS
 70
0
 62
7
  6
CONTINUOUS
370
-3
390
F
  0
LAYER
  5
20C
100
AcDbSymbolTableRecord
100
AcDbLayerTableRecord
  2
19_DATUM_FUNCTIONAL
 70
0
 62
7
  6
CONTINUOUS
370
-3
390
F
  0
LAYER
  5
20D
100
AcDbSymbolTableRecord
100
AcDbLayerTableRecord
  2
20_DATUM_KINEMATIC_SCHEME
 70
0
 62
7
  6
CONTINUOUS
370
-3
390
F
  0
ENDTAB
  0
TABLE
  2
STYLE
  5
3
100
AcDbSymbolTable
 70
1
  0
STYLE
  5
11
100
AcDbSymbolTableRecord
100
AcDbTextStyleTableRecord
  2
STANDARD
 70
0
 40
0.0
 41
1.0
 50
0.0
 71
0
 42
0.2
  3
ARIAL.TTF
  4

  0
STYLE
  5
20E
100
AcDbSymbolTableRecord
100
AcDbTextStyleTableRecord
  2
TEXTSTYLE_1
 70
0
 40
0.0
 41
0.8
 50
0.0
 71
0
 42
0.2
  3
gdt
  4

  0
ENDTAB
  0
TABLE
  2
VIEW
  5
6
100
AcDbSymbolTable
 70
0
  0
ENDTAB
  0
TABLE
  2
UCS
  5
7
100
AcDbSymbolTable
 70
0
  0
ENDTAB
  0
TABLE
  2
APPID
  5
9
100
AcDbSymbolTable
 70
1
  0
APPID
  5
20F
100
AcDbSymbolTableRecord
100
AcDbRegAppTableRecord
  2
ACAD
 70
0
  0
ENDTAB
  0
TABLE
  2
BLOCK_RECORD
  5
1
100
AcDbSymbolTable
 70
0
  0
BLOCK_RECORD
  5
210
100
AcDbSymbolTableRecord
100
AcDbBlockTableRecord
  2
*Model_Space
  0
BLOCK_RECORD
  5
211
100
AcDbSymbolTableRecord
100
AcDbBlockTableRecord
  2
*Paper_Space
  0
BLOCK_RECORD
  5
212
100
AcDbSymbolTableRecord
100
AcDbBlockTableRecord
  2
_FILLED
  0
ENDTAB
  0
TABLE
  2
DIMSTYLE
  5
A
100
AcDbSymbolTable
 70
1
100
AcDbDimStyleTable
 71
0
  0
DIMSTYLE
105
213
100
AcDbSymbolTableRecord
100
AcDbDimStyleTableRecord
  2
STANDARD
 70
0
  3

  4

 40
1.0
 41
2.242893719
 42
1.0
 43
0.38
 44
1.0
 45
0.0
 46
0.0
 47
0.01
 48
0.01
140
3.1400512066
141
0.09
142
0.0
143
25.4
144
1.0
145
0.0
146
1.0
147
0.625
 71
1
 72
0
 73
0
 74
0
 75
0
 76
0
 77
1
 78
8
 79
2
170
0
171
1
172
0
173
0
174
0
175
0
176
0
177
0
178
0
270
2
179
2
271
2
272
2
273
2
274
2
275
0
280
0
281
0
282
0
283
1
284
8
285
0
286
0
287
3
288
0
340
11
278
46
341
212
342
212
343
212
344
212
  0
ENDTAB
  0
ENDSEC
  0
SECTION
  2
BLOCKS
  0
BLOCK
  5
20
100
AcDbEntity
  8
0
100
AcDbBlockBegin
  2
*Model_Space
 70
0
 10
0.0
 20
0.0
 30
0.0
  3
*Model_Space
  1

  0
ENDBLK
  5
21
100
AcDbEntity
  8
0
100
AcDbBlockEnd
  0
BLOCK
  5
1C
100
AcDbEntity
  8
0
100
AcDbBlockBegin
  2
*Paper_Space
 70
0
 10
0.0
 20
0.0
 30
0.0
  3
*Paper_Space
  1

  0
ENDBLK
  5
1D
100
AcDbEntity
  8
0
100
AcDbBlockEnd
  0
BLOCK
  5
214
100
AcDbEntity
  8
0
100
AcDbBlockBegin
  2
_FILLED
 70
64
 10
0.0
 20
0.0
  3
_FILLED
  1

  0
SOLID
  5
215
100
AcDbEntity
  8
0
  6
BYBLOCK
 62
0
100
AcDbTrace
 10
0.0
 20
0.0
 11
-1.0
 21
0.25
 12
-1.0
 22
-0.25
 13
-1.0
 23
-0.25
  0
ENDBLK
  5
216
100
AcDbEntity
  8
0
  6
BYBLOCK
 62
0
100
AcDbBlockEnd
  0
ENDSEC
  0
SECTION
  2
ENTITIES
  0
LINE
  5
217
100
AcDbEntity
  8
0
100
AcDbLine
 62
7
  6
BYLAYER
 10
87.7175592498
 20
36.2082803319
 11
84.5175592498
 21
36.2082803319
  0
LINE
  5
218
100
AcDbEntity
  8
0
100
AcDbLine
 62
7
  6
BYLAYER
 10
103.3709647108
 20
36.2082803319
 11
106.1022732745
 21
36.2082803319
  0
LINE
  5
219
100
AcDbEntity
  8
0
100
AcDbLine
 62
7
  6
BYLAYER
 10
84.517621536
 20
54.7082803319
 11
87.7174969637
 21
54.7082803319
  0
LINE
  5
21A
100
AcDbEntity
  8
0
100
AcDbLine
 62
7
  6
BYLAYER
 10
87.7175030304
 20
71.2082803319
 11
84.5235007539
 21
71.2082803319
  0
LINE
  5
21B
100
AcDbEntity
  8
0
100
AcDbLine
 62
7
  6
BYLAYER
 10
84.517621536
 20
73.2082803319
 11
87.7174969637
 21
73.2082803319
  0
LINE
  5
21C
100
AcDbEntity
  8
0
100
AcDbLine
 62
7
  6
BYLAYER
 10
85.8182740733
 20
231.67715083
 11
89.6346102057
 21
241.0252270414
  0
LINE
  5
21D
100
AcDbEntity
  8
0
100
AcDbLine
 62
7
  6
BYLAYER
 10
88.5957343726
 20
230.543257411
 11
92.412070505
 21
239.8913336224
  0
LINE
  5
21E
100
AcDbEntity
  8
0
100
AcDbLine
 62
7
  6
BYLAYER
 10
87.7175030304
 20
84.7082803319
 11
84.5235007539
 21
84.7082803319
  0
LINE
  5
21F
100
AcDbEntity
  8
0
100
AcDbLine
 62
7
  6
BYLAYER
 10
87.9110616777
 20
169.9470627351
 11
87.920063371
 21
169.9504180162
  0
LINE
  5
220
100
AcDbEntity
  8
0
100
AcDbLine
 62
7
  6
BYLAYER
 10
87.920063371
 20
169.9504180162
 11
87.6175592498
 21
169.7957741075
  0
LWPOLYLINE
  5
221
100
AcDbEntity
  8
0
100
AcDbPolyline
 62
7
  6
BYLAYER
 90
5
 70
0
 10
101.6993614796
 20
159.2827918797
 10
101.7012239321
 20
159.2833786682
 10
101.5165812787
 20
159.2448477721
 10
101.0722150466
 20
159.1783300949
 10
100.4008895492
 20
159.1012700846
  0
LINE
  5
222
100
AcDbEntity
  8
0
100
AcDbLine
 62
7
  6
BYLAYER
 10
84.517621536
 20
109.7082803319
 11
87.7174969637
 21
109.7082803319
  0
LINE
  5
223
100
AcDbEntity
  8
0
100
AcDbLine
 62
7
  6
BYLAYER
 10
91.860199937
 20
115.2082803319
 11
88.860199937
 21
115.2082803319
  0
LINE
  5
224
100
AcDbEntity
  8
0
100
AcDbLine
 62
7
  6
BYLAYER
 10
88.860199937
 20
117.2082803319
 11
91.8601302998
 21
117.2082803319
  0
LINE
  5
225
100
AcDbEntity
  8
0
100
AcDbLine
 62
7
  6
BYLAYER
 10
84.5175592498
 20
109.7082803319
 11
84.5175592498
 21
84.7082803319
  0
LINE
  5
226
100
AcDbEntity
  8
0
100
AcDbLine
 62
7
  6
BYLAYER
 10
84.5175592498
 20
73.2082803319
 11
84.5175592498
 21
71.2082803319
  0
LINE
  5
227
100
AcDbEntity
  8
0
100
AcDbLine
 62
7
  6
BYLAYER
 10
84.5175592498
 20
54.7082803319
 11
84.5175592498
 21
36.2082803319
  0
LINE
  5
228
100
AcDbEntity
  8
0
100
AcDbLine
 62
7
  6
BYLAYER
 10
84.6175592498
 20
54.7082803319
 11
84.6175592498
 21
71.2082803319
  0
LINE
  5
229
100
AcDbEntity
  8
0
100
AcDbLine
 62
7
  6
BYLAYER
 10
84.6175592498
 20
73.2082803319
 11
84.6175592498
 21
84.7082803319
  0
LINE
  5
22A
100
AcDbEntity
  8
0
100
AcDbLine
 62
7
  6
BYLAYER
 10
84.6175592498
 20
109.7082803319
 11
84.6175592498
 21
225.3602041205
  0
LINE
  5
22B
100
AcDbEntity
  8
0
100
AcDbLine
 62
7
  6
BYLAYER
 10
87.6175592498
 20
54.7082803319
 11
87.6175592498
 21
71.2082803319
  0
LINE
  5
22C
100
AcDbEntity
  8
0
100
AcDbLine
 62
7
  6
BYLAYER
 10
87.6175592498
 20
73.2082803319
 11
87.6175592498
 21
84.7082803319
  0
LINE
  5
22D
100
AcDbEntity
  8
0
100
AcDbLine
 62
7
  6
BYLAYER
 10
87.6175592498
 20
109.7082803319
 11
87.6175592498
 21
225.3602041205
  0
LINE
  5
22E
100
AcDbEntity
  8
0
100
AcDbLine
 62
7
  6
BYLAYER
 10
87.7175592498
 20
109.7082803319
 11
87.7175592498
 21
84.7082803319
  0
LINE
  5
22F
100
AcDbEntity
  8
0
100
AcDbLine
 62
7
  6
BYLAYER
 10
87.7175592498
 20
73.2082803319
 11
87.7175592498
 21
71.2082803319
  0
LINE
  5
230
100
AcDbEntity
  8
0
100
AcDbLine
 62
7
  6
BYLAYER
 10
87.7175592498
 20
54.7082803319
 11
87.7175592498
 21
36.2082803319
  0
LINE
  5
231
100
AcDbEntity
  8
0
100
AcDbLine
 62
7
  6
BYLAYER
 10
88.860199937
 20
115.2082803319
 11
88.860199937
 21
117.2082803319
  0
LWPOLYLINE
  5
232
100
AcDbEntity
  8
0
100
AcDbPolyline
 62
7
  6
BYLAYER
 90
5
 70
0
 10
95.3099639531
 20
125.7064246279
 10
93.3101866214
 20
125.2615105659
 10
90.8461920377
 20
123.1671276961
 10
89.1392257911
 20
119.43153865
 10
88.8602370607
 20
117.2082803319
  0
LWPOLYLINE
  5
233
100
AcDbEntity
  8
0
100
AcDbPolyline
 62
7
  6
BYLAYER
 90
6
 70
0
 10
88.9194735078
 20
125.134030674
 10
89.2012669691
 20
125.1884505292
 10
89.7711310131
 20
125.2658838537
 10
90.5864565913
 20
125.3516971043
 10
91.6250440754
 20
125.4422669036
 10
92.8515085969
 20
125.5363151192
  0
LWPOLYLINE
  5
234
100
AcDbEntity
  8
0
100
AcDbPolyline
 62
7
  6
BYLAYER
 90
5
 70
0
 10
101.7461006528
 20
126.2511918915
 10
102.3779527066
 20
126.3693397631
 10
102.9612450216
 20
126.5802716824
 10
103.6351958615
 20
127.2518158224
 10
103.8098684506
 20
127.9580750263
  0
LINE
  5
235
100
AcDbEntity
  8
0
100
AcDbLine
 62
7
  6
BYLAYER
 10
100.885912621
 20
126.1430973754
 11
101.7461006528
 21
126.2511918915
  0
LWPOLYLINE
  5
236
100
AcDbEntity
  8
0
100
AcDbPolyline
 62
7
  6
BYLAYER
 90
3
 70
0
 10
98.2165898536
 20
125.9122552775
 10
99.7024013661
 20
126.0300855549
 10
100.885912621
 20
126.1430973754
  0
LINE
  5
237
100
AcDbEntity
  8
0
100
AcDbLine
 62
7
  6
BYLAYER
 10
92.8515085969
 20
125.5363151192
 11
98.2165898536
 21
125.9122552775
  0
LWPOLYLINE
  5
238
100
AcDbEntity
  8
0
100
AcDbPolyline
 62
7
  6
BYLAYER
 90
10
 70
0
 10
95.3099665469
 20
122.7099987563
 10
96.7404107793
 20
122.8063673976
 10
98.3718623288
 20
122.923892616
 10
99.7666126317
 20
123.0360108164
 10
100.8957126399
 20
123.1440838105
 10
101.7488095358
 20
123.2508055542
 10
102.3823535525
 20
123.3706077184
 10
102.9995994212
 20
123.6046175971
 10
103.6504967455
 20
124.2951450669
 10
103.8042454076
 20
124.9600348788
  0
LWPOLYLINE
  5
239
100
AcDbEntity
  8
0
100
AcDbPolyline
 62
7
  6
BYLAYER
 90
7
 70
0
 10
87.6175592498
 20
125.1233219369
 10
87.6581876116
 20
125.0824087209
 10
88.2584827013
 20
124.8657799093
 10
88.9079305398
 20
124.7458043812
 10
89.7788277296
 20
124.638069448
 10
90.9750777462
 20
124.5253388289
 10
92.3194696804
 20
124.4194062026
  0
LINE
  5
23A
100
AcDbEntity
  8
0
100
AcDbLine
 62
7
  6
BYLAYER
 10
91.860199937
 20
115.2082803319
 11
91.860199937
 21
117.2082803319
  0
LINE
  5
23B
100
AcDbEntity
  8
0
100
AcDbLine
 62
7
  6
BYLAYER
 10
95.3099354641
 20
125.7081336295
 11
95.3099665256
 21
122.7099987083
  0
LWPOLYLINE
  5
23C
100
AcDbEntity
  8
0
100
AcDbPolyline
 62
7
  6
BYLAYER
 90
5
 70
0
 10
91.8601577693
 20
117.2082803319
 10
92.2284711426
 20
119.3433030992
 10
93.3580619264
 20
121.5187435868
 10
94.4502113239
 20
122.4827982113
 10
95.309966471
 20
122.7099989953
  0
LWPOLYLINE
  5
23D
100
AcDbEntity
  8
0
100
AcDbPolyline
 62
7
  6
BYLAYER
 90
3
 70
0
 10
88.3087763133
 20
134.0638864288
 10
87.6982720562
 20
133.8545876843
 10
87.6175592498
 20
133.7772958512
  0
LWPOLYLINE
  5
23E
100
AcDbEntity
  8
0
100
AcDbPolyline
 62
7
  6
BYLAYER
 90
4
 70
0
 10
88.9267595668
 20
128.1349840443
 10
89.1693218144
 20
128.1835653862
 10
89.7012734491
 20
128.258090116
 10
90.4839847383
 20
128.3417986063
  0
LWPOLYLINE
  5
23F
100
AcDbEntity
  8
0
100
AcDbPolyline
 62
7
  6
BYLAYER
 90
5
 70
0
 10
101.7016084176
 20
132.2437940522
 10
102.3602316735
 20
132.3651722622
 10
102.9695556305
 20
132.5880116166
 10
103.6392863387
 20
133.272991891
 10
103.8038447752
 20
133.960002948
  0
LWPOLYLINE
  5
240
100
AcDbEntity
  8
0
100
AcDbPolyline
 62
7
  6
BYLAYER
 90
5
 70
0
 10
101.660089884
 20
129.2382360176
 10
102.3380011085
 20
129.3586139347
 10
102.967326884
 20
129.5845528281
 10
103.6418835242
 20
130.2769080699
 10
103.8030980046
 20
130.9572100228
  0
LWPOLYLINE
  5
241
100
AcDbEntity
  8
0
100
AcDbPolyline
 62
7
  6
BYLAYER
 90
4
 70
0
 10
89.0102733426
 20
131.1856142557
 10
88.3091118691
 20
131.0626767482
 10
87.6867437738
 20
130.8485711331
 10
87.6175592498
 20
130.7817557135
  0
LWPOLYLINE
  5
242
100
AcDbEntity
  8
0
100
AcDbPolyline
 62
7
  6
BYLAYER
 90
5
 70
0
 10
101.6249706995
 20
135.2335444395
 10
102.3115621422
 20
135.3528257336
 10
102.9429132908
 20
135.5703572427
 10
103.6369989568
 20
136.261803902
 10
103.8056141528
 20
136.9567211352
  0
LWPOLYLINE
  5
243
100
AcDbEntity
  8
0
100
AcDbPolyline
 62
7
  6
BYLAYER
 90
4
 70
0
 10
89.3936237116
 20
128.2344811065
 10
88.6144626633
 20
128.1236862695
 10
88.0078562537
 20
127.9825083055
 10
87.6175592498
 20
127.7637691992
  0
LWPOLYLINE
  5
244
100
AcDbEntity
  8
0
100
AcDbPolyline
 62
7
  6
BYLAYER
 90
3
 70
0
 10
91.6873267975
 20
128.4497193888
 10
90.4291557017
 20
128.3428465178
 10
89.3936237116
 20
128.2344811065
  0
LWPOLYLINE
  5
245
100
AcDbEntity
  8
0
100
AcDbPolyline
 62
7
  6
BYLAYER
 90
4
 70
0
 10
98.2933881445
 20
131.9179505143
 10
99.6541566877
 20
132.0262985151
 10
100.809091648
 20
132.1348649673
 10
101.7016084176
 20
132.2437940522
  0
LWPOLYLINE
  5
246
100
AcDbEntity
  8
0
100
AcDbPolyline
 62
7
  6
BYLAYER
 90
4
 70
0
 10
97.8414256181
 20
128.8844539203
 10
99.3821402848
 20
129.0031549164
 10
100.6901393163
 20
129.1228561676
 10
101.660089884
 20
129.2382360176
  0
LWPOLYLINE
  5
247
100
AcDbEntity
  8
0
100
AcDbPolyline
 62
7
  6
BYLAYER
 90
4
 70
0
 10
92.8595414866
 20
131.5378123786
 10
91.3254357394
 20
131.4204023889
 10
90.0088301254
 20
131.302250803
 10
89.0102733426
 20
131.1856142557
  0
LINE
  5
248
100
AcDbEntity
  8
0
100
AcDbLine
 62
7
  6
BYLAYER
 10
93.0689205146
 20
128.552892405
 11
91.4848802695
 21
128.4305066799
  0
LINE
  5
249
100
AcDbEntity
  8
0
100
AcDbLine
 62
7
  6
BYLAYER
 10
92.8595414866
 20
131.5378123786
 11
98.2933881445
 21
131.9179505143
  0
LINE
  5
24A
100
AcDbEntity
  8
0
100
AcDbLine
 62
7
  6
BYLAYER
 10
92.6736604263
 20
128.5231558597
 11
97.8414256181
 21
128.8844539203
  0
LINE
  5
24B
100
AcDbEntity
  8
0
100
AcDbLine
 62
7
  6
BYLAYER
 10
87.6175592498
 20
134.1183465058
 11
87.9899523448
 21
133.9545842322
  0
LWPOLYLINE
  5
24C
100
AcDbEntity
  8
0
100
AcDbPolyline
 62
7
  6
BYLAYER
 90
3
 70
0
 10
87.6175592498
 20
137.1337074971
 10
87.6827380628
 20
137.0691637172
 10
87.9790260878
 20
136.9675477698
  0
LWPOLYLINE
  5
24D
100
AcDbEntity
  8
0
100
AcDbPolyline
 62
7
  6
BYLAYER
 90
3
 70
0
 10
87.6175592498
 20
140.1198916156
 10
87.647137191
 20
140.0895235023
 10
88.0066534254
 20
139.9583766179
  0
LWPOLYLINE
  5
24E
100
AcDbEntity
  8
0
100
AcDbPolyline
 62
7
  6
BYLAYER
 90
3
 70
0
 10
87.6175592498
 20
143.1115776692
 10
87.6367950016
 20
143.0917336903
 10
87.976871047
 20
142.9667075454
  0
LINE
  5
24F
100
AcDbEntity
  8
0
100
AcDbLine
 62
7
  6
BYLAYER
 10
97.9748036823
 20
122.0226942866
 11
98.6960220895
 21
116.2382315303
  0
LWPOLYLINE
  5
250
100
AcDbEntity
  8
0
100
AcDbPolyline
 62
7
  6
BYLAYER
 90
4
 70
0
 10
103.8042452289
 20
124.9595973971
 10
103.7899463853
 20
125.164385884
 10
103.3147063492
 20
126.0841732773
 10
102.641361167
 20
126.4645943219
  0
LINE
  5
251
100
AcDbEntity
  8
0
100
AcDbLine
 62
7
  6
BYLAYER
 10
101.9349038638
 20
109.6872194016
 11
102.2640094135
 21
84.6872194016
  0
LINE
  5
252
100
AcDbEntity
  8
0
100
AcDbLine
 62
7
  6
BYLAYER
 10
102.4153979664
 20
73.1872194016
 11
102.4417264104
 21
71.1872194016
  0
LINE
  5
253
100
AcDbEntity
  8
0
100
AcDbLine
 62
7
  6
BYLAYER
 10
102.6589360732
 20
54.6872194016
 11
102.9023324848
 21
36.1979830627
  0
LINE
  5
254
100
AcDbEntity
  8
0
100
AcDbLine
 62
7
  6
BYLAYER
 10
101.8560914088
 20
123.2710923855
 11
102.0348952001
 21
109.6885357097
  0
LINE
  5
255
100
AcDbEntity
  8
0
100
AcDbLine
 62
7
  6
BYLAYER
 10
102.3640007498
 20
84.6885357097
 11
102.5153893027
 21
73.1885357097
  0
LINE
  5
256
100
AcDbEntity
  8
0
100
AcDbLine
 62
7
  6
BYLAYER
 10
102.5417177467
 20
71.1885357097
 11
102.7589274095
 21
54.6885357097
  0
LINE
  5
257
100
AcDbEntity
  8
0
100
AcDbLine
 62
7
  6
BYLAYER
 10
103.5403697308
 20
223.2376238528
 11
103.561917272
 21
221.6007978275
  0
LINE
  5
258
100
AcDbEntity
  8
0
100
AcDbLine
 62
7
  6
BYLAYER
 10
103.5802517861
 20
220.2080444889
 11
103.6000521981
 21
218.7039364596
  0
LINE
  5
259
100
AcDbEntity
  8
0
100
AcDbLine
 62
7
  6
BYLAYER
 10
103.616818183
 20
217.4303340495
 11
103.6429545564
 21
215.4449243944
  0
LINE
  5
25A
100
AcDbEntity
  8
0
100
AcDbLine
 62
7
  6
BYLAYER
 10
103.657988846
 20
214.3028675703
 11
103.6833197874
 21
212.3786413231
  0
LINE
  5
25B
100
AcDbEntity
  8
0
100
AcDbLine
 62
7
  6
BYLAYER
 10
103.6951708063
 20
211.4783967939
 11
103.7242068802
 21
209.2727158233
  0
LINE
  5
25C
100
AcDbEntity
  8
0
100
AcDbLine
 62
7
  6
BYLAYER
 10
103.7321650173
 20
208.6681881056
 11
103.7656292084
 21
206.1261319822
  0
LINE
  5
25D
100
AcDbEntity
  8
0
100
AcDbLine
 62
7
  6
BYLAYER
 10
103.7699372268
 20
205.7988799527
 11
105.0346352887
 21
109.7280249541
  0
LINE
  5
25E
100
AcDbEntity
  8
0
100
AcDbLine
 62
7
  6
BYLAYER
 10
105.3637408385
 20
84.7280249541
 11
105.5151293914
 21
73.2280249541
  0
LINE
  5
25F
100
AcDbEntity
  8
0
100
AcDbLine
 62
7
  6
BYLAYER
 10
105.5414578354
 20
71.2280249541
 11
105.7586674982
 21
54.7280249541
  0
LINE
  5
260
100
AcDbEntity
  8
0
100
AcDbLine
 62
7
  6
BYLAYER
 10
105.134626625
 20
109.7293412623
 11
105.4637321748
 21
84.7293412623
  0
LINE
  5
261
100
AcDbEntity
  8
0
100
AcDbLine
 62
7
  6
BYLAYER
 10
105.6151207277
 20
73.2293412623
 11
105.6414491716
 21
71.2293412623
  0
LINE
  5
262
100
AcDbEntity
  8
0
100
AcDbLine
 62
7
  6
BYLAYER
 10
105.8586588345
 20
54.7293412623
 11
106.1021969413
 21
36.2293412623
  0
LINE
  5
263
100
AcDbEntity
  8
0
100
AcDbLine
 62
7
  6
BYLAYER
 10
98.7596948736
 20
236.9582803319
 11
98.7596948736
 21
231.2082803319
  0
LINE
  5
264
100
AcDbEntity
  8
0
100
AcDbLine
 62
7
  6
BYLAYER
 10
101.7596948736
 20
236.9582803319
 11
101.7596948736
 21
231.2082803319
  0
LINE
  5
265
100
AcDbEntity
  8
0
100
AcDbLine
 62
7
  6
BYLAYER
 10
103.8047267025
 20
217.9600209869
 11
103.8047267118
 21
217.9595572721
  0
LINE
  5
266
100
AcDbEntity
  8
0
100
AcDbLine
 62
7
  6
BYLAYER
 10
103.8077942327
 20
163.9601234611
 11
103.8077941771
 21
163.9596643816
  0
LINE
  5
267
100
AcDbEntity
  8
0
100
AcDbLine
 62
7
  6
BYLAYER
 10
103.8029790649
 20
208.9593716069
 11
103.8029788956
 21
208.9588998645
  0
LINE
  5
268
100
AcDbEntity
  8
0
100
AcDbLine
 62
7
  6
BYLAYER
 10
103.8099436233
 20
196.9584280195
 11
103.8099434543
 21
196.95795342
  0
LINE
  5
269
100
AcDbEntity
  8
0
100
AcDbLine
 62
7
  6
BYLAYER
 10
103.8023401708
 20
160.9578945706
 11
103.802339983
 21
160.9574025301
  0
LINE
  5
26A
100
AcDbEntity
  8
0
100
AcDbLine
 62
7
  6
BYLAYER
 10
103.8019205767
 20
154.9579819264
 11
103.8019204359
 21
154.957498741
  0
LINE
  5
26B
100
AcDbEntity
  8
0
100
AcDbLine
 62
7
  6
BYLAYER
 10
103.8089288678
 20
142.9597917231
 11
103.8089287338
 21
142.9593482625
  0
LINE
  5
26C
100
AcDbEntity
  8
0
100
AcDbLine
 62
7
  6
BYLAYER
 10
103.808882109
 20
205.957226046
 11
103.8088818565
 21
205.9567484379
  0
LINE
  5
26D
100
AcDbEntity
  8
0
100
AcDbLine
 62
7
  6
BYLAYER
 10
103.8023731691
 20
184.9591529262
 11
103.8023729375
 21
184.9586869964
  0
LINE
  5
26E
100
AcDbEntity
  8
0
100
AcDbLine
 62
7
  6
BYLAYER
 10
103.8019252792
 20
178.9588267911
 11
103.8019250616
 21
178.9583757993
  0
LINE
  5
26F
100
AcDbEntity
  8
0
100
AcDbLine
 62
7
  6
BYLAYER
 10
103.8018644443
 20
169.9589709235
 11
103.8018642312
 21
169.9584899669
  0
LINE
  5
270
100
AcDbEntity
  8
0
100
AcDbLine
 62
7
  6
BYLAYER
 10
103.8084877036
 20
172.9599798269
 11
103.8084874773
 21
172.9595012984
  0
LINE
  5
271
100
AcDbEntity
  8
0
100
AcDbLine
 62
7
  6
BYLAYER
 10
103.8020496071
 20
139.9591805009
 11
103.802049393
 21
139.9586949457
  0
LINE
  5
272
100
AcDbEntity
  8
0
100
AcDbLine
 62
7
  6
BYLAYER
 10
103.8056141528
 20
136.9567211352
 11
103.8056139023
 21
136.9562656788
  0
LINE
  5
273
100
AcDbEntity
  8
0
100
AcDbLine
 62
7
  6
BYLAYER
 10
103.8098684506
 20
127.9580750263
 11
103.8098682542
 21
127.9576246155
  0
LINE
  5
274
100
AcDbEntity
  8
0
100
AcDbLine
 62
7
  6
BYLAYER
 10
103.8031790506
 20
202.9594753682
 11
103.8031787286
 21
202.9590316398
  0
LINE
  5
275
100
AcDbEntity
  8
0
100
AcDbLine
 62
7
  6
BYLAYER
 10
103.8099050561
 20
187.958787667
 11
103.8099047727
 21
187.9583531955
  0
LINE
  5
276
100
AcDbEntity
  8
0
100
AcDbLine
 62
7
  6
BYLAYER
 10
103.8038447752
 20
133.960002948
 11
103.8038444978
 21
133.9595409913
  0
LINE
  5
277
100
AcDbEntity
  8
0
100
AcDbLine
 62
7
  6
BYLAYER
 10
103.8070695659
 20
220.9568188519
 11
103.8070691589
 21
220.9563631991
  0
LINE
  5
278
100
AcDbEntity
  8
0
100
AcDbLine
 62
7
  6
BYLAYER
 10
103.8091738083
 20
211.9573588522
 11
103.8091734522
 21
211.9569043469
  0
LINE
  5
279
100
AcDbEntity
  8
0
100
AcDbLine
 62
7
  6
BYLAYER
 10
103.8023646557
 20
199.9584778425
 11
103.8023642624
 21
199.9579820312
  0
LINE
  5
27A
100
AcDbEntity
  8
0
100
AcDbLine
 62
7
  6
BYLAYER
 10
103.8023733468
 20
193.9585937553
 11
103.8023729696
 21
193.958158596
  0
LINE
  5
27B
100
AcDbEntity
  8
0
100
AcDbLine
 62
7
  6
BYLAYER
 10
103.8099060419
 20
157.9581708044
 11
103.8099056603
 21
157.9577344366
  0
LINE
  5
27C
100
AcDbEntity
  8
0
100
AcDbLine
 62
7
  6
BYLAYER
 10
103.8063594587
 20
148.9602753935
 11
103.8063590786
 21
148.9598184944
  0
LINE
  5
27D
100
AcDbEntity
  8
0
100
AcDbLine
 62
7
  6
BYLAYER
 10
103.805737585
 20
145.956614098
 11
103.8057371664
 21
145.9561479176
  0
LINE
  5
27E
100
AcDbEntity
  8
0
100
AcDbLine
 62
7
  6
BYLAYER
 10
103.8042454076
 20
124.9600348788
 11
103.8042450066
 21
124.9595973895
  0
LINE
  5
27F
100
AcDbEntity
  8
0
100
AcDbLine
 62
7
  6
BYLAYER
 10
103.8066878121
 20
214.9567840948
 11
103.8066873927
 21
214.956360213
  0
LINE
  5
280
100
AcDbEntity
  8
0
100
AcDbLine
 62
7
  6
BYLAYER
 10
103.8077116308
 20
181.9568552737
 11
103.8077111779
 21
181.956391354
  0
LINE
  5
281
100
AcDbEntity
  8
0
100
AcDbLine
 62
7
  6
BYLAYER
 10
103.8065498494
 20
175.9567013908
 11
103.8065494104
 21
175.9562399114
  0
LINE
  5
282
100
AcDbEntity
  8
0
100
AcDbLine
 62
7
  6
BYLAYER
 10
103.805574198
 20
166.9567788072
 11
103.8055737258
 21
166.9563172862
  0
LINE
  5
283
100
AcDbEntity
  8
0
100
AcDbLine
 62
7
  6
BYLAYER
 10
103.8086411327
 20
151.9570602579
 11
103.8086407017
 21
151.9566121574
  0
LINE
  5
284
100
AcDbEntity
  8
0
100
AcDbLine
 62
7
  6
BYLAYER
 10
103.8030980046
 20
130.9572100228
 11
103.8030975057
 21
130.9567440991
  0
LINE
  5
285
100
AcDbEntity
  8
0
100
AcDbLine
 62
7
  6
BYLAYER
 10
103.812280851
 20
190.9574871906
 11
103.8122794292
 21
190.9569528129
  0
LINE
  5
286
100
AcDbEntity
  8
0
100
AcDbLine
 62
7
  6
BYLAYER
 10
103.8038985842
 20
223.9080981444
 11
103.8047831045
 21
223.9583061379
  0
LINE
  5
287
100
AcDbEntity
  8
0
100
AcDbLine
 62
7
  6
BYLAYER
 10
103.8029045404
 20
223.8850824886
 11
103.8039015303
 21
223.9081140754
  0
LWPOLYLINE
  5
288
100
AcDbEntity
  8
0
100
AcDbPolyline
 62
7
  6
BYLAYER
 90
5
 70
0
 10
88.934425989
 20
137.1377793991
 10
89.0547914041
 20
137.1638394174
 10
89.5587609232
 20
137.2401954277
 10
90.366926053
 20
137.330061264
 10
91.4292681957
 20
137.4258912372
  0
LWPOLYLINE
  5
289
100
AcDbEntity
  8
0
100
AcDbPolyline
 62
7
  6
BYLAYER
 90
4
 70
0
 10
101.6909213369
 20
141.2801401218
 10
101.4703728678
 20
141.235712755
 10
100.9600370868
 20
141.1637501665
 10
100.2054892373
 20
141.0818389559
  0
LWPOLYLINE
  5
28A
100
AcDbEntity
  8
0
100
AcDbPolyline
 62
7
  6
BYLAYER
 90
4
 70
0
 10
88.9194009138
 20
140.1345543958
 10
89.1919832949
 20
140.1872111672
 10
89.753181122
 20
140.2636483445
 10
90.5519432389
 20
140.34820785
  0
LWPOLYLINE
  5
28B
100
AcDbEntity
  8
0
100
AcDbPolyline
 62
7
  6
BYLAYER
 90
5
 70
0
 10
101.6866052006
 20
141.2421896015
 10
102.358329629
 20
141.3650003911
 10
102.9820747514
 20
141.5929907839
 10
103.6445718759
 20
142.2736199515
 10
103.8089288678
 20
142.9597917231
  0
LWPOLYLINE
  5
28C
100
AcDbEntity
  8
0
100
AcDbPolyline
 62
7
  6
BYLAYER
 90
4
 70
0
 10
88.9983026429
 20
140.1842388587
 10
88.2986318401
 20
140.0610269333
 10
87.6749485097
 20
139.8417597294
 10
87.6175592498
 20
139.7851805386
  0
LINE
  5
28D
100
AcDbEntity
  8
0
100
AcDbLine
 62
7
  6
BYLAYER
 10
89.0161728316
 20
134.1865315266
 11
88.3087763133
 21
134.0638864288
  0
LWPOLYLINE
  5
28E
100
AcDbEntity
  8
0
100
AcDbPolyline
 62
7
  6
BYLAYER
 90
4
 70
0
 10
89.3822202135
 20
137.2335211211
 10
88.6014223256
 20
137.1211307605
 10
87.9952056526
 20
136.9767489965
 10
87.6175592498
 20
136.7619836294
  0
LWPOLYLINE
  5
28F
100
AcDbEntity
  8
0
100
AcDbPolyline
 62
7
  6
BYLAYER
 90
6
 70
0
 10
101.1199732416
 20
138.1692228282
 10
101.9750123163
 20
138.2867593165
 10
102.6059898732
 20
138.433476693
 10
103.3109947306
 20
138.8328417642
 10
103.7912034224
 20
139.7808287154
 10
103.8020496071
 20
139.9591805009
  0
LINE
  5
290
100
AcDbEntity
  8
0
100
AcDbLine
 62
7
  6
BYLAYER
 10
100.7255276935
 20
141.1259360861
 11
101.6866052006
 21
141.2421896015
  0
LINE
  5
291
100
AcDbEntity
  8
0
100
AcDbLine
 62
7
  6
BYLAYER
 10
89.9951024251
 20
140.300540182
 11
88.9983026429
 21
140.1842388587
  0
LINE
  5
292
100
AcDbEntity
  8
0
100
AcDbLine
 62
7
  6
BYLAYER
 10
99.8879518684
 20
138.0466623751
 11
101.1199732416
 21
138.1692228282
  0
LWPOLYLINE
  5
293
100
AcDbEntity
  8
0
100
AcDbPolyline
 62
7
  6
BYLAYER
 90
3
 70
0
 10
99.3335487487
 20
134.9990432537
 10
100.6636075364
 20
135.1200431869
 10
101.6249706995
 20
135.2335444395
  0
LINE
  5
294
100
AcDbEntity
  8
0
100
AcDbLine
 62
7
  6
BYLAYER
 10
100.7255276935
 20
141.1259360861
 11
99.2350138743
 21
140.9943635211
  0
LINE
  5
295
100
AcDbEntity
  8
0
100
AcDbLine
 62
7
  6
BYLAYER
 10
89.9951024251
 20
140.300540182
 11
91.5636190303
 21
140.4373061565
  0
LINE
  5
296
100
AcDbEntity
  8
0
100
AcDbLine
 62
7
  6
BYLAYER
 10
98.9715729486
 20
137.972542088
 11
98.9370012329
 21
137.9695646386
  0
LWPOLYLINE
  5
297
100
AcDbEntity
  8
0
100
AcDbPolyline
 62
7
  6
BYLAYER
 90
3
 70
0
 10
91.6937670731
 20
137.4500307393
 10
90.428716502
 20
137.3428471343
 10
89.3822202135
 20
137.2335211211
  0
LWPOLYLINE
  5
298
100
AcDbEntity
  8
0
100
AcDbPolyline
 62
7
  6
BYLAYER
 90
4
 70
0
 10
92.6532849759
 20
134.5230008962
 10
91.2673560238
 20
134.4156988529
 10
90.0140833152
 20
134.302325796
 10
89.0161728316
 20
134.1865315266
  0
LINE
  5
299
100
AcDbEntity
  8
0
100
AcDbLine
 62
7
  6
BYLAYER
 10
97.9031308738
 20
140.8891854609
 11
99.4276625167
 21
141.0070421548
  0
LINE
  5
29A
100
AcDbEntity
  8
0
100
AcDbLine
 62
7
  6
BYLAYER
 10
99.8879518684
 20
138.0466623751
 11
97.8078775473
 21
137.8830593261
  0
LINE
  5
29B
100
AcDbEntity
  8
0
100
AcDbLine
 62
7
  6
BYLAYER
 10
92.8558499779
 20
140.5377237936
 11
91.3131206211
 21
140.4193716861
  0
LINE
  5
29C
100
AcDbEntity
  8
0
100
AcDbLine
 62
7
  6
BYLAYER
 10
93.0710934004
 20
137.5530190412
 11
91.4292681957
 21
137.4258912372
  0
LINE
  5
29D
100
AcDbEntity
  8
0
100
AcDbLine
 62
7
  6
BYLAYER
 10
99.3335487487
 20
134.9990432537
 11
96.9032434498
 21
134.8180527338
  0
LINE
  5
29E
100
AcDbEntity
  8
0
100
AcDbLine
 62
7
  6
BYLAYER
 10
97.7021314126
 20
134.8744513226
 11
92.6532849759
 21
134.5230008962
  0
LINE
  5
29F
100
AcDbEntity
  8
0
100
AcDbLine
 62
7
  6
BYLAYER
 10
98.3196229096
 20
137.9198098362
 11
92.7024039861
 21
137.5254730045
  0
LINE
  5
2A0
100
AcDbEntity
  8
0
100
AcDbLine
 62
7
  6
BYLAYER
 10
92.7597291084
 20
140.5296744794
 11
98.0693846272
 21
140.902390535
  0
LWPOLYLINE
  5
2A1
100
AcDbEntity
  8
0
100
AcDbPolyline
 62
7
  6
BYLAYER
 90
3
 70
0
 10
87.6175592498
 20
152.1358547121
 10
87.6918859295
 20
152.0630144463
 10
87.9983664786
 20
151.9599583199
  0
LWPOLYLINE
  5
2A2
100
AcDbEntity
  8
0
100
AcDbPolyline
 62
7
  6
BYLAYER
 90
3
 70
0
 10
87.6175592498
 20
146.1274348875
 10
87.6639016429
 20
146.0807411467
 10
87.9735691011
 20
145.9690249856
  0
LWPOLYLINE
  5
2A3
100
AcDbEntity
  8
0
100
AcDbPolyline
 62
7
  6
BYLAYER
 90
4
 70
0
 10
103.8030975057
 20
130.9567441006
 10
103.6160843316
 20
131.6871443224
 10
102.9273883837
 20
132.3507774136
 10
102.6151704424
 20
132.4584073796
  0
LWPOLYLINE
  5
2A4
100
AcDbEntity
  8
0
100
AcDbPolyline
 62
7
  6
BYLAYER
 90
4
 70
0
 10
103.802049393
 20
139.9586949457
 10
103.6189522815
 20
140.6818367214
 10
102.9325216742
 20
141.3495400502
 10
102.6153197299
 20
141.4589350319
  0
LWPOLYLINE
  5
2A5
100
AcDbEntity
  8
0
100
AcDbPolyline
 62
7
  6
BYLAYER
 90
4
 70
0
 10
103.8098682542
 20
127.957624617
 10
103.6286065662
 20
128.6765398236
 10
102.950835485
 20
129.3412176259
 10
102.618328907
 20
129.4592564875
  0
LWPOLYLINE
  5
2A6
100
AcDbEntity
  8
0
100
AcDbPolyline
 62
7
  6
BYLAYER
 90
4
 70
0
 10
103.8038444978
 20
133.9595409928
 10
103.6242382519
 20
134.6759272896
 10
102.9360828237
 20
135.3490080457
 10
102.6172178287
 20
135.4581391442
  0
LWPOLYLINE
  5
2A7
100
AcDbEntity
  8
0
100
AcDbPolyline
 62
7
  6
BYLAYER
 90
4
 70
0
 10
103.8056139023
 20
136.9562656788
 10
103.6261774365
 20
137.6722048438
 10
102.9526676809
 20
138.3379842981
 10
102.6372858752
 20
138.4512049823
  0
LINE
  5
2A8
100
AcDbEntity
  8
0
100
AcDbLine
 62
7
  6
BYLAYER
 10
100.9517536784
 20
122.3938663772
 11
101.6729720855
 21
116.6094036209
  0
LWPOLYLINE
  5
2A9
100
AcDbEntity
  8
0
100
AcDbPolyline
 62
7
  6
BYLAYER
 90
4
 70
0
 10
103.8091734522
 20
211.9569043469
 10
103.7938839854
 20
212.1685543537
 10
103.3081970149
 20
213.0914254602
 10
102.6403174392
 20
213.4657022992
  0
LWPOLYLINE
  5
2AA
100
AcDbEntity
  8
0
100
AcDbPolyline
 62
7
  6
BYLAYER
 90
4
 70
0
 10
103.8077941771
 20
163.9596643816
 10
103.7940232984
 20
164.1605351779
 10
103.3198615355
 20
165.0821527028
 10
102.664049922
 20
165.4557304019
  0
LWPOLYLINE
  5
2AB
100
AcDbEntity
  8
0
100
AcDbPolyline
 62
7
  6
BYLAYER
 90
4
 70
0
 10
103.8070691589
 20
220.9563631991
 10
103.7933916602
 20
221.1565890073
 10
103.306540059
 20
222.0908771464
 10
102.6544315664
 20
222.4565235843
  0
LWPOLYLINE
  5
2AC
100
AcDbEntity
  8
0
100
AcDbPolyline
 62
7
  6
BYLAYER
 90
4
 70
0
 10
103.8066873927
 20
214.956360213
 10
103.7938951658
 20
215.1499868572
 10
103.3179699288
 20
216.0799434658
 10
102.6571789581
 20
216.4600113426
  0
LINE
  5
2AD
100
AcDbEntity
  8
0
100
AcDbLine
 62
7
  6
BYLAYER
 10
106.1023031234
 20
36.1723924514
 11
106.1023355607
 21
36.2082803319
  0
LWPOLYLINE
  5
2AE
100
AcDbEntity
  8
0
100
AcDbPolyline
 62
7
  6
BYLAYER
 90
6
 70
0
 10
101.7033219276
 20
147.2828863625
 10
101.6340407149
 20
147.2667939568
 10
101.2718489111
 20
147.20564338
 10
100.6748307174
 20
147.1307879684
 10
99.8774081016
 20
147.0503608662
 10
98.8937547229
 20
146.9660903048
  0
LWPOLYLINE
  5
2AF
100
AcDbEntity
  8
0
100
AcDbPolyline
 62
7
  6
BYLAYER
 90
4
 70
0
 10
88.9225623129
 20
143.1339825562
 10
89.1719627427
 20
143.1836897072
 10
89.7104178841
 20
143.2590031949
 10
90.4959609081
 20
143.3430926777
  0
LWPOLYLINE
  5
2B0
100
AcDbEntity
  8
0
100
AcDbPolyline
 62
7
  6
BYLAYER
 90
4
 70
0
 10
101.6922752333
 20
150.2813188522
 10
101.4153545487
 20
150.2271111339
 10
100.8207534665
 20
150.1468415356
 10
99.9539414846
 20
150.0575579978
  0
LWPOLYLINE
  5
2B1
100
AcDbEntity
  8
0
100
AcDbPolyline
 62
7
  6
BYLAYER
 90
4
 70
0
 10
88.9240921305
 20
146.1359211875
 10
89.2004674659
 20
146.1888935802
 10
89.770299285
 20
146.265729474
 10
90.5701421486
 20
146.3498031034
  0
LWPOLYLINE
  5
2B2
100
AcDbEntity
  8
0
100
AcDbPolyline
 62
7
  6
BYLAYER
 90
5
 70
0
 10
101.7638811842
 20
147.2533452496
 10
102.3994742172
 20
147.3751232371
 10
102.9963004587
 20
147.6021770938
 10
103.646280718
 20
148.2825082125
 10
103.8063594587
 20
148.9602753935
  0
LWPOLYLINE
  5
2B3
100
AcDbEntity
  8
0
100
AcDbPolyline
 62
7
  6
BYLAYER
 90
5
 70
0
 10
101.6489408385
 20
144.2369240171
 10
102.3364303243
 20
144.3585417629
 10
102.9628559747
 20
144.5808069194
 10
103.6411171689
 20
145.2696621019
 10
103.805737585
 20
145.956614098
  0
LWPOLYLINE
  5
2B4
100
AcDbEntity
  8
0
100
AcDbPolyline
 62
7
  6
BYLAYER
 90
6
 70
0
 10
101.3264208102
 20
150.1942831771
 10
102.0783549042
 20
150.3059963943
 10
102.6525485357
 20
150.4476005136
 10
103.3388668303
 20
150.8521369202
 10
103.7992621512
 20
151.79139656
 10
103.8086411327
 20
151.9570602579
  0
LWPOLYLINE
  5
2B5
100
AcDbEntity
  8
0
100
AcDbPolyline
 62
7
  6
BYLAYER
 90
4
 70
0
 10
89.3109968402
 20
146.2247979527
 10
88.5631985703
 20
146.1142981877
 10
87.9769158166
 20
145.970951184
 10
87.6175592498
 20
145.7641239153
  0
LWPOLYLINE
  5
2B6
100
AcDbEntity
  8
0
100
AcDbPolyline
 62
7
  6
BYLAYER
 90
4
 70
0
 10
89.384129912
 20
143.2332953751
 10
88.5938851224
 20
143.1204861036
 10
88.0030586815
 20
142.9812985206
 10
87.6175592498
 20
142.766509641
  0
LINE
  5
2B7
100
AcDbEntity
  8
0
100
AcDbLine
 62
7
  6
BYLAYER
 10
100.901020308
 20
147.1445306211
 11
101.7638811842
 21
147.2533452496
  0
LWPOLYLINE
  5
2B8
100
AcDbEntity
  8
0
100
AcDbPolyline
 62
7
  6
BYLAYER
 90
3
 70
0
 10
91.5748549357
 20
146.4381557508
 10
90.3181024489
 20
146.3325010587
 10
89.3109968402
 20
146.2247979527
  0
LWPOLYLINE
  5
2B9
100
AcDbEntity
  8
0
100
AcDbPolyline
 62
7
  6
BYLAYER
 90
3
 70
0
 10
91.7159838918
 20
143.4520378429
 10
90.4489197548
 20
143.3444913938
 10
89.384129912
 20
143.2332953751
  0
LWPOLYLINE
  5
2BA
100
AcDbEntity
  8
0
100
AcDbPolyline
 62
7
  6
BYLAYER
 90
3
 70
0
 10
98.4736729431
 20
146.9316225131
 10
99.7839816763
 20
147.0374007272
 10
100.901020308
 20
147.1445306211
  0
LWPOLYLINE
  5
2BB
100
AcDbEntity
  8
0
100
AcDbPolyline
 62
7
  6
BYLAYER
 90
4
 70
0
 10
97.7994153028
 20
143.8814970976
 10
99.331287979
 20
143.9988542464
 10
100.6547398607
 20
144.1191075998
 10
101.6489408385
 20
144.2369240171
  0
LINE
  5
2BC
100
AcDbEntity
  8
0
100
AcDbLine
 62
7
  6
BYLAYER
 10
93.0904916336
 20
143.554522931
 11
91.5029633624
 21
143.432104829
  0
LINE
  5
2BD
100
AcDbEntity
  8
0
100
AcDbLine
 62
7
  6
BYLAYER
 10
91.5618499147
 20
146.4395898391
 11
94.1084565706
 21
146.6257531394
  0
LINE
  5
2BE
100
AcDbEntity
  8
0
100
AcDbLine
 62
7
  6
BYLAYER
 10
92.9439535706
 20
146.5438636124
 11
98.8937547229
 21
146.9660903048
  0
LINE
  5
2BF
100
AcDbEntity
  8
0
100
AcDbLine
 62
7
  6
BYLAYER
 10
97.7994153028
 20
143.8814970976
 11
92.6940462733
 21
143.5246339791
  0
LINE
  5
2C0
100
AcDbEntity
  8
0
100
AcDbLine
 62
7
  6
BYLAYER
 10
95.7812852906
 20
146.7405886229
 11
94.3716160608
 21
146.644121274
  0
LWPOLYLINE
  5
2C1
100
AcDbEntity
  8
0
100
AcDbPolyline
 62
7
  6
BYLAYER
 90
3
 70
0
 10
87.6175592498
 20
164.1208366318
 10
87.6574115021
 20
164.0807352489
 10
88.0028591704
 20
163.9577638701
  0
LWPOLYLINE
  5
2C2
100
AcDbEntity
  8
0
100
AcDbPolyline
 62
7
  6
BYLAYER
 90
3
 70
0
 10
87.6175592498
 20
161.1239967898
 10
87.656090369
 20
161.0847823053
 10
88.004887213
 20
160.9592112967
  0
LWPOLYLINE
  5
2C3
100
AcDbEntity
  8
0
100
AcDbPolyline
 62
7
  6
BYLAYER
 90
3
 70
0
 10
87.6175592498
 20
155.1235298455
 10
87.6546252896
 20
155.0857099526
 10
88.0051989342
 20
154.9589828974
  0
LWPOLYLINE
  5
2C4
100
AcDbEntity
  8
0
100
AcDbPolyline
 62
7
  6
BYLAYER
 90
4
 70
0
 10
103.8057371664
 20
145.9561479176
 10
103.6186740579
 20
146.6863996507
 10
102.9332590261
 20
147.3479839265
 10
102.6182097952
 20
147.458338004
  0
LWPOLYLINE
  5
2C5
100
AcDbEntity
  8
0
100
AcDbPolyline
 62
7
  6
BYLAYER
 90
4
 70
0
 10
103.8055737258
 20
166.9563172862
 10
103.6202921632
 20
167.683299342
 10
102.928666915
 20
168.3505455133
 10
102.6144615442
 20
168.4578464934
  0
LWPOLYLINE
  5
2C6
100
AcDbEntity
  8
0
100
AcDbPolyline
 62
7
  6
BYLAYER
 90
4
 70
0
 10
103.8086407017
 20
151.9566121574
 10
103.6239754249
 20
152.6821285962
 10
102.9377571862
 20
153.3469646494
 10
102.6143434359
 20
153.4587799918
  0
LWPOLYLINE
  5
2C7
100
AcDbEntity
  8
0
100
AcDbPolyline
 62
7
  6
BYLAYER
 90
4
 70
0
 10
103.8099056603
 20
157.9577344366
 10
103.6251907353
 20
158.6831390203
 10
102.9442928993
 20
159.3447411852
 10
102.6155164873
 20
159.4589875392
  0
LWPOLYLINE
  5
2C8
100
AcDbEntity
  8
0
100
AcDbPolyline
 62
7
  6
BYLAYER
 90
4
 70
0
 10
103.8063590786
 20
148.9598184944
 10
103.6221826397
 20
149.6846137892
 10
102.9268678364
 20
150.3546481358
 10
102.6518005854
 20
150.4474160587
  0
LWPOLYLINE
  5
2C9
100
AcDbEntity
  8
0
100
AcDbPolyline
 62
7
  6
BYLAYER
 90
4
 70
0
 10
103.802339983
 20
160.9574025301
 10
103.6184929392
 20
161.6819489979
 10
102.9342060028
 20
162.3476345571
 10
102.6155953688
 20
162.458725222
  0
LWPOLYLINE
  5
2CA
100
AcDbEntity
  8
0
100
AcDbPolyline
 62
7
  6
BYLAYER
 90
4
 70
0
 10
103.8018642312
 20
169.9584899669
 10
103.621146365
 20
170.6771472689
 10
102.9340737222
 20
171.3484899902
 10
102.6150244709
 20
171.4581370291
  0
LWPOLYLINE
  5
2CB
100
AcDbEntity
  8
0
100
AcDbPolyline
 62
7
  6
BYLAYER
 90
4
 70
0
 10
103.8019204359
 20
154.957498741
 10
103.6238473348
 20
155.6711197614
 10
102.9402841937
 20
156.3443802837
 10
102.6167967425
 20
156.4571179691
  0
LWPOLYLINE
  5
2CC
100
AcDbEntity
  8
0
100
AcDbPolyline
 62
7
  6
BYLAYER
 90
4
 70
0
 10
103.8089287338
 20
142.9593482625
 10
103.631992218
 20
143.6701399708
 10
102.9546201649
 20
144.3403511398
 10
102.6201605036
 20
144.459213459
  0
LINE
  5
2CD
100
AcDbEntity
  8
0
100
AcDbLine
 62
7
  6
BYLAYER
 10
106.0995724787
 20
36.172402398
 11
106.1023355607
 21
36.2082803319
  0
LWPOLYLINE
  5
2CE
100
AcDbEntity
  8
0
100
AcDbPolyline
 62
7
  6
BYLAYER
 90
6
 70
0
 10
88.9243729293
 20
155.1359684102
 10
88.9316263605
 20
155.1378702669
 10
89.2263233448
 20
155.1930274261
 10
89.838419065
 20
155.2736786439
 10
90.7075963156
 20
155.3627401221
 10
91.8082175827
 20
155.4570091586
  0
LWPOLYLINE
  5
2CF
100
AcDbEntity
  8
0
100
AcDbPolyline
 62
7
  6
BYLAYER
 90
6
 70
0
 10
88.9183353271
 20
149.1332678376
 10
88.9914913863
 20
149.1503107189
 10
89.347410976
 20
149.2107784621
 10
89.9390873834
 20
149.285396408
 10
90.736197532
 20
149.3657566381
 10
91.713008389
 20
149.4492837509
  0
LWPOLYLINE
  5
2D0
100
AcDbEntity
  8
0
100
AcDbPolyline
 62
7
  6
BYLAYER
 90
4
 70
0
 10
101.7033381753
 20
153.2834407769
 10
101.5020498364
 20
153.2421174583
 10
101.0459977777
 20
153.1749700627
 10
100.3526849757
 20
153.0962587116
  0
LWPOLYLINE
  5
2D1
100
AcDbEntity
  8
0
100
AcDbPolyline
 62
7
  6
BYLAYER
 90
5
 70
0
 10
101.7535071769
 20
156.2523257147
 10
102.3862380727
 20
156.3714165666
 10
102.9894315676
 20
156.59563077
 10
103.6508016465
 20
157.2828258544
 10
103.8099060419
 20
157.9581708044
  0
LWPOLYLINE
  5
2D2
100
AcDbEntity
  8
0
100
AcDbPolyline
 62
7
  6
BYLAYER
 90
4
 70
0
 10
88.8635486796
 20
152.1638200251
 10
88.2424910209
 20
152.0474561837
 10
87.6687630812
 20
151.8418235643
 10
87.6175592498
 20
151.7918962402
  0
LWPOLYLINE
  5
2D3
100
AcDbEntity
  8
0
100
AcDbPolyline
 62
7
  6
BYLAYER
 90
4
 70
0
 10
88.9354938013
 20
155.175191402
 10
88.2741712639
 20
155.0547328539
 10
87.6724953004
 20
154.8405455899
 10
87.6175592498
 20
154.7864958406
  0
LWPOLYLINE
  5
2D4
100
AcDbEntity
  8
0
100
AcDbPolyline
 62
7
  6
BYLAYER
 90
4
 70
0
 10
88.9896647758
 20
149.1825884474
 10
88.2957032554
 20
149.0611392015
 10
87.6649714247
 20
148.8383941563
 10
87.6175592498
 20
148.791242898
  0
LWPOLYLINE
  5
2D5
100
AcDbEntity
  8
0
100
AcDbPolyline
 62
7
  6
BYLAYER
 90
5
 70
0
 10
101.5927093582
 20
153.2286029198
 10
102.2959525752
 20
153.3491191468
 10
102.9392791133
 20
153.5706950162
 10
103.6306669561
 20
154.2575692622
 10
103.8019205767
 20
154.9579819264
  0
LINE
  5
2D6
100
AcDbEntity
  8
0
100
AcDbLine
 62
7
  6
BYLAYER
 10
89.7034953106
 20
152.2700979024
 11
88.8635486796
 21
152.1638200251
  0
LINE
  5
2D7
100
AcDbEntity
  8
0
100
AcDbLine
 62
7
  6
BYLAYER
 10
100.9127450039
 20
156.1460149857
 11
101.7535071769
 21
156.2523257147
  0
LINE
  5
2D8
100
AcDbEntity
  8
0
100
AcDbLine
 62
7
  6
BYLAYER
 10
99.8170670753
 20
156.0399845312
 11
100.9127450039
 21
156.1460149857
  0
LWPOLYLINE
  5
2D9
100
AcDbEntity
  8
0
100
AcDbPolyline
 62
7
  6
BYLAYER
 90
3
 70
0
 10
90.9914425107
 20
155.392477265
 10
89.8329146712
 20
155.2840777744
 10
88.9354938013
 20
155.175191402
  0
LWPOLYLINE
  5
2DA
100
AcDbEntity
  8
0
100
AcDbPolyline
 62
7
  6
BYLAYER
 90
3
 70
0
 10
99.2503848886
 20
152.9924204356
 10
100.6041334208
 20
153.1140871244
 10
101.5927093582
 20
153.2286029198
  0
LWPOLYLINE
  5
2DB
100
AcDbEntity
  8
0
100
AcDbPolyline
 62
7
  6
BYLAYER
 90
3
 70
0
 10
98.8598544486
 20
149.9637000902
 10
100.2356111703
 20
150.0778810946
 10
101.3264208102
 20
150.1942831771
  0
LWPOLYLINE
  5
2DC
100
AcDbEntity
  8
0
100
AcDbPolyline
 62
7
  6
BYLAYER
 90
3
 70
0
 10
92.2162987209
 20
152.4903264395
 10
90.8252535538
 20
152.378512599
 10
89.7034953106
 20
152.2700979024
  0
LINE
  5
2DD
100
AcDbEntity
  8
0
100
AcDbLine
 62
7
  6
BYLAYER
 10
99.8170670753
 20
156.0399845312
 11
98.0398798897
 21
155.9001256358
  0
LINE
  5
2DE
100
AcDbEntity
  8
0
100
AcDbLine
 62
7
  6
BYLAYER
 10
92.8133405383
 20
152.5333753189
 11
92.8656282328
 21
152.537403626
  0
LWPOLYLINE
  5
2DF
100
AcDbEntity
  8
0
100
AcDbPolyline
 62
7
  6
BYLAYER
 90
4
 70
0
 10
92.9428274469
 20
149.5440063518
 10
91.339549207
 20
149.4217714846
 10
89.9864901057
 20
149.2995025253
 10
88.9896647758
 20
149.1825884474
  0
LINE
  5
2E0
100
AcDbEntity
  8
0
100
AcDbLine
 62
7
  6
BYLAYER
 10
90.9914425107
 20
155.392477265
 11
93.1141923669
 21
155.5555699155
  0
LINE
  5
2E1
100
AcDbEntity
  8
0
100
AcDbLine
 62
7
  6
BYLAYER
 10
99.421827116
 20
153.0098419253
 11
96.9082315569
 21
152.8186226698
  0
LINE
  5
2E2
100
AcDbEntity
  8
0
100
AcDbLine
 62
7
  6
BYLAYER
 10
98.8349897058
 20
155.9592140767
 11
96.7237488175
 21
155.8055336394
  0
LINE
  5
2E3
100
AcDbEntity
  8
0
100
AcDbLine
 62
7
  6
BYLAYER
 10
98.884005407
 20
149.9630472774
 11
96.1554612719
 21
149.7660746047
  0
LINE
  5
2E4
100
AcDbEntity
  8
0
100
AcDbLine
 62
7
  6
BYLAYER
 10
97.6205782561
 20
152.8684626669
 11
92.2162987209
 21
152.4903264395
  0
LINE
  5
2E5
100
AcDbEntity
  8
0
100
AcDbLine
 62
7
  6
BYLAYER
 10
97.6622260326
 20
155.8714848792
 11
92.3475709652
 21
155.5001582646
  0
LINE
  5
2E6
100
AcDbEntity
  8
0
100
AcDbLine
 62
7
  6
BYLAYER
 10
97.4813907566
 20
149.8587059187
 11
92.839887034
 21
149.5354116594
  0
LWPOLYLINE
  5
2E7
100
AcDbEntity
  8
0
100
AcDbPolyline
 62
7
  6
BYLAYER
 90
3
 70
0
 10
87.6175592498
 20
173.1185987954
 10
87.6520848127
 20
173.0836325621
 10
88.001554264
 20
172.9577824761
  0
LWPOLYLINE
  5
2E8
100
AcDbEntity
  8
0
100
AcDbPolyline
 62
7
  6
BYLAYER
 90
4
 70
0
 10
103.8023642624
 20
199.9579820312
 10
103.6133878795
 20
200.692084082
 10
102.9131239667
 20
201.3589552428
 10
102.6136627207
 20
201.4589244685
  0
LWPOLYLINE
  5
2E9
100
AcDbEntity
  8
0
100
AcDbPolyline
 62
7
  6
BYLAYER
 90
4
 70
0
 10
103.8077111779
 20
181.956391354
 10
103.6201611698
 20
182.6873974684
 10
102.9282139342
 20
183.3514556444
 10
102.6132036801
 20
183.4584815252
  0
LWPOLYLINE
  5
2EA
100
AcDbEntity
  8
0
100
AcDbPolyline
 62
7
  6
BYLAYER
 90
4
 70
0
 10
103.8084874773
 20
172.9595012984
 10
103.6215923576
 20
173.6891508621
 10
102.9199747091
 20
174.3582120028
 10
102.6198208394
 20
174.459013965
  0
LWPOLYLINE
  5
2EB
100
AcDbEntity
  8
0
100
AcDbPolyline
 62
7
  6
BYLAYER
 90
4
 70
0
 10
103.8065494104
 20
175.9562399114
 10
103.6206715405
 20
176.6842354022
 10
102.9320625321
 20
177.3490002881
 10
102.612889644
 20
177.4586612212
  0
LWPOLYLINE
  5
2EC
100
AcDbEntity
  8
0
100
AcDbPolyline
 62
7
  6
BYLAYER
 90
4
 70
0
 10
103.8099434543
 20
196.95795342
 10
103.625989341
 20
197.6819124448
 10
102.9400800476
 20
198.3470796842
 10
102.6163320429
 20
198.4592187693
  0
LWPOLYLINE
  5
2ED
100
AcDbEntity
  8
0
100
AcDbPolyline
 62
7
  6
BYLAYER
 90
4
 70
0
 10
103.8019250616
 20
178.9583757993
 10
103.6241118351
 20
179.6714859224
 10
102.9542869026
 20
180.3377796895
 10
102.6242091778
 20
180.4578149513
  0
LWPOLYLINE
  5
2EE
100
AcDbEntity
  8
0
100
AcDbPolyline
 62
7
  6
BYLAYER
 90
4
 70
0
 10
103.8023729375
 20
184.9586869964
 10
103.6245644433
 20
185.6717702311
 10
102.9419593151
 20
186.3447533723
 10
102.6462244586
 20
186.4473988658
  0
LWPOLYLINE
  5
2EF
100
AcDbEntity
  8
0
100
AcDbPolyline
 62
7
  6
BYLAYER
 90
4
 70
0
 10
103.8099047727
 20
187.9583531955
 10
103.6330170708
 20
188.6688927589
 10
102.9581727683
 20
189.3378636702
 10
102.6493260988
 20
189.4470908192
  0
LWPOLYLINE
  5
2F0
100
AcDbEntity
  8
0
100
AcDbPolyline
 62
7
  6
BYLAYER
 90
4
 70
0
 10
103.8023729696
 20
193.958158596
 10
103.6251428071
 20
194.6701346725
 10
102.9527535685
 20
195.3386046201
 10
102.6191098132
 20
195.4582844192
  0
LWPOLYLINE
  5
2F1
100
AcDbEntity
  8
0
100
AcDbPolyline
 62
7
  6
BYLAYER
 90
4
 70
0
 10
103.8122794292
 20
190.9569528129
 10
103.6396155223
 20
191.6602011856
 10
102.9652720989
 20
192.3336658722
 10
102.6178521696
 20
192.4594674109
  0
LWPOLYLINE
  5
2F2
100
AcDbEntity
  8
0
100
AcDbPolyline
 62
7
  6
BYLAYER
 90
5
 70
0
 10
101.6948846852
 20
165.2819965332
 10
101.4762337192
 20
165.2374054174
 10
100.9806112897
 20
165.1661144859
 10
100.2220326522
 20
165.0831136166
 10
99.2001612474
 20
164.9914241175
  0
LWPOLYLINE
  5
2F3
100
AcDbEntity
  8
0
100
AcDbPolyline
 62
7
  6
BYLAYER
 90
5
 70
0
 10
88.9222782348
 20
161.1354507764
 10
89.1688296189
 20
161.1837206415
 10
89.6938165109
 20
161.2565876426
 10
90.4465346786
 20
161.3378972696
 10
91.3972253288
 20
161.4234807294
  0
LWPOLYLINE
  5
2F4
100
AcDbEntity
  8
0
100
AcDbPolyline
 62
7
  6
BYLAYER
 90
5
 70
0
 10
101.6949445469
 20
162.2805400465
 10
101.4434121362
 20
162.2314021495
 10
100.8816220766
 20
162.1545432793
 10
100.070693933
 20
162.0687766866
 10
99.0373765182
 20
161.9778204887
  0
LWPOLYLINE
  5
2F5
100
AcDbEntity
  8
0
100
AcDbPolyline
 62
7
  6
BYLAYER
 90
4
 70
0
 10
88.9008988564
 20
161.1700124395
 10
88.2586673502
 20
161.0509546307
 10
87.6609178617
 20
160.834863917
 10
87.6175592498
 20
160.7916888157
  0
LWPOLYLINE
  5
2F6
100
AcDbEntity
  8
0
100
AcDbPolyline
 62
7
  6
BYLAYER
 90
5
 70
0
 10
101.6687350059
 20
162.2394043597
 10
102.3289520358
 20
162.3580366702
 10
102.9491866064
 20
162.5759050576
 10
103.6356229051
 20
163.2583743693
 10
103.8077942327
 20
163.9601234611
  0
LWPOLYLINE
  5
2F7
100
AcDbEntity
  8
0
100
AcDbPolyline
 62
7
  6
BYLAYER
 90
5
 70
0
 10
101.5817893791
 20
159.2271408258
 10
102.2923346451
 20
159.3482705283
 10
102.9362272102
 20
159.5688579836
 10
103.6296629872
 20
160.2547201769
 10
103.8023401708
 20
160.9578945706
  0
LWPOLYLINE
  5
2F8
100
AcDbEntity
  8
0
100
AcDbPolyline
 62
7
  6
BYLAYER
 90
6
 70
0
 10
101.2706954481
 20
165.1874595686
 10
102.055693604
 20
165.3014103967
 10
102.645428868
 20
165.4447558723
 10
103.3366744858
 20
165.8521493248
 10
103.7962377148
 20
166.7914163249
 10
103.805574198
 20
166.9567788072
  0
LINE
  5
2F9
100
AcDbEntity
  8
0
100
AcDbLine
 62
7
  6
BYLAYER
 10
89.7581121525
 20
161.2762242992
 11
88.9008988564
 21
161.1700124395
  0
LWPOLYLINE
  5
2FA
100
AcDbEntity
  8
0
100
AcDbPolyline
 62
7
  6
BYLAYER
 90
5
 70
0
 10
89.8134938963
 20
158.2815872699
 10
88.9129212494
 20
158.1717040155
 10
88.2553560345
 20
158.0516382217
 10
87.6421670437
 20
157.8258421783
 10
87.6175592498
 20
157.8006114439
  0
LINE
  5
2FB
100
AcDbEntity
  8
0
100
AcDbLine
 62
7
  6
BYLAYER
 10
90.8965109967
 20
161.3843887497
 11
89.7581121525
 21
161.2762242992
  0
LWPOLYLINE
  5
2FC
100
AcDbEntity
  8
0
100
AcDbPolyline
 62
7
  6
BYLAYER
 90
3
 70
0
 10
99.5992595472
 20
162.0214940516
 10
100.7652857192
 20
162.1300875247
 10
101.6687350059
 20
162.2394043597
  0
LWPOLYLINE
  5
2FD
100
AcDbEntity
  8
0
100
AcDbPolyline
 62
7
  6
BYLAYER
 90
3
 70
0
 10
99.3882301701
 20
159.0037365592
 10
100.6165338152
 20
159.1153240287
 10
101.5817893791
 20
159.2271408258
  0
LINE
  5
2FE
100
AcDbEntity
  8
0
100
AcDbLine
 62
7
  6
BYLAYER
 10
99.5199189487
 20
159.0186471242
 11
98.7790150064
 21
158.9573088827
  0
LINE
  5
2FF
100
AcDbEntity
  8
0
100
AcDbLine
 62
7
  6
BYLAYER
 10
90.8965109967
 20
161.3843887497
 11
92.5320184474
 21
161.5128299832
  0
LINE
  5
300
100
AcDbEntity
  8
0
100
AcDbLine
 62
7
  6
BYLAYER
 10
99.5992595472
 20
162.0214940516
 11
97.8019992145
 21
161.8825277492
  0
LINE
  5
301
100
AcDbEntity
  8
0
100
AcDbLine
 62
7
  6
BYLAYER
 10
99.3882301701
 20
159.0037365592
 11
97.1985926766
 21
158.839029964
  0
LWPOLYLINE
  5
302
100
AcDbEntity
  8
0
100
AcDbPolyline
 62
7
  6
BYLAYER
 90
4
 70
0
 10
93.3892946199
 20
158.5758162836
 10
91.7369150636
 20
158.4536444088
 10
90.3764189476
 20
158.3375642269
 10
89.8134938963
 20
158.2815872699
  0
LINE
  5
303
100
AcDbEntity
  8
0
100
AcDbLine
 62
7
  6
BYLAYER
 10
97.9644056903
 20
158.8934013389
 11
93.3892946199
 21
158.5758162836
  0
LINE
  5
304
100
AcDbEntity
  8
0
100
AcDbLine
 62
7
  6
BYLAYER
 10
92.3177053643
 20
161.4979037268
 11
96.3757981847
 21
161.7813923704
  0
LINE
  5
305
100
AcDbEntity
  8
0
100
AcDbLine
 62
7
  6
BYLAYER
 10
98.2387147059
 20
161.9139357872
 11
95.5960742626
 21
161.7278860393
  0
LWPOLYLINE
  5
306
100
AcDbEntity
  8
0
100
AcDbPolyline
 62
7
  6
BYLAYER
 90
3
 70
0
 10
87.6175592498
 20
176.1331042178
 10
87.682391742
 20
176.0689050191
 10
87.9736410744
 20
175.9693130784
  0
LWPOLYLINE
  5
307
100
AcDbEntity
  8
0
100
AcDbPolyline
 62
7
  6
BYLAYER
 90
3
 70
0
 10
87.6175592498
 20
182.1263868027
 10
87.6663787807
 20
182.0771945316
 10
88.0025862774
 20
181.9593502059
  0
LWPOLYLINE
  5
308
100
AcDbEntity
  8
0
100
AcDbPolyline
 62
7
  6
BYLAYER
 90
3
 70
0
 10
87.6175592498
 20
185.1194999913
 10
87.6473704547
 20
185.0889721835
 10
88.004458038
 20
184.9590529709
  0
LWPOLYLINE
  5
309
100
AcDbEntity
  8
0
100
AcDbPolyline
 62
7
  6
BYLAYER
 90
4
 70
0
 10
103.8088818565
 20
205.9567484379
 10
103.6230782036
 20
206.6843820667
 10
102.9313500753
 20
207.3504742752
 10
102.616562363
 20
207.4583074032
  0
LWPOLYLINE
  5
30A
100
AcDbEntity
  8
0
100
AcDbPolyline
 62
7
  6
BYLAYER
 90
4
 70
0
 10
103.8047267118
 20
217.9595572721
 10
103.6214755856
 20
218.6827632726
 10
102.9594698564
 20
219.3370375371
 10
102.6151157597
 20
219.4565940511
  0
LWPOLYLINE
  5
30B
100
AcDbEntity
  8
0
100
AcDbPolyline
 62
7
  6
BYLAYER
 90
4
 70
0
 10
103.8029788956
 20
208.9588998645
 10
103.6229175948
 20
209.6762372268
 10
102.9448577555
 20
210.3436510876
 10
102.6203945388
 20
210.4589319945
  0
LWPOLYLINE
  5
30C
100
AcDbEntity
  8
0
100
AcDbPolyline
 62
7
  6
BYLAYER
 90
4
 70
0
 10
103.8031787286
 20
202.9590316398
 10
103.6253268248
 20
203.6721362777
 10
102.9491712463
 20
204.3415571697
 10
102.619061775
 20
204.4585431897
  0
LWPOLYLINE
  5
30D
100
AcDbEntity
  8
0
100
AcDbPolyline
 62
7
  6
BYLAYER
 90
4
 70
0
 10
99.2100884937
 20
228.2082803319
 10
99.4279649712
 20
227.2939026266
 10
99.9050360836
 20
225.8859147474
 10
100.2162407494
 20
225.0828082697
  0
LWPOLYLINE
  5
30E
100
AcDbEntity
  8
0
100
AcDbPolyline
 62
7
  6
BYLAYER
 90
5
 70
0
 10
88.9208476687
 20
164.1336133256
 10
88.9800623827
 20
164.147761695
 10
89.313978998
 20
164.2060518031
 10
89.8741093618
 20
164.2782500004
 10
90.6412808358
 20
164.3568913987
  0
LWPOLYLINE
  5
30F
100
AcDbEntity
  8
0
100
AcDbPolyline
 62
7
  6
BYLAYER
 90
4
 70
0
 10
101.6907467184
 20
171.2799692038
 10
101.6006443007
 20
171.25955579
 10
101.1682066134
 20
171.1905292622
 10
100.4611428035
 20
171.1077027758
  0
LWPOLYLINE
  5
310
100
AcDbEntity
  8
0
100
AcDbPolyline
 62
7
  6
BYLAYER
 90
3
 70
0
 10
88.9348952782
 20
170.1752505307
 10
88.0813030393
 20
170.0039574986
 10
87.9181035605
 20
169.9494161365
  0
LWPOLYLINE
  5
311
100
AcDbEntity
  8
0
100
AcDbPolyline
 62
7
  6
BYLAYER
 90
5
 70
0
 10
101.6997646232
 20
168.2818604566
 10
101.3971084512
 20
168.2244585507
 10
100.7861237538
 20
168.1434262149
 10
99.9150561843
 20
168.0538661385
 10
98.8101400603
 20
167.9594040974
  0
LWPOLYLINE
  5
312
100
AcDbEntity
  8
0
100
AcDbPolyline
 62
7
  6
BYLAYER
 90
4
 70
0
 10
88.9235423964
 20
170.135710824
 10
89.2231601123
 20
170.1922377434
 10
89.8246377569
 20
170.2720357615
 10
90.6949399061
 20
170.3616931762
  0
LWPOLYLINE
  5
313
100
AcDbEntity
  8
0
100
AcDbPolyline
 62
7
  6
BYLAYER
 90
5
 70
0
 10
101.6858804055
 20
171.2420244976
 10
102.330894321
 20
171.3585490261
 10
102.9471275929
 20
171.5745396239
 10
103.6355629248
 20
172.2568459658
 10
103.8084877036
 20
172.9599798269
  0
LWPOLYLINE
  5
314
100
AcDbEntity
  8
0
100
AcDbPolyline
 62
7
  6
BYLAYER
 90
5
 70
0
 10
101.666859994
 20
168.238751018
 10
102.3361601709
 20
168.3587859537
 10
102.950151604
 20
168.577334364
 10
103.6319626836
 20
169.2612050899
 10
103.8018644443
 20
169.9589709235
  0
LWPOLYLINE
  5
315
100
AcDbEntity
  8
0
100
AcDbPolyline
 62
7
  6
BYLAYER
 90
4
 70
0
 10
88.9694033553
 20
167.1794954964
 10
88.296655398
 20
167.0599524098
 10
87.6824402936
 20
166.8479609497
 10
87.6175592498
 20
166.7852191539
  0
LWPOLYLINE
  5
316
100
AcDbEntity
  8
0
100
AcDbPolyline
 62
7
  6
BYLAYER
 90
4
 70
0
 10
89.0529739798
 20
164.1912792346
 10
88.3273293277
 20
164.068278987
 10
87.6868784469
 20
163.8501402695
 10
87.6175592498
 20
163.7827722935
  0
LWPOLYLINE
  5
317
100
AcDbEntity
  8
0
100
AcDbPolyline
 62
7
  6
BYLAYER
 90
3
 70
0
 10
89.1482163993
 20
167.1808204587
 10
89.6975517636
 20
167.2575607997
 10
90.5372437808
 20
167.3466728525
  0
LINE
  5
318
100
AcDbEntity
  8
0
100
AcDbLine
 62
7
  6
BYLAYER
 10
89.9294758183
 20
167.2942301155
 11
88.9694033553
 21
167.1794954964
  0
LINE
  5
319
100
AcDbEntity
  8
0
100
AcDbLine
 62
7
  6
BYLAYER
 10
90.1554626464
 20
170.3164684955
 11
88.9348952782
 21
170.1752505307
  0
LINE
  5
31A
100
AcDbEntity
  8
0
100
AcDbLine
 62
7
  6
BYLAYER
 10
90.098361875
 20
164.3107634488
 11
89.0529739798
 21
164.1912792346
  0
LWPOLYLINE
  5
31B
100
AcDbEntity
  8
0
100
AcDbPolyline
 62
7
  6
BYLAYER
 90
3
 70
0
 10
99.613818517
 20
168.0228514561
 10
100.7815551564
 20
168.1322013659
 10
101.666859994
 20
168.238751018
  0
LWPOLYLINE
  5
31C
100
AcDbEntity
  8
0
100
AcDbPolyline
 62
7
  6
BYLAYER
 90
3
 70
0
 10
99.5166293617
 20
171.0183916803
 10
100.7938244585
 20
171.1330660521
 10
101.6858804055
 20
171.2420244976
  0
LINE
  5
31D
100
AcDbEntity
  8
0
100
AcDbLine
 62
7
  6
BYLAYER
 10
89.9294758183
 20
167.2942301155
 11
91.643743675
 21
167.4435206392
  0
LINE
  5
31E
100
AcDbEntity
  8
0
100
AcDbLine
 62
7
  6
BYLAYER
 10
90.098361875
 20
164.3107634488
 11
91.6007367172
 21
164.4401118945
  0
LINE
  5
31F
100
AcDbEntity
  8
0
100
AcDbLine
 62
7
  6
BYLAYER
 10
90.1554626464
 20
170.3164684955
 11
91.8221597278
 21
170.4581558245
  0
LWPOLYLINE
  5
320
100
AcDbEntity
  8
0
100
AcDbPolyline
 62
7
  6
BYLAYER
 90
3
 70
0
 10
98.9024211465
 20
164.9644139735
 10
100.1938253709
 20
165.0741491496
 10
101.2706954481
 20
165.1874595686
  0
LINE
  5
321
100
AcDbEntity
  8
0
100
AcDbLine
 62
7
  6
BYLAYER
 10
93.0107188742
 20
167.5480942655
 11
91.2769729992
 21
167.4165643993
  0
LINE
  5
322
100
AcDbEntity
  8
0
100
AcDbLine
 62
7
  6
BYLAYER
 10
99.613818517
 20
168.0228514561
 11
97.564332845
 21
167.8654883285
  0
LINE
  5
323
100
AcDbEntity
  8
0
100
AcDbLine
 62
7
  6
BYLAYER
 10
93.183612889
 20
170.5605100061
 11
91.6097536954
 21
170.4433376223
  0
LINE
  5
324
100
AcDbEntity
  8
0
100
AcDbLine
 62
7
  6
BYLAYER
 10
99.5878628909
 20
171.02048543
 11
97.6969086005
 21
170.8748310567
  0
LINE
  5
325
100
AcDbEntity
  8
0
100
AcDbLine
 62
7
  6
BYLAYER
 10
97.5031142595
 20
164.8601783241
 11
99.2001612474
 21
164.9914241175
  0
LINE
  5
326
100
AcDbEntity
  8
0
100
AcDbLine
 62
7
  6
BYLAYER
 10
91.4853424467
 20
164.4336536682
 11
93.9929227607
 21
164.6177114546
  0
LINE
  5
327
100
AcDbEntity
  8
0
100
AcDbLine
 62
7
  6
BYLAYER
 10
97.9256538317
 20
164.8918767626
 11
93.1035806539
 21
164.5555172541
  0
LINE
  5
328
100
AcDbEntity
  8
0
100
AcDbLine
 62
7
  6
BYLAYER
 10
98.1381776322
 20
167.9062408473
 11
92.8839442222
 21
167.5395363882
  0
LINE
  5
329
100
AcDbEntity
  8
0
100
AcDbLine
 62
7
  6
BYLAYER
 10
93.155015618
 20
170.5592414742
 11
98.0885599424
 21
170.9028058178
  0
LWPOLYLINE
  5
32A
100
AcDbEntity
  8
0
100
AcDbPolyline
 62
7
  6
BYLAYER
 90
3
 70
0
 10
87.6175592498
 20
194.1283169987
 10
87.6680915277
 20
194.0778512093
 10
88.004852262
 20
193.9582304381
  0
LWPOLYLINE
  5
32B
100
AcDbEntity
  8
0
100
AcDbPolyline
 62
7
  6
BYLAYER
 90
3
 70
0
 10
87.6175592498
 20
191.1270816191
 10
87.6706593874
 20
191.0738101656
 10
88.0051392868
 20
190.9581534767
  0
LWPOLYLINE
  5
32C
100
AcDbEntity
  8
0
100
AcDbPolyline
 62
7
  6
BYLAYER
 90
5
 70
0
 10
101.703793704
 20
177.2831269751
 10
101.6404771119
 20
177.2682635995
 10
101.3076271886
 20
177.2109161538
 10
100.7457476835
 20
177.1387784382
 10
99.9875564944
 20
177.0606128717
  0
LWPOLYLINE
  5
32D
100
AcDbEntity
  8
0
100
AcDbPolyline
 62
7
  6
BYLAYER
 90
5
 70
0
 10
101.6954039591
 20
174.282175357
 10
101.4489855266
 20
174.2329200678
 10
100.9007572974
 20
174.1563877735
 10
100.0717052466
 20
174.0685231171
 10
98.9870259103
 20
173.9739040311
  0
LWPOLYLINE
  5
32E
100
AcDbEntity
  8
0
100
AcDbPolyline
 62
7
  6
BYLAYER
 90
4
 70
0
 10
88.9219042829
 20
173.1338722411
 10
89.175101134
 20
173.1841771169
 10
89.7195300679
 20
173.2600583871
 10
90.5151211878
 20
173.3449492337
  0
LWPOLYLINE
  5
32F
100
AcDbEntity
  8
0
100
AcDbPolyline
 62
7
  6
BYLAYER
 90
5
 70
0
 10
88.930188855
 20
176.1364516587
 10
89.1741640321
 20
176.1848955807
 10
89.7085598086
 20
176.2588309747
 10
90.488540901
 20
176.341995264
 10
91.4791587516
 20
176.4300151295
  0
LWPOLYLINE
  5
330
100
AcDbEntity
  8
0
100
AcDbPolyline
 62
7
  6
BYLAYER
 90
5
 70
0
 10
101.6913013788
 20
180.280033389
 10
101.4443555262
 20
180.2313809257
 10
100.8912190037
 20
180.1555128707
 10
100.0947407462
 20
180.0711165277
 10
99.0856270663
 20
179.9819222209
  0
LWPOLYLINE
  5
331
100
AcDbEntity
  8
0
100
AcDbPolyline
 62
7
  6
BYLAYER
 90
5
 70
0
 10
101.7496764168
 20
180.2516507138
 10
102.3773839965
 20
180.368533762
 10
102.9620074873
 20
180.5800027876
 10
103.6369436731
 20
181.2578948247
 10
103.8077116308
 20
181.9568552737
  0
LWPOLYLINE
  5
332
100
AcDbEntity
  8
0
100
AcDbPolyline
 62
7
  6
BYLAYER
 90
5
 70
0
 10
101.7206914807
 20
174.2473206933
 10
102.3703300053
 20
174.3666389807
 10
102.9933708104
 20
174.5973223436
 10
103.6482465358
 20
175.2826020153
 10
103.8065498494
 20
175.9567013908
  0
LWPOLYLINE
  5
333
100
AcDbEntity
  8
0
100
AcDbPolyline
 62
7
  6
BYLAYER
 90
5
 70
0
 10
101.6551697419
 20
177.2371150884
 10
102.3530941383
 20
177.3627212371
 10
102.9845831222
 20
177.5959240514
 10
103.6420938903
 20
178.2812299908
 10
103.8019252792
 20
178.9588267911
  0
LWPOLYLINE
  5
334
100
AcDbEntity
  8
0
100
AcDbPolyline
 62
7
  6
BYLAYER
 90
4
 70
0
 10
89.0146259788
 20
173.1858447839
 10
88.3301873099
 20
173.0687663452
 10
87.6903383385
 20
172.8526806064
 10
87.6175592498
 20
172.7820943613
  0
LWPOLYLINE
  5
335
100
AcDbEntity
  8
0
100
AcDbPolyline
 62
7
  6
BYLAYER
 90
4
 70
0
 10
89.3935846986
 20
176.2348143015
 10
88.5858977098
 20
176.1183959912
 10
87.9764426939
 20
175.9709427139
 10
87.6175592498
 20
175.762188743
  0
LINE
  5
336
100
AcDbEntity
  8
0
100
AcDbLine
 62
7
  6
BYLAYER
 10
100.9060426063
 20
180.1455099147
 11
101.7496764168
 21
180.2516507138
  0
LINE
  5
337
100
AcDbEntity
  8
0
100
AcDbLine
 62
7
  6
BYLAYER
 10
100.8254464358
 20
174.1369158351
 11
101.7206914807
 21
174.2473206933
  0
LINE
  5
338
100
AcDbEntity
  8
0
100
AcDbLine
 62
7
  6
BYLAYER
 10
89.9445415581
 20
173.2952629719
 11
89.0146259788
 21
173.1858447839
  0
LINE
  5
339
100
AcDbEntity
  8
0
100
AcDbLine
 62
7
  6
BYLAYER
 10
100.6325829106
 20
177.116890641
 11
101.6551697419
 21
177.2371150884
  0
LINE
  5
33A
100
AcDbEntity
  8
0
100
AcDbLine
 62
7
  6
BYLAYER
 10
99.7532386026
 20
180.0344392023
 11
100.9060426063
 21
180.1455099147
  0
LINE
  5
33B
100
AcDbEntity
  8
0
100
AcDbLine
 62
7
  6
BYLAYER
 10
99.5784872486
 20
174.0194776451
 11
100.8254464358
 21
174.1369158351
  0
LINE
  5
33C
100
AcDbEntity
  8
0
100
AcDbLine
 62
7
  6
BYLAYER
 10
89.9445415581
 20
173.2952629719
 11
91.5369892393
 21
173.4349207848
  0
LINE
  5
33D
100
AcDbEntity
  8
0
100
AcDbLine
 62
7
  6
BYLAYER
 10
100.6325829106
 20
177.116890641
 11
99.0503751943
 21
176.9787766501
  0
LWPOLYLINE
  5
33E
100
AcDbEntity
  8
0
100
AcDbPolyline
 62
7
  6
BYLAYER
 90
3
 70
0
 10
91.8447733462
 20
176.4618559451
 10
90.4991101768
 20
176.3493541439
 10
89.3935846986
 20
176.2348143015
  0
LINE
  5
33F
100
AcDbEntity
  8
0
100
AcDbLine
 62
7
  6
BYLAYER
 10
92.7449840376
 20
173.5284036803
 11
91.1813572231
 21
173.4087899104
  0
LINE
  5
340
100
AcDbEntity
  8
0
100
AcDbLine
 62
7
  6
BYLAYER
 10
99.5784872486
 20
174.0194776451
 11
97.6701883737
 21
173.87311421
  0
LINE
  5
341
100
AcDbEntity
  8
0
100
AcDbLine
 62
7
  6
BYLAYER
 10
97.7347944953
 20
176.8766924138
 11
99.2762036964
 21
176.9946358791
  0
LINE
  5
342
100
AcDbEntity
  8
0
100
AcDbLine
 62
7
  6
BYLAYER
 10
98.0372419003
 20
173.8988621009
 11
92.7231412763
 21
173.5280391556
  0
LINE
  5
343
100
AcDbEntity
  8
0
100
AcDbLine
 62
7
  6
BYLAYER
 10
97.9538694451
 20
176.8938520181
 11
91.4791587516
 21
176.4300151295
  0
LINE
  5
344
100
AcDbEntity
  8
0
100
AcDbLine
 62
7
  6
BYLAYER
 10
87.6175592498
 20
179.105477328
 11
88.0022934693
 21
178.9565092585
  0
LWPOLYLINE
  5
345
100
AcDbEntity
  8
0
100
AcDbPolyline
 62
7
  6
BYLAYER
 90
3
 70
0
 10
87.6175592498
 20
197.1326201133
 10
87.6845904419
 20
197.0664305633
 10
87.9867574164
 20
196.9639896518
  0
LWPOLYLINE
  5
346
100
AcDbEntity
  8
0
100
AcDbPolyline
 62
7
  6
BYLAYER
 90
3
 70
0
 10
87.6175592498
 20
206.1322623733
 10
87.68128872
 20
206.0691315361
 10
87.9838872617
 20
205.9650352905
  0
LWPOLYLINE
  5
347
100
AcDbEntity
  8
0
100
AcDbPolyline
 62
7
  6
BYLAYER
 90
3
 70
0
 10
87.6175592498
 20
200.1193986837
 10
87.6469734148
 20
200.0892643876
 10
88.0034788965
 20
199.9594662468
  0
LWPOLYLINE
  5
348
100
AcDbEntity
  8
0
100
AcDbPolyline
 62
7
  6
BYLAYER
 90
3
 70
0
 10
87.6175592498
 20
203.1127452297
 10
87.6347027839
 20
203.0949917212
 10
87.973191264
 20
202.968487914
  0
LWPOLYLINE
  5
349
100
AcDbEntity
  8
0
100
AcDbPolyline
 62
7
  6
BYLAYER
 90
6
 70
0
 10
88.9174085373
 20
185.1338672812
 10
88.9944707071
 20
185.1515275494
 10
89.3559339019
 20
185.2120550044
 10
89.9506643514
 20
185.2864244481
 10
90.7454846761
 20
185.3665003559
 10
91.7230264116
 20
185.4502140164
  0
LWPOLYLINE
  5
34A
100
AcDbEntity
  8
0
100
AcDbPolyline
 62
7
  6
BYLAYER
 90
4
 70
0
 10
101.70379374
 20
183.2833263942
 10
101.50633431
 20
183.2427495149
 10
101.0525973125
 20
183.1758265995
 10
100.3657517445
 20
183.097650279
  0
LWPOLYLINE
  5
34B
100
AcDbEntity
  8
0
100
AcDbPolyline
 62
7
  6
BYLAYER
 90
5
 70
0
 10
88.9290261893
 20
182.1361804997
 10
89.158375473
 20
182.1822650979
 10
89.6660941439
 20
182.2536808839
 10
90.403510872
 20
182.333721336
 10
91.3429340922
 20
182.418661318
  0
LWPOLYLINE
  5
34C
100
AcDbEntity
  8
0
100
AcDbPolyline
 62
7
  6
BYLAYER
 90
4
 70
0
 10
88.9194929454
 20
179.1335814916
 10
89.1595232953
 20
179.1815534039
 10
89.6797089062
 20
179.2550496395
 10
90.459417561
 20
179.3395693283
  0
LWPOLYLINE
  5
34D
100
AcDbEntity
  8
0
100
AcDbPolyline
 62
7
  6
BYLAYER
 90
4
 70
0
 10
101.6902121533
 20
186.2798914081
 10
101.4479297317
 20
186.2319599394
 10
100.9243334415
 20
186.1594133208
 10
100.1679100751
 20
186.0781548625
  0
LWPOLYLINE
  5
34E
100
AcDbEntity
  8
0
100
AcDbPolyline
 62
7
  6
BYLAYER
 90
4
 70
0
 10
88.9155161618
 20
179.1724346435
 10
88.247754037
 20
179.0487231365
 10
87.626852048
 20
178.8154645697
 10
87.6175592498
 20
178.8057375849
  0
LWPOLYLINE
  5
34F
100
AcDbEntity
  8
0
100
AcDbPolyline
 62
7
  6
BYLAYER
 90
4
 70
0
 10
88.9465967197
 20
185.1769320192
 10
88.2706016789
 20
185.0542952963
 10
87.6708382655
 20
184.839663596
 10
87.6175592498
 20
184.7871359042
  0
LWPOLYLINE
  5
350
100
AcDbEntity
  8
0
100
AcDbPolyline
 62
7
  6
BYLAYER
 90
5
 70
0
 10
101.6651572943
 20
183.2384882284
 10
102.3333539912
 20
183.3581957714
 10
102.9610966011
 20
183.5831509646
 10
103.6370507087
 20
184.2704934959
 10
103.8023731691
 20
184.9591529262
  0
LWPOLYLINE
  5
351
100
AcDbEntity
  8
0
100
AcDbPolyline
 62
7
  6
BYLAYER
 90
6
 70
0
 10
101.3146106475
 20
186.1925408889
 10
102.0632128969
 20
186.303407078
 10
102.6572175551
 20
186.450113933
 10
103.3451230443
 20
186.8589305094
 10
103.7999070294
 20
187.7877730732
 10
103.8099050561
 20
187.958787667
  0
LWPOLYLINE
  5
352
100
AcDbEntity
  8
0
100
AcDbPolyline
 62
7
  6
BYLAYER
 90
5
 70
0
 10
89.7615624445
 20
182.2764352701
 10
88.9112380698
 20
182.1709442539
 10
88.2815048939
 20
182.0567221986
 10
87.6748157787
 20
181.8449237577
 10
87.6175592498
 20
181.7890756131
  0
LINE
  5
353
100
AcDbEntity
  8
0
100
AcDbLine
 62
7
  6
BYLAYER
 10
89.8471552025
 20
179.285416916
 11
88.9155161618
 21
179.1724346435
  0
LINE
  5
354
100
AcDbEntity
  8
0
100
AcDbLine
 62
7
  6
BYLAYER
 10
100.7533166713
 20
183.1292179928
 11
101.6651572943
 21
183.2384882284
  0
LINE
  5
355
100
AcDbEntity
  8
0
100
AcDbLine
 62
7
  6
BYLAYER
 10
90.8876026586
 20
182.3839057509
 11
89.7615624445
 21
182.2764352701
  0
LINE
  5
356
100
AcDbEntity
  8
0
100
AcDbLine
 62
7
  6
BYLAYER
 10
100.7533166713
 20
183.1292179928
 11
99.4470069682
 21
183.011992859
  0
LWPOLYLINE
  5
357
100
AcDbEntity
  8
0
100
AcDbPolyline
 62
7
  6
BYLAYER
 90
3
 70
0
 10
91.1141084931
 20
185.4028439125
 10
89.8996297342
 20
185.2908619225
 10
88.9465967197
 20
185.1769320192
  0
LINE
  5
358
100
AcDbEntity
  8
0
100
AcDbLine
 62
7
  6
BYLAYER
 10
89.8471552025
 20
179.285416916
 11
91.4837303471
 21
179.4306245954
  0
LWPOLYLINE
  5
359
100
AcDbEntity
  8
0
100
AcDbPolyline
 62
7
  6
BYLAYER
 90
3
 70
0
 10
99.0709848181
 20
185.9779643414
 10
100.3090571261
 20
186.0847331206
 10
101.3146106475
 20
186.1925408889
  0
LINE
  5
35A
100
AcDbEntity
  8
0
100
AcDbLine
 62
7
  6
BYLAYER
 10
90.8876026586
 20
182.3839057509
 11
92.4684908173
 21
182.5079632917
  0
LINE
  5
35B
100
AcDbEntity
  8
0
100
AcDbLine
 62
7
  6
BYLAYER
 10
98.2120411327
 20
182.9117405522
 11
99.5831329736
 21
183.0202312013
  0
LINE
  5
35C
100
AcDbEntity
  8
0
100
AcDbLine
 62
7
  6
BYLAYER
 10
99.7532386026
 20
180.0344392023
 11
97.8888939094
 21
179.8889330989
  0
LINE
  5
35D
100
AcDbEntity
  8
0
100
AcDbLine
 62
7
  6
BYLAYER
 10
91.1128013214
 20
179.4027176731
 11
92.7222081957
 21
179.5267500533
  0
LINE
  5
35E
100
AcDbEntity
  8
0
100
AcDbLine
 62
7
  6
BYLAYER
 10
91.1141084931
 20
185.4028439125
 11
92.8665131626
 21
185.5374692111
  0
LINE
  5
35F
100
AcDbEntity
  8
0
100
AcDbLine
 62
7
  6
BYLAYER
 10
97.6929492501
 20
185.87391766
 11
99.2148510066
 21
185.9926537558
  0
LINE
  5
360
100
AcDbEntity
  8
0
100
AcDbLine
 62
7
  6
BYLAYER
 10
98.3007518396
 20
182.9199056742
 11
94.7649913306
 21
182.6708251471
  0
LINE
  5
361
100
AcDbEntity
  8
0
100
AcDbLine
 62
7
  6
BYLAYER
 10
92.6381219371
 20
179.5217979809
 11
98.2739141469
 21
179.916425775
  0
LINE
  5
362
100
AcDbEntity
  8
0
100
AcDbLine
 62
7
  6
BYLAYER
 10
92.27108518
 20
182.4944379098
 11
95.4982053603
 21
182.7212325935
  0
LINE
  5
363
100
AcDbEntity
  8
0
100
AcDbLine
 62
7
  6
BYLAYER
 10
98.0899461751
 20
185.9039197178
 11
92.4945311659
 21
185.5112105991
  0
LWPOLYLINE
  5
364
100
AcDbEntity
  8
0
100
AcDbPolyline
 62
7
  6
BYLAYER
 90
3
 70
0
 10
87.6175592498
 20
215.1327152522
 10
87.6797438349
 20
215.0710336373
 10
88.0043404931
 20
214.9582530964
  0
LWPOLYLINE
  5
365
100
AcDbEntity
  8
0
100
AcDbPolyline
 62
7
  6
BYLAYER
 90
3
 70
0
 10
87.6175592498
 20
218.1227460048
 10
87.6597567379
 20
218.0804579477
 10
88.0086751268
 20
217.955890451
  0
LWPOLYLINE
  5
366
100
AcDbEntity
  8
0
100
AcDbPolyline
 62
7
  6
BYLAYER
 90
3
 70
0
 10
87.6175592498
 20
209.1146602477
 10
87.6386647013
 20
209.0929816223
 10
88.0029442897
 20
208.9590960897
  0
LWPOLYLINE
  5
367
100
AcDbEntity
  8
0
100
AcDbPolyline
 62
7
  6
BYLAYER
 90
8
 70
0
 10
103.5579991613
 20
224.7803171399
 10
103.5354334378
 20
224.8213791924
 10
103.4452060255
 20
224.9977331338
 10
103.3017803005
 20
225.2970328837
 10
103.0843036706
 20
225.7825831904
 10
102.7899453814
 20
226.4986396378
 10
102.4286594089
 20
227.4946173169
 10
102.2238485081
 20
228.2082803319
  0
LINE
  5
368
100
AcDbEntity
  8
0
100
AcDbLine
 62
7
  6
BYLAYER
 10
103.8122794292
 20
190.9569528129
 11
102.6666895161
 21
190.7083129163
  0
LWPOLYLINE
  5
369
100
AcDbEntity
  8
0
100
AcDbPolyline
 62
7
  6
BYLAYER
 90
4
 70
0
 10
88.9260195338
 20
188.1348445638
 10
89.1719535372
 20
188.1840321567
 10
89.7060190909
 20
188.2586663476
 10
90.4873149493
 20
188.3421190997
  0
LWPOLYLINE
  5
36A
100
AcDbEntity
  8
0
100
AcDbPolyline
 62
7
  6
BYLAYER
 90
4
 70
0
 10
88.9199886716
 20
194.1346215691
 10
89.1665406696
 20
194.1830177599
 10
89.6661647309
 20
194.2531784731
 10
90.3996319501
 20
194.3334617783
  0
LWPOLYLINE
  5
36B
100
AcDbEntity
  8
0
100
AcDbPolyline
 62
7
  6
BYLAYER
 90
5
 70
0
 10
101.691580824
 20
195.2799313276
 10
101.4413043317
 20
195.230911898
 10
100.8894853554
 20
195.155343901
 10
100.0700219484
 20
195.068715206
 10
99.0040161775
 20
194.9751645585
  0
LWPOLYLINE
  5
36C
100
AcDbEntity
  8
0
100
AcDbPolyline
 62
7
  6
BYLAYER
 90
5
 70
0
 10
88.929563316
 20
191.1360290513
 10
89.2184919528
 20
191.1919192414
 10
89.8277589382
 20
191.2729745
 10
90.7100916804
 20
191.3630240526
 10
91.8225151832
 20
191.4578852081
  0
LWPOLYLINE
  5
36D
100
AcDbEntity
  8
0
100
AcDbPolyline
 62
7
  6
BYLAYER
 90
4
 70
0
 10
88.9103204066
 20
191.1712810934
 10
88.2543419942
 20
191.0498512929
 10
87.6394523685
 20
190.823593575
 10
87.6175592498
 20
190.8011459464
  0
LWPOLYLINE
  5
36E
100
AcDbEntity
  8
0
100
AcDbPolyline
 62
7
  6
BYLAYER
 90
5
 70
0
 10
101.6890597446
 20
192.242001207
 10
102.3543085491
 20
192.3628470746
 10
102.9760813344
 20
192.5908013522
 10
103.6442706314
 20
193.2845694408
 10
103.8023733468
 20
193.9585937553
  0
LWPOLYLINE
  5
36F
100
AcDbEntity
  8
0
100
AcDbPolyline
 62
7
  6
BYLAYER
 90
5
 70
0
 10
101.6796878372
 20
195.2413105428
 10
102.3434494658
 20
195.3611159478
 10
102.9523175369
 20
195.5757379647
 10
103.6380601995
 20
196.2575670985
 10
103.8099436233
 20
196.9584280195
  0
LWPOLYLINE
  5
370
100
AcDbEntity
  8
0
100
AcDbPolyline
 62
7
  6
BYLAYER
 90
4
 70
0
 10
88.9679544493
 20
188.1792093582
 10
88.2925984967
 20
188.0600840311
 10
87.6732959915
 20
187.8444381784
 10
87.6175592498
 20
187.7895019656
  0
LWPOLYLINE
  5
371
100
AcDbEntity
  8
0
100
AcDbPolyline
 62
7
  6
BYLAYER
 90
6
 70
0
 10
101.5106802857
 20
189.2177366461
 10
102.0716903323
 20
189.3041051991
 10
102.6642511706
 20
189.4507853111
 10
102.9885196905
 20
189.5931466164
 10
103.6524355566
 20
190.280709859
 10
103.812280851
 20
190.9574871906
  0
LINE
  5
372
100
AcDbEntity
  8
0
100
AcDbLine
 62
7
  6
BYLAYER
 10
101.5107126953
 20
189.217740943
 11
101.5118167241
 21
189.2178873818
  0
LINE
  5
373
100
AcDbEntity
  8
0
100
AcDbLine
 62
7
  6
BYLAYER
 10
89.8278027984
 20
191.2836477126
 11
88.9103204066
 21
191.1712810934
  0
LINE
  5
374
100
AcDbEntity
  8
0
100
AcDbLine
 62
7
  6
BYLAYER
 10
100.7538931666
 20
192.129347766
 11
101.6890597446
 21
192.242001207
  0
LINE
  5
375
100
AcDbEntity
  8
0
100
AcDbLine
 62
7
  6
BYLAYER
 10
89.8953709097
 20
188.2902819827
 11
88.9679544493
 21
188.1792093582
  0
LINE
  5
376
100
AcDbEntity
  8
0
100
AcDbLine
 62
7
  6
BYLAYER
 10
101.0551457765
 20
189.1758707705
 11
100.3715335131
 21
189.0980056284
  0
LINE
  5
377
100
AcDbEntity
  8
0
100
AcDbLine
 62
7
  6
BYLAYER
 10
101.2153255006
 20
192.1973473327
 11
100.0372943861
 21
192.0651852434
  0
LINE
  5
378
100
AcDbEntity
  8
0
100
AcDbLine
 62
7
  6
BYLAYER
 10
91.0576642754
 20
191.3981736187
 11
89.8278027984
 21
191.2836477126
  0
LWPOLYLINE
  5
379
100
AcDbEntity
  8
0
100
AcDbPolyline
 62
7
  6
BYLAYER
 90
3
 70
0
 10
99.5429650898
 20
195.0165732538
 10
100.7743570621
 20
195.1311055727
 10
101.6796878372
 20
195.2413105428
  0
LWPOLYLINE
  5
37A
100
AcDbEntity
  8
0
100
AcDbPolyline
 62
7
  6
BYLAYER
 90
3
 70
0
 10
99.2625901966
 20
188.993337673
 10
100.5945918657
 20
189.113150103
 10
101.5118167241
 20
189.2178873818
  0
LINE
  5
37B
100
AcDbEntity
  8
0
100
AcDbLine
 62
7
  6
BYLAYER
 10
89.8953709097
 20
188.2902819827
 11
91.4841162402
 21
188.4304540239
  0
LINE
  5
37C
100
AcDbEntity
  8
0
100
AcDbLine
 62
7
  6
BYLAYER
 10
100.0372943861
 20
192.0651852434
 11
98.2599944218
 21
191.9165575948
  0
LWPOLYLINE
  5
37D
100
AcDbEntity
  8
0
100
AcDbPolyline
 62
7
  6
BYLAYER
 90
3
 70
0
 10
97.8787666927
 20
191.887143668
 10
99.4604900597
 20
192.0098268981
 10
100.7538931666
 20
192.129347766
  0
LINE
  5
37E
100
AcDbEntity
  8
0
100
AcDbLine
 62
7
  6
BYLAYER
 10
97.7806582289
 20
188.8800295003
 11
99.4720944064
 21
189.0142722638
  0
LINE
  5
37F
100
AcDbEntity
  8
0
100
AcDbLine
 62
7
  6
BYLAYER
 10
91.0576642754
 20
191.3981736187
 11
93.052829673
 21
191.5508731794
  0
LINE
  5
380
100
AcDbEntity
  8
0
100
AcDbLine
 62
7
  6
BYLAYER
 10
91.1216035619
 20
188.4038425679
 11
93.3262772118
 21
188.5707298059
  0
LINE
  5
381
100
AcDbEntity
  8
0
100
AcDbLine
 62
7
  6
BYLAYER
 10
98.378350596
 20
188.9259562288
 11
92.5900538336
 21
188.5182474628
  0
LINE
  5
382
100
AcDbEntity
  8
0
100
AcDbLine
 62
7
  6
BYLAYER
 10
98.2599944218
 20
191.9165575948
 11
92.5875346603
 21
191.5179419577
  0
LWPOLYLINE
  5
383
100
AcDbEntity
  8
0
100
AcDbPolyline
 62
7
  6
BYLAYER
 90
3
 70
0
 10
87.6175592498
 20
221.1214147093
 10
87.6531842661
 20
221.085008888
 10
88.0046057472
 20
220.9582795344
  0
LWPOLYLINE
  5
384
100
AcDbEntity
  8
0
100
AcDbPolyline
 62
7
  6
BYLAYER
 90
6
 70
0
 10
101.7005069757
 20
198.2831308287
 10
101.6336799775
 20
198.2673726736
 10
101.2954856103
 20
198.2090146185
 10
100.725734706
 20
198.1360956741
 10
99.9506936991
 20
198.0570344474
 10
98.9977654011
 20
197.9746688437
  0
LWPOLYLINE
  5
385
100
AcDbEntity
  8
0
100
AcDbPolyline
 62
7
  6
BYLAYER
 90
5
 70
0
 10
101.6912920586
 20
204.2803515335
 10
101.6910881767
 20
204.2803041912
 10
101.4935225951
 20
204.2397264748
 10
101.0113659539
 20
204.1700374952
 10
100.2877580458
 20
204.0899221773
  0
LWPOLYLINE
  5
386
100
AcDbEntity
  8
0
100
AcDbPolyline
 62
7
  6
BYLAYER
 90
5
 70
0
 10
88.9269798685
 20
197.1352716082
 10
89.1413490091
 20
197.1790754558
 10
89.6268606437
 20
197.2489548855
 10
90.3396474355
 20
197.3275560046
 10
91.2549426154
 20
197.4112371468
  0
LWPOLYLINE
  5
387
100
AcDbEntity
  8
0
100
AcDbPolyline
 62
7
  6
BYLAYER
 90
4
 70
0
 10
88.8967379928
 20
200.1694865353
 10
88.2522970679
 20
200.0495311929
 10
87.6646205951
 20
199.8368093906
 10
87.6175592498
 20
199.7901724273
  0
LWPOLYLINE
  5
388
100
AcDbEntity
  8
0
100
AcDbPolyline
 62
7
  6
BYLAYER
 90
4
 70
0
 10
88.9678412967
 20
194.1798535346
 10
88.2903803887
 20
194.0586489244
 10
87.6751404534
 20
193.8422728227
 10
87.6175592498
 20
193.7855948245
  0
LWPOLYLINE
  5
389
100
AcDbEntity
  8
0
100
AcDbPolyline
 62
7
  6
BYLAYER
 90
5
 70
0
 10
101.631274857
 20
201.2336702349
 10
102.3338944456
 20
201.3584877318
 10
102.9639052527
 20
201.5846614448
 10
103.6404119058
 20
202.2760103862
 10
103.8031790506
 20
202.9594753682
  0
LWPOLYLINE
  5
38A
100
AcDbEntity
  8
0
100
AcDbPolyline
 62
7
  6
BYLAYER
 90
5
 70
0
 10
101.6410667254
 20
198.2352094976
 10
102.3181633652
 20
198.3542990661
 10
102.9502908791
 20
198.5767323266
 10
103.6341964273
 20
199.2641565592
 10
103.8023646557
 20
199.9584778425
  0
LWPOLYLINE
  5
38B
100
AcDbEntity
  8
0
100
AcDbPolyline
 62
7
  6
BYLAYER
 90
4
 70
0
 10
89.4897650525
 20
197.2458132975
 10
88.6655717313
 20
197.1327530681
 10
88.0393197834
 20
196.9928115998
 10
87.6175592498
 20
196.7615442338
  0
LINE
  5
38C
100
AcDbEntity
  8
0
100
AcDbLine
 62
7
  6
BYLAYER
 10
89.7624513961
 20
200.2766510435
 11
88.8967379928
 21
200.1694865353
  0
LINE
  5
38D
100
AcDbEntity
  8
0
100
AcDbLine
 62
7
  6
BYLAYER
 10
89.9423341783
 20
194.295392042
 11
88.9678412967
 21
194.1798535346
  0
LINE
  5
38E
100
AcDbEntity
  8
0
100
AcDbLine
 62
7
  6
BYLAYER
 10
90.0417080309
 20
200.296515177
 11
90.0411192853
 21
200.2964516964
  0
LINE
  5
38F
100
AcDbEntity
  8
0
100
AcDbLine
 62
7
  6
BYLAYER
 10
90.5727741469
 20
197.3559623334
 11
89.4897650525
 21
197.2458132975
  0
LINE
  5
390
100
AcDbEntity
  8
0
100
AcDbLine
 62
7
  6
BYLAYER
 10
90.8880298908
 20
200.3836398115
 11
89.7624513961
 21
200.2766510435
  0
LWPOLYLINE
  5
391
100
AcDbEntity
  8
0
100
AcDbPolyline
 62
7
  6
BYLAYER
 90
3
 70
0
 10
99.5233502394
 20
198.0150931909
 10
100.7145897193
 20
198.1252884867
 10
101.6410667254
 20
198.2352094976
  0
LINE
  5
392
100
AcDbEntity
  8
0
100
AcDbLine
 62
7
  6
BYLAYER
 10
90.041730498
 20
200.2965175933
 11
91.5448562017
 21
200.4354421732
  0
LINE
  5
393
100
AcDbEntity
  8
0
100
AcDbLine
 62
7
  6
BYLAYER
 10
89.9423341783
 20
194.295392042
 11
91.3654760662
 21
194.4209059618
  0
LINE
  5
394
100
AcDbEntity
  8
0
100
AcDbLine
 62
7
  6
BYLAYER
 10
92.2241076046
 20
200.4908900734
 11
90.8880298908
 21
200.3836398115
  0
LINE
  5
395
100
AcDbEntity
  8
0
100
AcDbLine
 62
7
  6
BYLAYER
 10
90.5727741469
 20
197.3559623334
 11
92.3550432917
 21
197.4992912889
  0
LINE
  5
396
100
AcDbEntity
  8
0
100
AcDbLine
 62
7
  6
BYLAYER
 10
99.5233502394
 20
198.0150931909
 11
97.8913093785
 21
197.8893467201
  0
LINE
  5
397
100
AcDbEntity
  8
0
100
AcDbLine
 62
7
  6
BYLAYER
 10
99.5429650898
 20
195.0165732538
 11
97.7191712133
 21
194.8764529145
  0
LINE
  5
398
100
AcDbEntity
  8
0
100
AcDbLine
 62
7
  6
BYLAYER
 10
92.904424796
 20
194.5411639559
 11
91.2856292894
 21
194.4171177961
  0
LWPOLYLINE
  5
399
100
AcDbEntity
  8
0
100
AcDbPolyline
 62
7
  6
BYLAYER
 90
4
 70
0
 10
97.5977191356
 20
200.8668289023
 10
99.2791730653
 20
200.9948926682
 10
100.6292997992
 20
201.1164379518
 10
101.631274857
 20
201.2336702349
  0
LINE
  5
39A
100
AcDbEntity
  8
0
100
AcDbLine
 62
7
  6
BYLAYER
 10
91.8403795938
 20
197.4617334717
 11
93.6280713162
 21
197.5922479253
  0
LINE
  5
39B
100
AcDbEntity
  8
0
100
AcDbLine
 62
7
  6
BYLAYER
 10
93.6837367037
 20
200.5965529629
 11
91.5448562017
 21
200.4354421732
  0
LINE
  5
39C
100
AcDbEntity
  8
0
100
AcDbLine
 62
7
  6
BYLAYER
 10
93.5773948464
 20
200.5887045599
 11
97.5977191356
 21
200.8668289023
  0
LINE
  5
39D
100
AcDbEntity
  8
0
100
AcDbLine
 62
7
  6
BYLAYER
 10
92.5594926825
 20
194.5147983244
 11
98.0241323155
 21
194.8980306605
  0
LINE
  5
39E
100
AcDbEntity
  8
0
100
AcDbLine
 62
7
  6
BYLAYER
 10
98.1182330002
 20
197.9047247841
 11
93.2126458334
 21
197.563199405
  0
LWPOLYLINE
  5
39F
100
AcDbEntity
  8
0
100
AcDbPolyline
 62
7
  6
BYLAYER
 90
3
 70
0
 10
87.6175592498
 20
212.1544173676
 10
87.9564869332
 20
211.9524008139
 10
87.9712570607
 20
211.9486994267
  0
LWPOLYLINE
  5
3A0
100
AcDbEntity
  8
0
100
AcDbPolyline
 62
7
  6
BYLAYER
 90
6
 70
0
 10
101.7027998725
 20
207.283304333
 10
101.6332260073
 20
207.2670442202
 10
101.2865085969
 20
207.2077942099
 10
100.706069167
 20
207.1340594576
 10
99.9254723018
 20
207.0546729885
 10
98.9658025139
 20
206.9719863577
  0
LWPOLYLINE
  5
3A1
100
AcDbEntity
  8
0
100
AcDbPolyline
 62
7
  6
BYLAYER
 90
4
 70
0
 10
88.9171237904
 20
209.1334861667
 10
89.14869067
 20
209.1798595169
 10
89.6505311058
 20
209.2513012072
 10
90.3773475074
 20
209.3313833785
  0
LWPOLYLINE
  5
3A2
100
AcDbEntity
  8
0
100
AcDbPolyline
 62
7
  6
BYLAYER
 90
5
 70
0
 10
101.691434703
 20
210.2803187041
 10
101.4571962678
 20
210.2335117287
 10
100.9226315166
 20
210.1591612799
 10
100.151017606
 20
210.0764829662
 10
99.1703503903
 20
209.9889431965
  0
LWPOLYLINE
  5
3A3
100
AcDbEntity
  8
0
100
AcDbPolyline
 62
7
  6
BYLAYER
 90
4
 70
0
 10
88.7947210549
 20
203.1537628162
 10
88.1914816092
 20
203.0357612504
 10
87.9114577012
 20
202.9494626899
 10
87.6175592498
 20
202.7623130842
  0
LWPOLYLINE
  5
3A4
100
AcDbEntity
  8
0
100
AcDbPolyline
 62
7
  6
BYLAYER
 90
3
 70
0
 10
88.9317389987
 20
206.1369291119
 10
89.2378920751
 20
206.1951558643
 10
89.8732489834
 20
206.2780371358
  0
LWPOLYLINE
  5
3A5
100
AcDbEntity
  8
0
100
AcDbPolyline
 62
7
  6
BYLAYER
 90
4
 70
0
 10
88.9059664671
 20
209.1710356534
 10
88.256181003
 20
209.0508286189
 10
87.6648049331
 20
208.8366084061
 10
87.6175592498
 20
208.7896495158
  0
LWPOLYLINE
  5
3A6
100
AcDbEntity
  8
0
100
AcDbPolyline
 62
7
  6
BYLAYER
 90
5
 70
0
 10
101.7159489612
 20
210.2466674271
 10
102.3658951118
 20
210.366094573
 10
102.9813479044
 20
210.5906021523
 10
103.6468255717
 20
211.2752834315
 10
103.8091738083
 20
211.9573588522
  0
LWPOLYLINE
  5
3A7
100
AcDbEntity
  8
0
100
AcDbPolyline
 62
7
  6
BYLAYER
 90
5
 70
0
 10
101.6992153648
 20
207.2433686034
 10
102.3430536486
 20
207.3605697997
 10
102.9516539393
 20
207.5780514768
 10
103.6335075133
 20
208.2625138305
 10
103.8029790649
 20
208.9593716069
  0
LWPOLYLINE
  5
3A8
100
AcDbEntity
  8
0
100
AcDbPolyline
 62
7
  6
BYLAYER
 90
5
 70
0
 10
101.62684857
 20
204.2338539004
 10
102.3117494192
 20
204.3534313966
 10
102.9385015596
 20
204.5678029963
 10
103.6359708673
 20
205.2541857993
 10
103.808882109
 20
205.957226046
  0
LWPOLYLINE
  5
3A9
100
AcDbEntity
  8
0
100
AcDbPolyline
 62
7
  6
BYLAYER
 90
4
 70
0
 10
89.4739660426
 20
206.2440649801
 10
88.6390953848
 20
206.1279947194
 10
88.0268975288
 20
205.988567186
 10
87.6175592498
 20
205.7646089019
  0
LINE
  5
3AA
100
AcDbEntity
  8
0
100
AcDbLine
 62
7
  6
BYLAYER
 10
89.5956104481
 20
203.2580376721
 11
88.7947210549
 21
203.1537628162
  0
LINE
  5
3AB
100
AcDbEntity
  8
0
100
AcDbLine
 62
7
  6
BYLAYER
 10
100.8067610005
 20
210.1346765963
 11
101.7159489612
 21
210.2466674271
  0
LINE
  5
3AC
100
AcDbEntity
  8
0
100
AcDbLine
 62
7
  6
BYLAYER
 10
89.7790404936
 20
209.2782606283
 11
88.9124149565
 21
209.1718276127
  0
LINE
  5
3AD
100
AcDbEntity
  8
0
100
AcDbLine
 62
7
  6
BYLAYER
 10
100.6987198335
 20
204.1233832932
 11
101.62684857
 21
204.2338539004
  0
LINE
  5
3AE
100
AcDbEntity
  8
0
100
AcDbLine
 62
7
  6
BYLAYER
 10
89.8631292301
 20
203.2870360467
 11
89.5956104481
 21
203.2580376721
  0
LINE
  5
3AF
100
AcDbEntity
  8
0
100
AcDbLine
 62
7
  6
BYLAYER
 10
89.4739660426
 20
206.2440649801
 11
90.7895830831
 21
206.3702570042
  0
LWPOLYLINE
  5
3B0
100
AcDbEntity
  8
0
100
AcDbPolyline
 62
7
  6
BYLAYER
 90
3
 70
0
 10
99.599946376
 20
207.0216514949
 10
100.794973363
 20
207.1335287069
 10
101.6992153648
 20
207.2433686034
  0
LINE
  5
3B1
100
AcDbEntity
  8
0
100
AcDbLine
 62
7
  6
BYLAYER
 10
99.5710159591
 20
210.0188646727
 11
100.8067610005
 21
210.1346765963
  0
LINE
  5
3B2
100
AcDbEntity
  8
0
100
AcDbLine
 62
7
  6
BYLAYER
 10
89.8627590161
 20
203.2869972587
 11
91.184393606
 21
203.4055445745
  0
LINE
  5
3B3
100
AcDbEntity
  8
0
100
AcDbLine
 62
7
  6
BYLAYER
 10
100.6987198335
 20
204.1233832932
 11
99.3476262576
 21
204.0038463616
  0
LINE
  5
3B4
100
AcDbEntity
  8
0
100
AcDbLine
 62
7
  6
BYLAYER
 10
91.9535909315
 20
206.4683224202
 11
90.6115565331
 21
206.3595839656
  0
LINE
  5
3B5
100
AcDbEntity
  8
0
100
AcDbLine
 62
7
  6
BYLAYER
 10
92.3128781016
 20
203.4978667387
 11
90.8704380785
 21
203.3823275987
  0
LINE
  5
3B6
100
AcDbEntity
  8
0
100
AcDbLine
 62
7
  6
BYLAYER
 10
99.5710159591
 20
210.0188646727
 11
97.9982121179
 21
209.8970691219
  0
LINE
  5
3B7
100
AcDbEntity
  8
0
100
AcDbLine
 62
7
  6
BYLAYER
 10
98.0911131852
 20
203.9029144821
 11
99.4998019142
 21
204.0128668663
  0
LINE
  5
3B8
100
AcDbEntity
  8
0
100
AcDbLine
 62
7
  6
BYLAYER
 10
99.599946376
 20
207.0216514949
 11
97.8565643018
 21
206.8867459775
  0
LINE
  5
3B9
100
AcDbEntity
  8
0
100
AcDbLine
 62
7
  6
BYLAYER
 10
93.3308789603
 20
206.5711722459
 11
91.9304373918
 21
206.4686223927
  0
LINE
  5
3BA
100
AcDbEntity
  8
0
100
AcDbLine
 62
7
  6
BYLAYER
 10
92.297180343
 20
203.4949573575
 11
94.9941968285
 21
203.6866459096
  0
LINE
  5
3BB
100
AcDbEntity
  8
0
100
AcDbLine
 62
7
  6
BYLAYER
 10
98.2019856784
 20
203.912384015
 11
93.8546750066
 21
203.6085681441
  0
LINE
  5
3BC
100
AcDbEntity
  8
0
100
AcDbLine
 62
7
  6
BYLAYER
 10
98.1386441486
 20
206.9062905558
 11
93.2977415357
 21
206.5691932591
  0
LWPOLYLINE
  5
3BD
100
AcDbEntity
  8
0
100
AcDbPolyline
 62
7
  6
BYLAYER
 90
5
 70
0
 10
101.7021141581
 20
216.2826461205
 10
101.4372358401
 20
216.2309595325
 10
100.8817281771
 20
216.1546210424
 10
100.0819025343
 20
216.0695592428
 10
99.0465958583
 20
215.9784782383
  0
LWPOLYLINE
  5
3BE
100
AcDbEntity
  8
0
100
AcDbPolyline
 62
7
  6
BYLAYER
 90
5
 70
0
 10
101.781550434
 20
213.2563448812
 10
102.4110157961
 20
213.3766000439
 10
103.0236467719
 20
213.6146567838
 10
103.6579239269
 20
214.3025820833
 10
103.8066878121
 20
214.9567840948
  0
LWPOLYLINE
  5
3BF
100
AcDbEntity
  8
0
100
AcDbPolyline
 62
7
  6
BYLAYER
 90
4
 70
0
 10
101.6902021656
 20
219.2804053198
 10
101.3788041564
 20
219.2209924275
 10
100.7125371795
 20
219.1345928378
 10
99.7407571255
 20
219.0381622655
  0
LWPOLYLINE
  5
3C0
100
AcDbEntity
  8
0
100
AcDbPolyline
 62
7
  6
BYLAYER
 90
5
 70
0
 10
101.7191997088
 20
219.2470724616
 10
102.3553896764
 20
219.3631322063
 10
102.9695473192
 20
219.5841354476
 10
103.6440926998
 20
220.2732657627
 10
103.8070695659
 20
220.9568188519
  0
LWPOLYLINE
  5
3C1
100
AcDbEntity
  8
0
100
AcDbPolyline
 62
7
  6
BYLAYER
 90
4
 70
0
 10
88.973982495
 20
215.1800712004
 10
88.2903748148
 20
215.0588137285
 10
87.6602642764
 20
214.8372867676
 10
87.6175592498
 20
214.795589704
  0
LWPOLYLINE
  5
3C2
100
AcDbEntity
  8
0
100
AcDbPolyline
 62
7
  6
BYLAYER
 90
4
 70
0
 10
88.9730286344
 20
212.1798852188
 10
88.2956900878
 20
212.0604975247
 10
87.6810582772
 20
211.8486982882
 10
87.6175592498
 20
211.7867833965
  0
LWPOLYLINE
  5
3C3
100
AcDbEntity
  8
0
100
AcDbPolyline
 62
7
  6
BYLAYER
 90
6
 70
0
 10
101.1631315844
 20
216.1740156639
 10
102.0032495071
 20
216.2920084119
 10
102.6183427112
 20
216.4378581361
 10
103.3150780891
 20
216.835294139
 10
103.7935234502
 20
217.7788017824
 10
103.8047267025
 20
217.9600209869
  0
LINE
  5
3C4
100
AcDbEntity
  8
0
100
AcDbLine
 62
7
  6
BYLAYER
 10
100.9501634402
 20
213.1503781847
 11
101.781550434
 21
213.2563448812
  0
LINE
  5
3C5
100
AcDbEntity
  8
0
100
AcDbLine
 62
7
  6
BYLAYER
 10
89.7790404936
 20
209.2782606283
 11
91.3104168454
 21
209.4162626491
  0
LWPOLYLINE
  5
3C6
100
AcDbEntity
  8
0
100
AcDbPolyline
 62
7
  6
BYLAYER
 90
3
 70
0
 10
98.4962675018
 20
215.933258026
 10
99.9809726311
 20
216.0548576739
 10
101.1631315844
 20
216.1740156639
  0
LWPOLYLINE
  5
3C7
100
AcDbEntity
  8
0
100
AcDbPolyline
 62
7
  6
BYLAYER
 90
3
 70
0
 10
98.4430940537
 20
212.9290947244
 10
99.834692548
 20
213.0415736617
 10
100.9501634402
 20
213.1503781847
  0
LINE
  5
3C8
100
AcDbEntity
  8
0
100
AcDbLine
 62
7
  6
BYLAYER
 10
90.9086356119
 20
209.3853705516
 11
92.4255921458
 21
209.5046933392
  0
LWPOLYLINE
  5
3C9
100
AcDbEntity
  8
0
100
AcDbPolyline
 62
7
  6
BYLAYER
 90
4
 70
0
 10
92.565966676
 20
212.5164167793
 10
91.1177494277
 20
212.4035191055
 10
89.9011778538
 20
212.2910239852
 10
88.9730286344
 20
212.1798852188
  0
LINE
  5
3CA
100
AcDbEntity
  8
0
100
AcDbLine
 62
7
  6
BYLAYER
 10
99.0465958583
 20
215.9784782383
 11
97.7888096119
 21
215.8817031532
  0
LWPOLYLINE
  5
3CB
100
AcDbEntity
  8
0
100
AcDbPolyline
 62
7
  6
BYLAYER
 90
4
 70
0
 10
92.8228884843
 20
215.5351223178
 10
91.2336990498
 20
215.4130744108
 10
89.935322986
 20
215.2947564758
 10
88.973982495
 20
215.1800712004
  0
LINE
  5
3CC
100
AcDbEntity
  8
0
100
AcDbLine
 62
7
  6
BYLAYER
 10
98.0942421308
 20
209.9031550234
 11
92.2471278533
 21
209.4927120348
  0
LINE
  5
3CD
100
AcDbEntity
  8
0
100
AcDbLine
 62
7
  6
BYLAYER
 10
92.565966676
 20
212.5164167793
 11
98.4430940537
 21
212.9290947244
  0
LINE
  5
3CE
100
AcDbEntity
  8
0
100
AcDbLine
 62
7
  6
BYLAYER
 10
92.8228884843
 20
215.5351223178
 11
98.4962675018
 21
215.933258026
  0
LWPOLYLINE
  5
3CF
100
AcDbEntity
  8
0
100
AcDbPolyline
 62
7
  6
BYLAYER
 90
7
 70
0
 10
101.6838180439
 20
225.2779003575
 10
101.6697899025
 20
225.275030267
 10
101.4069644439
 20
225.2254162375
 10
100.9116788764
 20
225.1577100581
 10
100.2214836085
 20
225.0832848802
 10
99.3519807072
 20
225.004241337
 10
98.3043307206
 20
224.9202292192
  0
LWPOLYLINE
  5
3D0
100
AcDbEntity
  8
0
100
AcDbPolyline
 62
7
  6
BYLAYER
 90
5
 70
0
 10
101.7031644157
 20
222.2829993956
 10
101.4749205914
 20
222.2372545356
 10
100.9871077448
 20
222.1675048373
 10
100.2913160463
 20
222.0901190091
 10
99.4101772968
 20
222.0088358624
  0
LWPOLYLINE
  5
3D1
100
AcDbEntity
  8
0
100
AcDbPolyline
 62
7
  6
BYLAYER
 90
4
 70
0
 10
88.9947873345
 20
221.1829863515
 10
88.2762298531
 20
221.0555615939
 10
87.6465119641
 20
220.8300283963
 10
87.6175592498
 20
220.801288638
  0
LWPOLYLINE
  5
3D2
100
AcDbEntity
  8
0
100
AcDbPolyline
 62
7
  6
BYLAYER
 90
4
 70
0
 10
89.2241969356
 20
218.2140926097
 10
88.3695721127
 20
218.0771809017
 10
87.6825300031
 20
217.8462794247
 10
87.6175592498
 20
217.7836880198
  0
LWPOLYLINE
  5
3D3
100
AcDbEntity
  8
0
100
AcDbPolyline
 62
7
  6
BYLAYER
 90
5
 70
0
 10
101.4177355644
 20
222.2050780598
 10
102.1381717679
 20
222.316913755
 10
102.7249514459
 20
222.47559396
 10
103.4223027577
 20
222.9464492026
 10
103.8029045404
 20
223.8850824886
  0
LINE
  5
3D4
100
AcDbEntity
  8
0
100
AcDbLine
 62
7
  6
BYLAYER
 10
100.8193008666
 20
219.1361818441
 11
101.7191997088
 21
219.2470724616
  0
LINE
  5
3D5
100
AcDbEntity
  8
0
100
AcDbLine
 62
7
  6
BYLAYER
 10
99.5920423052
 20
219.0206176645
 11
100.8193008666
 21
219.1361818441
  0
LWPOLYLINE
  5
3D6
100
AcDbEntity
  8
0
100
AcDbPolyline
 62
7
  6
BYLAYER
 90
3
 70
0
 10
99.0526633595
 20
221.97661565
 10
100.4022576655
 20
222.0939683658
 10
101.4177355644
 20
222.2050780598
  0
LWPOLYLINE
  5
3D7
100
AcDbEntity
  8
0
100
AcDbPolyline
 62
7
  6
BYLAYER
 90
3
 70
0
 10
92.2739138615
 20
218.4948226386
 10
90.5093791862
 20
218.3498908569
 10
89.2241969356
 20
218.2140926097
  0
LINE
  5
3D8
100
AcDbEntity
  8
0
100
AcDbLine
 62
7
  6
BYLAYER
 10
99.4101772968
 20
222.0088358624
 11
98.343169191
 21
221.9231158953
  0
LINE
  5
3D9
100
AcDbEntity
  8
0
100
AcDbLine
 62
7
  6
BYLAYER
 10
98.1437554617
 20
218.9067399251
 11
99.7407571255
 21
219.0381622655
  0
LWPOLYLINE
  5
3DA
100
AcDbEntity
  8
0
100
AcDbPolyline
 62
7
  6
BYLAYER
 90
4
 70
0
 10
93.0500865005
 20
221.5515161782
 10
91.4074916556
 20
221.4272948659
 10
90.0251198028
 20
221.3038818331
 10
88.9947873345
 20
221.1829863515
  0
LWPOLYLINE
  5
3DB
100
AcDbEntity
  8
0
100
AcDbPolyline
 62
7
  6
BYLAYER
 90
7
 70
0
 10
93.2820356206
 20
224.5682896246
 10
91.6281727905
 20
224.4449045395
 10
90.1682487753
 20
224.3176811008
 10
89.0718958129
 20
224.1942664178
 10
88.3262930088
 20
224.0675896563
 10
87.6774891958
 20
223.8435525283
 10
87.6175592498
 20
223.7854795286
  0
LINE
  5
3DC
100
AcDbEntity
  8
0
100
AcDbLine
 62
7
  6
BYLAYER
 10
99.0526633595
 20
221.97661565
 11
97.0787700552
 21
221.8306292485
  0
LWPOLYLINE
  5
3DD
100
AcDbEntity
  8
0
100
AcDbPolyline
 62
7
  6
BYLAYER
 90
3
 70
0
 10
98.3043307206
 20
224.9202292192
 10
96.3958324228
 20
224.7826686347
 10
93.2820356206
 20
224.5682896246
  0
LINE
  5
3DE
100
AcDbEntity
  8
0
100
AcDbLine
 62
7
  6
BYLAYER
 10
92.2739138615
 20
218.4948226386
 11
98.5097498552
 21
218.9360454243
  0
LINE
  5
3DF
100
AcDbEntity
  8
0
100
AcDbLine
 62
7
  6
BYLAYER
 10
93.0500865005
 20
221.5515161782
 11
97.4437578512
 21
221.8558320684
  0
LINE
  5
3E0
100
AcDbEntity
  8
0
100
AcDbLine
 62
7
  6
BYLAYER
 10
84.6175592498
 20
225.3602041205
 11
87.6175592498
 21
225.3602041205
  0
LINE
  5
3E1
100
AcDbEntity
  8
0
100
AcDbLine
 62
7
  6
BYLAYER
 10
97.1132482642
 20
228.2082803319
 11
108.0378694666
 21
228.2082803319
  0
LINE
  5
3E2
100
AcDbEntity
  8
0
100
AcDbLine
 62
7
  6
BYLAYER
 10
97.1132482642
 20
231.2082803319
 11
108.0378694666
 21
231.2082803319
  0
LINE
  5
3E3
100
AcDbEntity
  8
0
100
AcDbLine
 62
7
  6
BYLAYER
 10
98.7596948736
 20
236.9582803319
 11
101.7596948736
 21
236.9582803319
  0
ARC
  5
3E4
100
AcDbEntity
  8
0
100
AcDbCircle
 62
7
  6
BYLAYER
 10
90.4466961942
 20
115.2113056688
 40
11.3129990838
100
AcDbArc
 50
359.984677888
 51
7.0989514849
  0
ARC
  5
3E5
100
AcDbEntity
  8
0
100
AcDbCircle
 62
7
  6
BYLAYER
 10
94.2750410234
 20
224.2080183656
 40
9.2524138611
100
AcDbArc
 50
3.5056555073
 51
4.1615010239
  0
ARC
  5
3E6
100
AcDbEntity
  8
0
100
AcDbCircle
 62
7
  6
BYLAYER
 10
94.2870152093
 20
224.2088893628
 40
9.2404080389
100
AcDbArc
 50
4.1615025276
 51
4.7034333902
  0
ARC
  5
3E7
100
AcDbEntity
  8
0
100
AcDbCircle
 62
7
  6
BYLAYER
 10
90.409266556
 20
115.208990878
 40
8.3504283478
100
AcDbArc
 50
359.9951246464
 51
7.0800548847
  0
ARC
  5
3E8
100
AcDbEntity
  8
0
100
AcDbCircle
 62
7
  6
BYLAYER
 10
96.1061596998
 20
224.7808445914
 40
7.3218603229
100
AcDbArc
 50
26.7607006615
 51
28.3519523233
  0
ARC
  5
3E9
100
AcDbEntity
  8
0
100
AcDbCircle
 62
7
  6
BYLAYER
 10
102.2657805579
 20
223.9397334847
 40
1.5461183849
100
AcDbArc
 50
14.6026115355
 51
33.0440864846
  0
ARC
  5
3EA
100
AcDbEntity
  8
0
100
AcDbCircle
 62
7
  6
BYLAYER
 10
88.442474897
 20
168.5357517879
 40
1.5080446278
100
AcDbArc
 50
110.6332990092
 51
124.4866190794
  0
ARC
  5
3EB
100
AcDbEntity
  8
0
100
AcDbCircle
 62
7
  6
BYLAYER
 10
97.1132482642
 20
229.7082803319
 40
1.5
100
AcDbArc
 50
90.0
 51
270.0
  0
ARC
  5
3EC
100
AcDbEntity
  8
0
100
AcDbCircle
 62
7
  6
BYLAYER
 10
101.3589386219
 20
190.3568597034
 40
1.1491864688
100
AcDbArc
 50
277.6431810704
 51
287.2450526423
  0
ARC
  5
3ED
100
AcDbEntity
  8
0
100
AcDbCircle
 62
7
  6
BYLAYER
 10
89.9498412566
 20
201.1454066058
 40
0.8538478297
100
AcDbArc
 50
273.334333153
 51
276.1382727185
  0
ARC
  5
3EE
100
AcDbEntity
  8
0
100
AcDbCircle
 62
7
  6
BYLAYER
 10
98.8064324491
 20
156.3244048414
 40
0.3663056304
100
AcDbArc
 50
274.4751178771
 51
278.2299347674
  0
SPLINE
  5
3EF
100
AcDbEntity
  8
0
100
AcDbSpline
 62
7
  6
BYLAYER
 70
0
 71
3
 72
12
 73
8
 74
0
 42
0.0000001
 43
0.0000001
 44
0.0000000001
 40
0.0
 40
0.0
 40
0.0
 40
0.0
 40
0.0984713355
 40
0.1833323841
 40
0.2950147672
 40
0.5987336231
 40
1.0
 40
1.0
 40
1.0
 40
1.0
 10
100.9516948346
 20
122.3938590498
 30
0.0
 10
100.9498777651
 20
122.4088819394
 30
0.0
 10
100.9203977914
 20
122.4273069261
 30
0.0
 10
100.8790780397
 20
122.4401910649
 30
0.0
 10
100.8026900205
 20
122.4558863941
 30
0.0
 10
100.678036143
 20
122.4662827132
 30
0.0
 10
100.5694888303
 20
122.4687525984
 30
0.0
 10
100.5078250408
 20
122.4687525984
 30
0.0
  0
SPLINE
  5
3F0
100
AcDbEntity
  8
0
100
AcDbSpline
 62
7
  6
BYLAYER
 70
0
 71
3
 72
12
 73
8
 74
0
 42
0.0000001
 43
0.0000001
 44
0.0000000001
 40
0.0
 40
0.0
 40
0.0
 40
0.0
 40
0.10358545
 40
0.2109417077
 40
0.4456776104
 40
0.7125155772
 40
1.0
 40
1.0
 40
1.0
 40
1.0
 10
108.0378695367
 20
231.2081919287
 30
0.0
 10
108.1075029029
 20
231.2081937867
 30
0.0
 10
108.250045417
 20
231.1880620438
 30
0.0
 10
108.5274048674
 20
231.0667616005
 30
0.0
 10
108.8268919989
 20
230.7675208632
 30
0.0
 10
109.0477266811
 20
230.2765060826
 30
0.0
 10
109.0985296384
 20
229.9015363165
 30
0.0
 10
109.0985296384
 20
229.7082803319
 30
0.0
  0
SPLINE
  5
3F1
100
AcDbEntity
  8
0
100
AcDbSpline
 62
7
  6
BYLAYER
 70
0
 71
3
 72
9
 73
5
 74
0
 42
0.0000001
 43
0.0000001
 44
0.0000000001
 40
0.0
 40
0.0
 40
0.0
 40
0.0
 40
0.2557796615
 40
1.0
 40
1.0
 40
1.0
 40
1.0
 10
103.4963059427
 20
224.9665864752
 30
0.0
 10
103.4736779196
 20
225.2416107619
 30
0.0
 10
103.3374716681
 20
226.3119613432
 30
0.0
 10
103.0053751924
 20
227.3607205313
 30
0.0
 10
102.6438111965
 20
228.0776235491
 30
0.0
  0
SPLINE
  5
3F2
100
AcDbEntity
  8
0
100
AcDbSpline
 62
7
  6
BYLAYER
 70
0
 71
3
 72
11
 73
7
 74
0
 42
0.0000001
 43
0.0000001
 44
0.0000000001
 40
0.0
 40
0.0
 40
0.0
 40
0.0
 40
0.308778243
 40
0.5726934649
 40
0.7988802984
 40
1.0
 40
1.0
 40
1.0
 40
1.0
 10
99.3841212851
 20
227.5751375769
 30
0.0
 10
99.2831163983
 20
227.6828561479
 30
0.0
 10
99.0797967767
 20
227.8688371308
 30
0.0
 10
98.7528840137
 20
228.0711034242
 30
0.0
 10
98.4396248419
 20
228.1845238486
 30
0.0
 10
98.2345554076
 20
228.2082803319
 30
0.0
 10
98.13837453
 20
228.2082803319
 30
0.0
  0
SPLINE
  5
3F3
100
AcDbEntity
  8
0
100
AcDbSpline
 62
7
  6
BYLAYER
 70
0
 71
3
 72
8
 73
4
 74
0
 42
0.0000001
 43
0.0000001
 44
0.0000000001
 40
0.0
 40
0.0
 40
0.0
 40
0.0
 40
1.0
 40
1.0
 40
1.0
 40
1.0
 10
103.8047831045
 20
223.9583061379
 30
0.0
 10
103.8129383806
 20
224.0826011809
 30
0.0
 10
103.7932659011
 20
224.2089677389
 30
0.0
 10
103.7619557322
 20
224.3295307496
 30
0.0
  0
SPLINE
  5
3F4
100
AcDbEntity
  8
0
100
AcDbSpline
 62
7
  6
BYLAYER
 70
0
 71
3
 72
11
 73
7
 74
0
 42
0.0000001
 43
0.0000001
 44
0.0000000001
 40
0.0
 40
0.0
 40
0.0
 40
0.0
 40
0.249609718
 40
0.499450018
 40
0.7499105477
 40
1.0
 40
1.0
 40
1.0
 40
1.0
 10
103.5618162187
 20
224.7828073995
 30
0.0
 10
103.4609451262
 20
224.9374221026
 30
0.0
 10
103.1968107979
 20
225.2104428101
 30
0.0
 10
102.681306909
 20
225.4456635271
 30
0.0
 10
102.1144975686
 20
225.4815629903
 30
0.0
 10
101.7536447335
 20
225.3613806244
 30
0.0
 10
101.5910879724
 20
225.273136016
 30
0.0
  0
SPLINE
  5
3F5
100
AcDbEntity
  8
0
100
AcDbSpline
 62
7
  6
BYLAYER
 70
0
 71
3
 72
11
 73
7
 74
0
 42
0.0000001
 43
0.0000001
 44
0.0000000001
 40
0.0
 40
0.0
 40
0.0
 40
0.0
 40
0.0679921081
 40
0.255938623
 40
0.5669131415
 40
1.0
 40
1.0
 40
1.0
 40
1.0
 10
102.2640780431
 20
84.6872203035
 30
0.0
 10
102.2640605147
 20
84.6863461829
 30
0.0
 10
102.2688455329
 20
84.6858942659
 30
0.0
 10
102.2746285175
 20
84.6846885129
 30
0.0
 10
102.2874159149
 20
84.683962453
 30
0.0
 10
102.2966974816
 20
84.6834056993
 30
0.0
 10
102.3022605807
 20
84.6831499825
 30
0.0
  0
SPLINE
  5
3F6
100
AcDbEntity
  8
0
100
AcDbSpline
 62
7
  6
BYLAYER
 70
0
 71
3
 72
11
 73
7
 74
0
 42
0.0000001
 43
0.0000001
 44
0.0000000001
 40
0.0
 40
0.0
 40
0.0
 40
0.0
 40
0.0699945384
 40
0.2583828321
 40
0.5683578788
 40
1.0
 40
1.0
 40
1.0
 40
1.0
 10
101.9349719824
 20
109.6872202972
 30
0.0
 10
101.9349867354
 20
109.6880468284
 30
0.0
 10
101.9392805074
 20
109.6886069539
 30
0.0
 10
101.9446934962
 20
109.6898989192
 30
0.0
 10
101.9563135012
 20
109.6909192448
 30
0.0
 10
101.964815832
 20
109.6916797448
 30
0.0
 10
101.9698993356
 20
109.6920620929
 30
0.0
  0
SPLINE
  5
3F7
100
AcDbEntity
  8
0
100
AcDbSpline
 62
7
  6
BYLAYER
 70
0
 71
3
 72
9
 73
5
 74
0
 42
0.0000001
 43
0.0000001
 44
0.0000000001
 40
0.0
 40
0.0
 40
0.0
 40
0.0
 40
0.162506027
 40
1.0
 40
1.0
 40
1.0
 40
1.0
 10
101.9698993356
 20
109.6920620929
 30
0.0
 10
101.9834571337
 20
109.6930818226
 30
0.0
 10
102.0669848141
 20
109.6979889288
 30
0.0
 10
102.1506146522
 20
109.7007462345
 30
0.0
 10
102.2206476025
 20
109.7029956961
 30
0.0
  0
SPLINE
  5
3F8
100
AcDbEntity
  8
0
100
AcDbSpline
 62
7
  6
BYLAYER
 70
0
 71
3
 72
9
 73
5
 74
0
 42
0.0000001
 43
0.0000001
 44
0.0000000001
 40
0.0
 40
0.0
 40
0.0
 40
0.0
 40
0.4791037245
 40
1.0
 40
1.0
 40
1.0
 40
1.0
 10
102.2206476025
 20
109.7029956961
 30
0.0
 10
102.6110102062
 20
109.7155341613
 30
0.0
 10
103.4261469233
 20
109.7289029511
 30
0.0
 10
104.2413070003
 20
109.7380624053
 30
0.0
 10
104.6659400824
 20
109.7380624053
 30
0.0
  0
SPLINE
  5
3F9
100
AcDbEntity
  8
0
100
AcDbSpline
 62
7
  6
BYLAYER
 70
0
 71
3
 72
11
 73
7
 74
0
 42
0.0000001
 43
0.0000001
 44
0.0000000001
 40
0.0
 40
0.0
 40
0.0
 40
0.0
 40
0.0679921081
 40
0.255938623
 40
0.5669131415
 40
1.0
 40
1.0
 40
1.0
 40
1.0
 10
102.44179504
 20
71.1872203035
 30
0.0
 10
102.4417775116
 20
71.1863461829
 30
0.0
 10
102.4465625298
 20
71.1858942659
 30
0.0
 10
102.4523455143
 20
71.1846885129
 30
0.0
 10
102.4651329118
 20
71.183962453
 30
0.0
 10
102.4744144785
 20
71.1834056993
 30
0.0
 10
102.4799775776
 20
71.1831499825
 30
0.0
  0
SPLINE
  5
3FA
100
AcDbEntity
  8
0
100
AcDbSpline
 62
7
  6
BYLAYER
 70
0
 71
3
 72
11
 73
7
 74
0
 42
0.0000001
 43
0.0000001
 44
0.0000000001
 40
0.0
 40
0.0
 40
0.0
 40
0.0
 40
0.0699945384
 40
0.2583828321
 40
0.5683578788
 40
1.0
 40
1.0
 40
1.0
 40
1.0
 10
102.4154660851
 20
73.1872202972
 30
0.0
 10
102.415480838
 20
73.1880468284
 30
0.0
 10
102.41977461
 20
73.1886069539
 30
0.0
 10
102.4251875989
 20
73.1898989192
 30
0.0
 10
102.4368076038
 20
73.1909192448
 30
0.0
 10
102.4453099347
 20
73.1916797448
 30
0.0
 10
102.4503934382
 20
73.1920620929
 30
0.0
  0
SPLINE
  5
3FB
100
AcDbEntity
  8
0
100
AcDbSpline
 62
7
  6
BYLAYER
 70
0
 71
3
 72
9
 73
5
 74
0
 42
0.0000001
 43
0.0000001
 44
0.0000000001
 40
0.0
 40
0.0
 40
0.0
 40
0.0
 40
0.162506027
 40
1.0
 40
1.0
 40
1.0
 40
1.0
 10
102.4503934382
 20
73.1920620929
 30
0.0
 10
102.4639512363
 20
73.1930818226
 30
0.0
 10
102.5474789167
 20
73.1979889288
 30
0.0
 10
102.6311087548
 20
73.2007462345
 30
0.0
 10
102.7011417051
 20
73.2029956961
 30
0.0
  0
SPLINE
  5
3FC
100
AcDbEntity
  8
0
100
AcDbSpline
 62
7
  6
BYLAYER
 70
0
 71
3
 72
9
 73
5
 74
0
 42
0.0000001
 43
0.0000001
 44
0.0000000001
 40
0.0
 40
0.0
 40
0.0
 40
0.0
 40
0.4791037245
 40
1.0
 40
1.0
 40
1.0
 40
1.0
 10
102.7011417051
 20
73.2029956961
 30
0.0
 10
103.0915043089
 20
73.2155341613
 30
0.0
 10
103.9066410259
 20
73.2289029511
 30
0.0
 10
104.7218011029
 20
73.2380624053
 30
0.0
 10
105.146434185
 20
73.2380624053
 30
0.0
  0
SPLINE
  5
3FD
100
AcDbEntity
  8
0
100
AcDbSpline
 62
7
  6
BYLAYER
 70
0
 71
3
 72
11
 73
7
 74
0
 42
0.0000001
 43
0.0000001
 44
0.0000000001
 40
0.0
 40
0.0
 40
0.0
 40
0.0
 40
0.0699945384
 40
0.2583828321
 40
0.5683578788
 40
1.0
 40
1.0
 40
1.0
 40
1.0
 10
102.6590041919
 20
54.6872202972
 30
0.0
 10
102.6590189448
 20
54.6880468284
 30
0.0
 10
102.6633127168
 20
54.6886069539
 30
0.0
 10
102.6687257057
 20
54.6898989192
 30
0.0
 10
102.6803457107
 20
54.6909192448
 30
0.0
 10
102.6888480415
 20
54.6916797448
 30
0.0
 10
102.693931545
 20
54.6920620929
 30
0.0
  0
SPLINE
  5
3FE
100
AcDbEntity
  8
0
100
AcDbSpline
 62
7
  6
BYLAYER
 70
0
 71
3
 72
9
 73
5
 74
0
 42
0.0000001
 43
0.0000001
 44
0.0000000001
 40
0.0
 40
0.0
 40
0.0
 40
0.0
 40
0.162506027
 40
1.0
 40
1.0
 40
1.0
 40
1.0
 10
102.693931545
 20
54.6920620929
 30
0.0
 10
102.7074893432
 20
54.6930818226
 30
0.0
 10
102.7910170236
 20
54.6979889288
 30
0.0
 10
102.8746468616
 20
54.7007462345
 30
0.0
 10
102.9446798119
 20
54.7029956961
 30
0.0
  0
SPLINE
  5
3FF
100
AcDbEntity
  8
0
100
AcDbSpline
 62
7
  6
BYLAYER
 70
0
 71
3
 72
9
 73
5
 74
0
 42
0.0000001
 43
0.0000001
 44
0.0000000001
 40
0.0
 40
0.0
 40
0.0
 40
0.0
 40
0.4791037245
 40
1.0
 40
1.0
 40
1.0
 40
1.0
 10
102.9446798119
 20
54.7029956961
 30
0.0
 10
103.3350424157
 20
54.7155341613
 30
0.0
 10
104.1501791328
 20
54.7289029511
 30
0.0
 10
104.9653392097
 20
54.7380624053
 30
0.0
 10
105.3899722918
 20
54.7380624053
 30
0.0
  0
SPLINE
  5
400
100
AcDbEntity
  8
0
100
AcDbSpline
 62
7
  6
BYLAYER
 70
0
 71
3
 72
14
 73
10
 74
0
 42
0.0000001
 43
0.0000001
 44
0.0000000001
 40
0.0
 40
0.0
 40
0.0
 40
0.0
 40
0.3006801812
 40
0.443090423
 40
0.5761563945
 40
0.6979113774
 40
0.8077116927
 40
0.9070048366
 40
1.0
 40
1.0
 40
1.0
 40
1.0
 10
87.7175592498
 20
36.2082803319
 30
0.0
 10
87.7175592498
 20
34.7037672357
 30
0.0
 10
88.0138725115
 20
32.4673490737
 30
0.0
 10
89.0126714474
 20
29.7539615873
 30
0.0
 10
89.9936590998
 20
28.0136551905
 30
0.0
 10
91.1696748248
 20
26.6038624513
 30
0.0
 10
92.4837875469
 20
25.5734528235
 30
0.0
 10
93.8782348801
 20
24.9489683631
 30
0.0
 10
94.8452455045
 20
24.8080001467
 30
0.0
 10
95.3105653013
 20
24.808035679
 30
0.0
  0
SPLINE
  5
401
100
AcDbEntity
  8
0
100
AcDbSpline
 62
7
  6
BYLAYER
 70
0
 71
3
 72
14
 73
10
 74
0
 42
0.0000001
 43
0.0000001
 44
0.0000000001
 40
0.0
 40
0.0
 40
0.0
 40
0.0
 40
0.1099336233
 40
0.2220903436
 40
0.3384589083
 40
0.4604408378
 40
0.5885495579
 40
0.722296696
 40
1.0
 40
1.0
 40
1.0
 40
1.0
 10
95.3091833083
 20
21.6084472271
 30
0.0
 10
96.041690073
 20
21.6083527404
 30
0.0
 10
97.5288910916
 20
21.8130109559
 30
0.0
 10
99.6256409145
 20
22.7043715395
 30
0.0
 10
101.5115676862
 20
24.1161018302
 30
0.0
 10
103.1247963158
 20
25.9700055178
 30
0.0
 10
104.4252849619
 20
28.1881128565
 30
0.0
 10
105.713921128
 20
31.5563199343
 30
0.0
 10
106.0989584193
 20
34.3220102667
 30
0.0
 10
106.1023031234
 20
36.1723924514
 30
0.0
  0
SPLINE
  5
402
100
AcDbEntity
  8
0
100
AcDbSpline
 62
7
  6
BYLAYER
 70
0
 71
3
 72
14
 73
10
 74
0
 42
0.0000001
 43
0.0000001
 44
0.0000000001
 40
0.0
 40
0.0
 40
0.0
 40
0.0
 40
0.2776954236
 40
0.4114604204
 40
0.5395863423
 40
0.6615766562
 40
0.7779418038
 40
0.8900851794
 40
1.0
 40
1.0
 40
1.0
 40
1.0
 10
84.5175592498
 20
36.2082803319
 30
0.0
 10
84.5175592498
 20
34.3547829459
 30
0.0
 10
84.8989517978
 20
31.5835861078
 30
0.0
 10
86.1850713761
 20
28.2076146855
 30
0.0
 10
87.4850223197
 20
25.983738359
 30
0.0
 10
89.0988905583
 20
24.1245941168
 30
0.0
 10
90.9865631109
 20
22.7085176358
 30
0.0
 10
93.0860359628
 20
21.8140322188
 30
0.0
 10
94.5755492127
 20
21.6085418591
 30
0.0
 10
95.3091833083
 20
21.6084472271
 30
0.0
  0
SPLINE
  5
403
100
AcDbEntity
  8
0
100
AcDbSpline
 62
7
  6
BYLAYER
 70
0
 71
3
 72
9
 73
5
 74
0
 42
0.0000001
 43
0.0000001
 44
0.0000000001
 40
0.0
 40
0.0
 40
0.0
 40
0.0
 40
0.6279175053
 40
1.0
 40
1.0
 40
1.0
 40
1.0
 10
105.3899722918
 20
54.7380624053
 30
0.0
 10
105.4797996095
 20
54.7380624053
 30
0.0
 10
105.6228378605
 20
54.7374138999
 30
0.0
 10
105.7659259394
 20
54.7358601391
 30
0.0
 10
105.8191008691
 20
54.7334703329
 30
0.0
  0
SPLINE
  5
404
100
AcDbEntity
  8
0
100
AcDbSpline
 62
7
  6
BYLAYER
 70
0
 71
3
 72
9
 73
5
 74
0
 42
0.0000001
 43
0.0000001
 44
0.0000000001
 40
0.0
 40
0.0
 40
0.0
 40
0.0
 40
0.3316997336
 40
1.0
 40
1.0
 40
1.0
 40
1.0
 10
105.8191008691
 20
54.7334703329
 30
0.0
 10
105.8228225811
 20
54.7333030704
 30
0.0
 10
105.8340344991
 20
54.732719787
 30
0.0
 10
105.8452720339
 20
54.7321099237
 30
0.0
 10
105.8527059437
 20
54.7310722695
 30
0.0
  0
SPLINE
  5
405
100
AcDbEntity
  8
0
100
AcDbSpline
 62
7
  6
BYLAYER
 70
0
 71
3
 72
14
 73
10
 74
0
 42
0.0000001
 43
0.0000001
 44
0.0000000001
 40
0.0
 40
0.0
 40
0.0
 40
0.0
 40
0.0930030084
 40
0.1923048365
 40
0.3021068536
 40
0.4238548135
 40
0.5569093347
 40
0.6993101753
 40
1.0
 40
1.0
 40
1.0
 40
1.0
 10
95.3105653013
 20
24.808035679
 30
0.0
 10
95.7755690925
 20
24.8080711872
 30
0.0
 10
96.7418705187
 20
24.9492048119
 30
0.0
 10
98.1353799691
 20
25.5730604332
 30
0.0
 10
99.4486792929
 20
26.6024665681
 30
0.0
 10
100.6241542245
 20
28.0107531423
 30
0.0
 10
101.6049720069
 20
29.7492363706
 30
0.0
 10
102.6041679971
 20
32.4600600479
 30
0.0
 10
102.9014035374
 20
34.6945796119
 30
0.0
 10
102.9023323824
 20
36.1979920783
 30
0.0
  0
SPLINE
  5
406
100
AcDbEntity
  8
0
100
AcDbSpline
 62
7
  6
BYLAYER
 70
0
 71
3
 72
9
 73
5
 74
0
 42
0.0000001
 43
0.0000001
 44
0.0000000001
 40
0.0
 40
0.0
 40
0.0
 40
0.0
 40
0.3366056054
 40
1.0
 40
1.0
 40
1.0
 40
1.0
 10
105.3482278898
 20
71.2133260329
 30
0.0
 10
105.3773201947
 20
71.2142510004
 30
0.0
 10
105.4637300536
 20
71.2173073344
 30
0.0
 10
105.5501950235
 20
71.2202164177
 30
0.0
 10
105.6073946844
 20
71.2245703744
 30
0.0
  0
SPLINE
  5
407
100
AcDbEntity
  8
0
100
AcDbSpline
 62
7
  6
BYLAYER
 70
0
 71
3
 72
11
 73
7
 74
0
 42
0.0000001
 43
0.0000001
 44
0.0000000001
 40
0.0
 40
0.0
 40
0.0
 40
0.0
 40
0.4314043184
 40
0.7413088992
 40
0.9297639193
 40
1.0
 40
1.0
 40
1.0
 40
1.0
 10
105.6073946844
 20
71.2245703744
 30
0.0
 10
105.6123398041
 20
71.2249467898
 30
0.0
 10
105.620614233
 20
71.2256929101
 30
0.0
 10
105.6319129269
 20
71.2267060984
 30
0.0
 10
105.6371953299
 20
71.2279649912
 30
0.0
 10
105.6413643541
 20
71.2285330885
 30
0.0
 10
105.6413805421
 20
71.2293403604
 30
0.0
  0
SPLINE
  5
408
100
AcDbEntity
  8
0
100
AcDbSpline
 62
7
  6
BYLAYER
 70
0
 71
3
 72
9
 73
5
 74
0
 42
0.0000001
 43
0.0000001
 44
0.0000000001
 40
0.0
 40
0.0
 40
0.0
 40
0.0
 40
0.6279175053
 40
1.0
 40
1.0
 40
1.0
 40
1.0
 10
105.146434185
 20
73.2380624053
 30
0.0
 10
105.2362615027
 20
73.2380624053
 30
0.0
 10
105.3792997537
 20
73.2374138999
 30
0.0
 10
105.5223878326
 20
73.2358601391
 30
0.0
 10
105.5755627623
 20
73.2334703329
 30
0.0
  0
SPLINE
  5
409
100
AcDbEntity
  8
0
100
AcDbSpline
 62
7
  6
BYLAYER
 70
0
 71
3
 72
9
 73
5
 74
0
 42
0.0000001
 43
0.0000001
 44
0.0000000001
 40
0.0
 40
0.0
 40
0.0
 40
0.0
 40
0.3316997336
 40
1.0
 40
1.0
 40
1.0
 40
1.0
 10
105.5755627623
 20
73.2334703329
 30
0.0
 10
105.5792844743
 20
73.2333030704
 30
0.0
 10
105.5904963923
 20
73.232719787
 30
0.0
 10
105.6017339271
 20
73.2321099237
 30
0.0
 10
105.6091678369
 20
73.2310722695
 30
0.0
  0
SPLINE
  5
40A
100
AcDbEntity
  8
0
100
AcDbSpline
 62
7
  6
BYLAYER
 70
0
 71
3
 72
9
 73
5
 74
0
 42
0.0000001
 43
0.0000001
 44
0.0000000001
 40
0.0
 40
0.0
 40
0.0
 40
0.0
 40
0.3366056054
 40
1.0
 40
1.0
 40
1.0
 40
1.0
 10
105.1705108929
 20
84.7133260329
 30
0.0
 10
105.1996031978
 20
84.7142510004
 30
0.0
 10
105.2860130568
 20
84.7173073344
 30
0.0
 10
105.3724780267
 20
84.7202164177
 30
0.0
 10
105.4296776875
 20
84.7245703744
 30
0.0
  0
SPLINE
  5
40B
100
AcDbEntity
  8
0
100
AcDbSpline
 62
7
  6
BYLAYER
 70
0
 71
3
 72
11
 73
7
 74
0
 42
0.0000001
 43
0.0000001
 44
0.0000000001
 40
0.0
 40
0.0
 40
0.0
 40
0.0
 40
0.4314043184
 40
0.7413088992
 40
0.9297639193
 40
1.0
 40
1.0
 40
1.0
 40
1.0
 10
105.4296776875
 20
84.7245703744
 30
0.0
 10
105.4346228072
 20
84.7249467898
 30
0.0
 10
105.4428972362
 20
84.7256929101
 30
0.0
 10
105.4541959301
 20
84.7267060984
 30
0.0
 10
105.459478333
 20
84.7279649912
 30
0.0
 10
105.4636473573
 20
84.7285330885
 30
0.0
 10
105.4636635452
 20
84.7293403604
 30
0.0
  0
SPLINE
  5
40C
100
AcDbEntity
  8
0
100
AcDbSpline
 62
7
  6
BYLAYER
 70
0
 71
3
 72
9
 73
5
 74
0
 42
0.0000001
 43
0.0000001
 44
0.0000000001
 40
0.0
 40
0.0
 40
0.0
 40
0.0
 40
0.6279175053
 40
1.0
 40
1.0
 40
1.0
 40
1.0
 10
104.6659400824
 20
109.7380624053
 30
0.0
 10
104.7557674
 20
109.7380624053
 30
0.0
 10
104.898805651
 20
109.7374138999
 30
0.0
 10
105.04189373
 20
109.7358601391
 30
0.0
 10
105.0950686596
 20
109.7334703329
 30
0.0
  0
SPLINE
  5
40D
100
AcDbEntity
  8
0
100
AcDbSpline
 62
7
  6
BYLAYER
 70
0
 71
3
 72
9
 73
5
 74
0
 42
0.0000001
 43
0.0000001
 44
0.0000000001
 40
0.0
 40
0.0
 40
0.0
 40
0.0
 40
0.3316997336
 40
1.0
 40
1.0
 40
1.0
 40
1.0
 10
105.0950686596
 20
109.7334703329
 30
0.0
 10
105.0987903716
 20
109.7333030704
 30
0.0
 10
105.1100022897
 20
109.732719787
 30
0.0
 10
105.1212398244
 20
109.7321099237
 30
0.0
 10
105.1286737343
 20
109.7310722695
 30
0.0
  0
SPLINE
  5
40E
100
AcDbEntity
  8
0
100
AcDbSpline
 62
7
  6
BYLAYER
 70
0
 71
3
 72
12
 73
8
 74
0
 42
0.0000001
 43
0.0000001
 44
0.0000000001
 40
0.0
 40
0.0
 40
0.0
 40
0.0
 40
0.2874847186
 40
0.5543075915
 40
0.7890450043
 40
0.8964080175
 40
1.0
 40
1.0
 40
1.0
 40
1.0
 10
109.0985296384
 20
229.7082803319
 30
0.0
 10
109.0985296384
 20
229.5150240311
 30
0.0
 10
109.0477291836
 20
229.1400644115
 30
0.0
 10
108.8269021034
 20
228.6490542774
 30
0.0
 10
108.5274219799
 20
228.3498192203
 30
0.0
 10
108.2500600651
 20
228.2284937728
 30
0.0
 10
108.1075071966
 20
228.2083705934
 30
0.0
 10
108.0378693966
 20
228.2083687352
 30
0.0
  0
SPLINE
  5
40F
100
AcDbEntity
  8
0
100
AcDbSpline
 62
7
  6
BYLAYER
 70
0
 71
3
 72
15
 73
11
 74
0
 42
0.0000001
 43
0.0000001
 44
0.0000000001
 40
0.0
 40
0.0
 40
0.0
 40
0.0
 40
0.2956594404
 40
0.4650439694
 40
0.6298793768
 40
0.7760971434
 40
0.8913902343
 40
0.966556533
 40
0.9878315495
 40
1.0
 40
1.0
 40
1.0
 40
1.0
 10
100.5078250408
 20
122.4687525984
 30
0.0
 10
100.2513308328
 20
122.4687525984
 30
0.0
 10
99.8480677028
 20
122.4396950185
 30
0.0
 10
99.3053652835
 20
122.3760789299
 30
0.0
 10
98.8934384127
 20
122.312535674
 30
0.0
 10
98.5299482825
 20
122.2413260694
 30
0.0
 10
98.2475397772
 20
122.1703223853
 30
0.0
 10
98.0720567941
 20
122.1079002674
 30
0.0
 10
97.9918832383
 20
122.0609565533
 30
0.0
 10
97.9735949169
 20
122.0331817593
 30
0.0
 10
97.9748625261
 20
122.0227016141
 30
0.0
  0
SPLINE
  5
410
100
AcDbEntity
  8
0
100
AcDbSpline
 62
7
  6
BYLAYER
 70
0
 71
3
 72
14
 73
10
 74
0
 42
0.0000001
 43
0.0000001
 44
0.0000000001
 40
0.0
 40
0.0
 40
0.0
 40
0.0
 40
0.0815128126
 40
0.1720113446
 40
0.2774055981
 40
0.3991062497
 40
0.5355877196
 40
0.6838262352
 40
1.0
 40
1.0
 40
1.0
 40
1.0
 10
95.3089493749
 20
109.7082690653
 30
0.0
 10
95.5014060148
 20
109.7083143027
 30
0.0
 10
95.909847491
 20
109.7670341027
 30
0.0
 10
96.5118535724
 20
110.0430796587
 30
0.0
 10
97.1054465521
 20
110.511446774
 30
0.0
 10
97.6556459113
 20
111.177583153
 30
0.0
 10
98.1263296859
 20
112.0192452152
 30
0.0
 10
98.6147343636
 20
113.355705191
 30
0.0
 10
98.7596948736
 20
114.4617750874
 30
0.0
 10
98.7596948736
 20
115.2082803319
 30
0.0
  0
SPLINE
  5
411
100
AcDbEntity
  8
0
100
AcDbSpline
 62
7
  6
BYLAYER
 70
0
 71
3
 72
13
 73
9
 74
0
 42
0.0000001
 43
0.0000001
 44
0.0000000001
 40
0.0
 40
0.0
 40
0.0
 40
0.0
 40
0.2731268472
 40
0.5316318262
 40
0.6538994497
 40
0.7718165305
 40
0.8866734917
 40
1.0
 40
1.0
 40
1.0
 40
1.0
 10
88.860199937
 20
115.2082803319
 30
0.0
 10
88.860199937
 20
114.1366234384
 30
0.0
 10
89.151295017
 20
112.0390369651
 30
0.0
 10
90.2657011245
 20
109.6698896146
 30
0.0
 10
91.5680485851
 20
108.193232662
 30
0.0
 10
92.6991467865
 20
107.3593813662
 30
0.0
 10
93.9646177627
 20
106.8302430853
 30
0.0
 10
94.8642849226
 20
106.7086121843
 30
0.0
 10
95.3089395943
 20
106.7084814108
 30
0.0
  0
SPLINE
  5
412
100
AcDbEntity
  8
0
100
AcDbSpline
 62
7
  6
BYLAYER
 70
0
 71
3
 72
13
 73
9
 74
0
 42
0.0000001
 43
0.0000001
 44
0.0000000001
 40
0.0
 40
0.0
 40
0.0
 40
0.0
 40
0.1133191576
 40
0.228175571
 40
0.3460981298
 40
0.4683693871
 40
0.7268785916
 40
1.0
 40
1.0
 40
1.0
 40
1.0
 10
95.3089395943
 20
106.7084814108
 30
0.0
 10
95.7536400815
 20
106.7083506237
 30
0.0
 10
96.6534662262
 20
106.829845326
 30
0.0
 10
97.9193386492
 20
107.358543673
 30
0.0
 10
99.0508780613
 20
108.1922930876
 30
0.0
 10
100.3537112893
 20
109.6690376002
 30
0.0
 10
101.468510921
 20
112.0385276397
 30
0.0
 10
101.7596948736
 20
114.1364648403
 30
0.0
 10
101.7596948736
 20
115.2082803319
 30
0.0
  0
SPLINE
  5
413
100
AcDbEntity
  8
0
100
AcDbSpline
 62
7
  6
BYLAYER
 70
0
 71
3
 72
9
 73
5
 74
0
 42
0.0000001
 43
0.0000001
 44
0.0000000001
 40
0.0
 40
0.0
 40
0.0
 40
0.0
 40
0.2445580583
 40
1.0
 40
1.0
 40
1.0
 40
1.0
 10
85.8182740733
 20
231.67715083
 30
0.0
 10
85.6194534757
 20
231.1901418155
 30
0.0
 10
84.9126705349
 20
229.1563467761
 30
0.0
 10
84.6175592498
 20
226.9851148643
 30
0.0
 10
84.6175592498
 20
225.3602041205
 30
0.0
  0
SPLINE
  5
414
100
AcDbEntity
  8
0
100
AcDbSpline
 62
7
  6
BYLAYER
 70
0
 71
3
 72
14
 73
10
 74
0
 42
0.0000001
 43
0.0000001
 44
0.0000000001
 40
0.0
 40
0.0
 40
0.0
 40
0.0
 40
0.3161369099
 40
0.4643706528
 40
0.6008604068
 40
0.7225817179
 40
0.8279790186
 40
0.9185379117
 40
1.0
 40
1.0
 40
1.0
 40
1.0
 10
91.860199937
 20
115.2082803319
 30
0.0
 10
91.860199937
 20
114.4620698553
 30
0.0
 10
92.0050552616
 20
113.3564166852
 30
0.0
 10
92.4930919686
 20
112.0203337384
 30
0.0
 10
92.9634706469
 20
111.178746758
 30
0.0
 10
93.5133449396
 20
110.5125676084
 30
0.0
 10
94.1067380636
 20
110.0439495897
 30
0.0
 10
94.7083625601
 20
109.7676198344
 30
0.0
 10
95.1166660314
 20
109.7082238686
 30
0.0
 10
95.3089493749
 20
109.7082690653
 30
0.0
  0
SPLINE
  5
415
100
AcDbEntity
  8
0
100
AcDbSpline
 62
7
  6
BYLAYER
 70
0
 71
3
 72
9
 73
5
 74
0
 42
0.0000001
 43
0.0000001
 44
0.0000000001
 40
0.0
 40
0.0
 40
0.0
 40
0.0
 40
0.2414935996
 40
1.0
 40
1.0
 40
1.0
 40
1.0
 10
88.5957343726
 20
230.543257411
 30
0.0
 10
88.4346890309
 20
230.1487784983
 30
0.0
 10
87.856345656
 20
228.4799029008
 30
0.0
 10
87.6175592498
 20
226.698495906
 30
0.0
 10
87.6175592498
 20
225.3602041205
 30
0.0
  0
SPLINE
  5
416
100
AcDbEntity
  8
0
100
AcDbSpline
 62
7
  6
BYLAYER
 70
0
 71
3
 72
13
 73
9
 74
0
 42
0.0000001
 43
0.0000001
 44
0.0000000001
 40
0.0
 40
0.0
 40
0.0
 40
0.0
 40
0.1180821604
 40
0.2368832374
 40
0.357122689
 40
0.4795374722
 40
0.7327121337
 40
1.0
 40
1.0
 40
1.0
 40
1.0
 10
95.3111946289
 20
245.4580935358
 30
0.0
 10
95.0108299385
 20
245.4582039038
 30
0.0
 10
94.4068424048
 20
245.4038179504
 30
0.0
 10
93.526828753
 20
245.1612056379
 30
0.0
 10
92.6909751202
 20
244.7678362956
 30
0.0
 10
91.6468084324
 20
244.052100893
 30
0.0
 10
90.5236922237
 20
242.8329192092
 30
0.0
 10
89.8915875524
 20
241.6546904162
 30
0.0
 10
89.6346102057
 20
241.0252270414
 30
0.0
  0
SPLINE
  5
417
100
AcDbEntity
  8
0
100
AcDbSpline
 62
7
  6
BYLAYER
 70
0
 71
3
 72
14
 73
10
 74
0
 42
0.0000001
 43
0.0000001
 44
0.0000000001
 40
0.0
 40
0.0
 40
0.0
 40
0.0
 40
0.3161799319
 40
0.4644263431
 40
0.600907136
 40
0.7226010426
 40
0.8279927031
 40
0.9184662784
 40
1.0
 40
1.0
 40
1.0
 40
1.0
 10
98.7596948736
 20
236.9582803319
 30
0.0
 10
98.7596948736
 20
237.7048902721
 30
0.0
 10
98.6146880371
 20
238.8111298597
 30
0.0
 10
98.1261410271
 20
240.1477553653
 30
0.0
 10
97.6553147795
 20
240.9894792961
 30
0.0
 10
97.1049565183
 20
241.6555824918
 30
0.0
 10
96.5113043259
 20
242.123905003
 30
0.0
 10
95.909098335
 20
242.3997156682
 30
0.0
 10
95.5006136666
 20
242.4582491563
 30
0.0
 10
95.3080844242
 20
242.458321048
 30
0.0
  0
SPLINE
  5
418
100
AcDbEntity
  8
0
100
AcDbSpline
 62
7
  6
BYLAYER
 70
0
 71
3
 72
13
 73
9
 74
0
 42
0.0000001
 43
0.0000001
 44
0.0000000001
 40
0.0
 40
0.0
 40
0.0
 40
0.0
 40
0.092464977
 40
0.1894997583
 40
0.2956580778
 40
0.4130172047
 40
0.6841175602
 40
1.0
 40
1.0
 40
1.0
 40
1.0
 10
95.3080844242
 20
242.458321048
 30
0.0
 10
95.1821622303
 20
242.4583680682
 30
0.0
 10
94.9233668725
 20
242.43440511
 30
0.0
 10
94.5349105238
 20
242.3204252479
 30
0.0
 10
94.1418892961
 20
242.1258113592
 30
0.0
 10
93.5911741019
 20
241.733513319
 30
0.0
 10
92.9494556866
 20
241.0034237553
 30
0.0
 10
92.5746633798
 20
240.2896032014
 30
0.0
 10
92.412070505
 20
239.8913336224
 30
0.0
  0
SPLINE
  5
419
100
AcDbEntity
  8
0
100
AcDbSpline
 62
7
  6
BYLAYER
 70
0
 71
3
 72
13
 73
9
 74
0
 42
0.0000001
 43
0.0000001
 44
0.0000000001
 40
0.0
 40
0.0
 40
0.0
 40
0.0
 40
0.2731257361
 40
0.5316302671
 40
0.6539038946
 40
0.7718178832
 40
0.8866752795
 40
1.0
 40
1.0
 40
1.0
 40
1.0
 10
101.7596948736
 20
236.9582803319
 30
0.0
 10
101.7596948736
 20
238.0299114933
 30
0.0
 10
101.4686127564
 20
240.1274498365
 30
0.0
 10
100.354245406
 20
242.4965731887
 30
0.0
 10
99.0519453459
 20
243.9732316204
 30
0.0
 10
97.9208848882
 20
244.8071082695
 30
0.0
 10
96.655466971
 20
245.3362569738
 30
0.0
 10
95.7558334072
 20
245.4579301549
 30
0.0
 10
95.3111946289
 20
245.4580935358
 30
0.0
  0
SPLINE
  5
41A
100
AcDbEntity
  8
0
100
AcDbSpline
 62
7
  6
BYLAYER
 70
0
 71
3
 72
27
 73
23
 74
0
 42
0.0000001
 43
0.0000001
 44
0.0000000001
 40
0.0
 40
0.0
 40
0.0
 40
0.0
 40
0.0032030234
 40
0.0059940211
 40
0.0096908747
 40
0.0198369796
 40
0.0336057371
 40
0.0508818513
 40
0.0715301519
 40
0.1223667567
 40
0.184937585
 40
0.2577091869
 40
0.3382782803
 40
0.4240992589
 40
0.5126244167
 40
0.6013091879
 40
0.687640502
 40
0.7691209851
 40
0.8432551715
 40
0.9075679131
 40
0.9601854697
 40
1.0
 40
1.0
 40
1.0
 40
1.0
 10
103.8086407017
 20
151.9566121574
 30
0.0
 10
103.8084738599
 20
151.9390128435
 30
0.0
 10
103.7769936213
 20
151.9136362514
 30
0.0
 10
103.7308018485
 20
151.8923515995
 30
0.0
 10
103.6433477452
 20
151.861651256
 30
0.0
 10
103.4961463825
 20
151.827229383
 30
0.0
 10
103.2730300611
 20
151.7870449267
 30
0.0
 10
102.9919127627
 20
151.7468793725
 30
0.0
 10
102.5076051339
 20
151.6885852073
 30
0.0
 10
101.7742719742
 20
151.6185502378
 30
0.0
 10
100.7543836724
 20
151.5381598511
 30
0.0
 10
99.5706994215
 20
151.4577330424
 30
0.0
 10
98.2590352473
 20
151.3767860346
 30
0.0
 10
96.8606682721
 20
151.295623246
 30
0.0
 10
95.4176426347
 20
151.2143411934
 30
0.0
 10
93.9718092267
 20
151.1330388442
 30
0.0
 10
92.564742852
 20
151.0518222474
 30
0.0
 10
91.2377513868
 20
150.9708236194
 30
0.0
 10
90.0319723593
 20
150.8902362788
 30
0.0
 10
88.9851125592
 20
150.8101661717
 30
0.0
 10
88.1275297813
 20
150.7303694397
 30
0.0
 10
87.6230019615
 20
150.6702382415
 30
0.0
 10
87.4067444111
 20
150.6371480102
 30
0.0
  0
SPLINE
  5
41B
100
AcDbEntity
  8
0
100
AcDbSpline
 62
7
  6
BYLAYER
 70
0
 71
3
 72
27
 73
23
 74
0
 42
0.0000001
 43
0.0000001
 44
0.0000000001
 40
0.0
 40
0.0
 40
0.0
 40
0.0
 40
0.0031519309
 40
0.0058368153
 40
0.009388093
 40
0.01921111
 40
0.0327577758
 40
0.0500225593
 40
0.0708253059
 40
0.1221845256
 40
0.1850867614
 40
0.2577574671
 40
0.3383551436
 40
0.4244741247
 40
0.5133950752
 40
0.602394379
 40
0.6887529253
 40
0.7699666276
 40
0.8438357484
 40
0.9081870923
 40
0.9608559342
 40
1.0
 40
1.0
 40
1.0
 40
1.0
 10
103.8019204359
 20
154.957498741
 30
0.0
 10
103.8017630053
 20
154.9401592484
 30
0.0
 10
103.7722069159
 20
154.9146609877
 30
0.0
 10
103.7276356297
 20
154.8930072567
 30
0.0
 10
103.6436456146
 20
154.8620876204
 30
0.0
 10
103.5001019615
 20
154.8273577114
 30
0.0
 10
103.2798776097
 20
154.7870626721
 30
0.0
 10
102.9988277233
 20
154.7469334211
 30
0.0
 10
102.5102613683
 20
154.6885154412
 30
0.0
 10
101.7704512657
 20
154.6185749478
 30
0.0
 10
100.7451951096
 20
154.5379665932
 30
0.0
 10
99.5586958262
 20
154.4568689522
 30
0.0
 10
98.2442191436
 20
154.3756454783
 30
0.0
 10
96.8401926245
 20
154.2943063847
 30
0.0
 10
95.389879398
 20
154.2128301021
 30
0.0
 10
93.938245351
 20
154.1313623433
 30
0.0
 10
92.5290802284
 20
154.0499025096
 30
0.0
 10
91.2032906938
 20
153.9685028866
 30
0.0
 10
89.998804673
 20
153.8874604979
 30
0.0
 10
88.9516605284
 20
153.8071730016
 30
0.0
 10
88.096202926
 20
153.7279214637
 30
0.0
 10
87.5945095636
 20
153.667318531
 30
0.0
 10
87.3817987989
 20
153.6337110138
 30
0.0
  0
SPLINE
  5
41C
100
AcDbEntity
  8
0
100
AcDbSpline
 62
7
  6
BYLAYER
 70
0
 71
3
 72
17
 73
13
 74
0
 42
0.0000001
 43
0.0000001
 44
0.0000000001
 40
0.0
 40
0.0
 40
0.0
 40
0.0
 40
0.224396757
 40
0.4240637056
 40
0.5966860004
 40
0.7400697737
 40
0.8529145297
 40
0.9343218921
 40
0.9629586043
 40
0.983436929
 40
0.9957584819
 40
1.0
 40
1.0
 40
1.0
 40
1.0
 10
103.3709291291
 20
36.2082793951
 30
0.0
 10
103.3358711822
 20
36.2078508704
 30
0.0
 10
103.269621463
 20
36.2069858276
 30
0.0
 10
103.1763957692
 20
36.2055997696
 30
0.0
 10
103.0958591904
 20
36.2042102803
 30
0.0
 10
103.0288038826
 20
36.2029202885
 30
0.0
 10
102.9762295943
 20
36.201574357
 30
0.0
 10
102.941075323
 20
36.2007092861
 30
0.0
 10
102.9211656942
 20
36.1995995977
 30
0.0
 10
102.9108125581
 20
36.199471523
 30
0.0
 10
102.9064088331
 20
36.1982720976
 30
0.0
 10
102.9024070456
 20
36.1986510712
 30
0.0
 10
102.9024067639
 20
36.197988361
 30
0.0
  0
SPLINE
  5
41D
100
AcDbEntity
  8
0
100
AcDbSpline
 62
7
  6
BYLAYER
 70
0
 71
3
 72
9
 73
5
 74
0
 42
0.0000001
 43
0.0000001
 44
0.0000000001
 40
0.0
 40
0.0
 40
0.0
 40
0.0
 40
0.2606738142
 40
1.0
 40
1.0
 40
1.0
 40
1.0
 10
88.8026518591
 20
201.791640917
 30
0.0
 10
88.8027008343
 20
201.8884686462
 30
0.0
 10
88.8316236665
 20
202.258620384
 30
0.0
 10
88.9681946488
 20
202.6259688359
 30
0.0
 10
89.1336207571
 20
202.8451777378
 30
0.0
  0
SPLINE
  5
41E
100
AcDbEntity
  8
0
100
AcDbSpline
 62
7
  6
BYLAYER
 70
0
 71
3
 72
9
 73
5
 74
0
 42
0.0000001
 43
0.0000001
 44
0.0000000001
 40
0.0
 40
0.0
 40
0.0
 40
0.0
 40
0.5201890698
 40
1.0
 40
1.0
 40
1.0
 40
1.0
 10
89.1336207571
 20
202.8451777378
 30
0.0
 10
89.2245485715
 20
202.9656677049
 30
0.0
 10
89.4412574517
 20
203.1698629977
 30
0.0
 10
89.7242876162
 20
203.272460495
 30
0.0
 10
89.8627590029
 20
203.2869972573
 30
0.0
  0
SPLINE
  5
41F
100
AcDbEntity
  8
0
100
AcDbSpline
 62
7
  6
BYLAYER
 70
0
 71
3
 72
26
 73
22
 74
0
 42
0.0000001
 43
0.0000001
 44
0.0000000001
 40
0.0
 40
0.0
 40
0.0
 40
0.0
 40
0.0031716313
 40
0.0059133063
 40
0.0095604489
 40
0.0196321548
 40
0.0333524672
 40
0.0505938852
 40
0.0712083308
 40
0.1219273417
 40
0.1842270041
 40
0.256657232
 40
0.3369523042
 40
0.4225608946
 40
0.5109292436
 40
0.59950622
 40
0.6857953353
 40
0.7673441129
 40
0.90643012
 40
0.9595694839
 40
1.0
 40
1.0
 40
1.0
 40
1.0
 10
103.8070691589
 20
220.9563631991
 30
0.0
 10
103.8069053501
 20
220.9389685837
 30
0.0
 10
103.7764216143
 20
220.9136302182
 30
0.0
 10
103.7310034743
 20
220.8922712674
 30
0.0
 10
103.6447695342
 20
220.8616418041
 30
0.0
 10
103.4987404718
 20
220.8273821217
 30
0.0
 10
103.2769166582
 20
220.7873700657
 30
0.0
 10
102.9969463815
 20
220.7473718516
 30
0.0
 10
102.5145505058
 20
220.6893150864
 30
0.0
 10
101.784882927
 20
220.6195963863
 30
0.0
 10
100.7708948657
 20
220.5394059825
 30
0.0
 10
99.5942673715
 20
220.4591994648
 30
0.0
 10
98.289567008
 20
220.3785661394
 30
0.0
 10
96.8973112602
 20
220.2976953554
 30
0.0
 10
95.4595646854
 20
220.2167176755
 30
0.0
 10
94.0180866728
 20
220.1356700256
 30
0.0
 10
92.6140495135
 20
220.0548177874
 30
0.0
 10
90.9338381953
 20
219.9520632993
 30
0.0
 10
89.4355003997
 20
219.8509620075
 30
0.0
 10
88.1647874993
 20
219.7343371417
 30
0.0
 10
87.6549112922
 20
219.6744120054
 30
0.0
 10
87.4356047294
 20
219.6415939187
 30
0.0
  0
SPLINE
  5
420
100
AcDbEntity
  8
0
100
AcDbSpline
 62
7
  6
BYLAYER
 70
0
 71
3
 72
9
 73
5
 74
0
 42
0.0000001
 43
0.0000001
 44
0.0000000001
 40
0.0
 40
0.0
 40
0.0
 40
0.0
 40
0.4999822952
 40
1.0
 40
1.0
 40
1.0
 40
1.0
 10
105.6335103987
 20
36.2380624053
 30
0.0
 10
105.2563945351
 20
36.2380624053
 30
0.0
 10
104.5021538977
 20
36.2305412125
 30
0.0
 10
103.747976627
 20
36.2182067813
 30
0.0
 10
103.3709647108
 20
36.2082803319
 30
0.0
  0
SPLINE
  5
421
100
AcDbEntity
  8
0
100
AcDbSpline
 62
7
  6
BYLAYER
 70
0
 71
3
 72
27
 73
23
 74
0
 42
0.0000001
 43
0.0000001
 44
0.0000000001
 40
0.0
 40
0.0
 40
0.0
 40
0.0
 40
0.01477792
 40
0.0288685754
 40
0.0433816166
 40
0.0588490652
 40
0.0926188354
 40
0.1281285565
 40
0.1619137687
 40
0.1775084534
 40
0.1930266493
 40
0.2085447869
 40
0.2240629234
 40
0.2550993551
 40
0.3171735339
 40
0.3792497054
 40
0.4413266574
 40
0.5034022378
 40
0.6275527912
 40
0.7517028377
 40
0.8758483571
 40
1.0
 40
1.0
 40
1.0
 40
1.0
 10
103.8091734522
 20
211.9569043469
 30
0.0
 10
103.7683590816
 20
211.886159242
 30
0.0
 10
103.6682242119
 20
211.7580877234
 30
0.0
 10
103.4666946586
 20
211.6222605508
 30
0.0
 10
103.2347038672
 20
211.5417583497
 30
0.0
 10
102.8850475453
 20
211.4890167875
 30
0.0
 10
102.4144766526
 20
211.5036882027
 30
0.0
 10
101.8487709039
 20
211.5607097057
 30
0.0
 10
101.3787104883
 20
211.5910624898
 30
0.0
 10
101.0210974186
 20
211.5592936733
 30
0.0
 10
100.7641076623
 20
211.540712815
 30
0.0
 10
100.5074978028
 20
211.5217186134
 30
0.0
 10
100.165303018
 20
211.4974087477
 30
0.0
 10
99.5663364323
 20
211.4563687428
 30
0.0
 10
98.7103773077
 20
211.4019724889
 30
0.0
 10
97.6829273032
 20
211.3413124342
 30
0.0
 10
96.6553078943
 20
211.2835065267
 30
0.0
 10
95.2851282209
 20
211.2069249125
 30
0.0
 10
93.5723900634
 20
211.1121451477
 30
0.0
 10
91.5173793273
 20
210.9919895542
 30
0.0
 10
89.4638793077
 20
210.8534729431
 30
0.0
 10
88.0959840931
 20
210.7320439672
 30
0.0
 10
87.4161812419
 20
210.6388707138
 30
0.0
  0
SPLINE
  5
422
100
AcDbEntity
  8
0
100
AcDbSpline
 62
7
  6
BYLAYER
 70
0
 71
3
 72
27
 73
23
 74
0
 42
0.0000001
 43
0.0000001
 44
0.0000000001
 40
0.0
 40
0.0
 40
0.0
 40
0.0
 40
0.0031556874
 40
0.005838799
 40
0.0093746413
 40
0.019092003
 40
0.0323778421
 40
0.0492203776
 40
0.0695869274
 40
0.1204559963
 40
0.1832150363
 40
0.2557627636
 40
0.3359884456
 40
0.4217424819
 40
0.5105166741
 40
0.5995927618
 40
0.6862497391
 40
0.7677778835
 40
0.8418227648
 40
0.9064631504
 40
0.9598112252
 40
1.0
 40
1.0
 40
1.0
 40
1.0
 10
103.8047267118
 20
217.9595572721
 30
0.0
 10
103.8045789682
 20
217.9422188426
 30
0.0
 10
103.7749150586
 20
217.91683165
 30
0.0
 10
103.7305118146
 20
217.89520755
 30
0.0
 10
103.6473061815
 20
217.8644313608
 30
0.0
 10
103.5061020296
 20
217.8297965481
 30
0.0
 10
103.2905702421
 20
217.789515935
 30
0.0
 10
103.0161133247
 20
217.7492503803
 30
0.0
 10
102.535656044
 20
217.6906033454
 30
0.0
 10
101.8026472871
 20
217.6209712643
 30
0.0
 10
100.7828308805
 20
217.5407137511
 30
0.0
 10
99.6013231018
 20
217.4599161815
 30
0.0
 10
98.2932415184
 20
217.3786530683
 30
0.0
 10
96.8958451796
 20
217.2973687938
 30
0.0
 10
95.449745032
 20
217.2160433555
 30
0.0
 10
93.9986766798
 20
217.1346974135
 30
0.0
 10
92.5874796682
 20
217.0534647514
 30
0.0
 10
91.2590055349
 20
216.9723097199
 30
0.0
 10
90.0517510349
 20
216.8912358521
 30
0.0
 10
88.9996291467
 20
216.8109004598
 30
0.0
 10
88.1341796292
 20
216.731399173
 30
0.0
 10
87.6235168571
 20
216.6715044229
 30
0.0
 10
87.4052549288
 20
216.6379971917
 30
0.0
  0
SPLINE
  5
423
100
AcDbEntity
  8
0
100
AcDbSpline
 62
7
  6
BYLAYER
 70
0
 71
3
 72
26
 73
22
 74
0
 42
0.0000001
 43
0.0000001
 44
0.0000000001
 40
0.0
 40
0.0
 40
0.0
 40
0.0
 40
0.0034428645
 40
0.0100189591
 40
0.0200804479
 40
0.0336740203
 40
0.0507877444
 40
0.071391136
 40
0.1225469866
 40
0.1853369107
 40
0.2577220836
 40
0.3376548295
 40
0.423033498
 40
0.5113682604
 40
0.599988851
 40
0.6862239249
 40
0.7674173054
 40
0.8412799138
 40
0.9059112022
 40
0.9594361551
 40
1.0
 40
1.0
 40
1.0
 40
1.0
 10
103.8042539931
 20
223.9541047046
 30
0.0
 10
103.8004927133
 20
223.9356017957
 30
0.0
 10
103.7487534258
 20
223.899683603
 30
0.0
 10
103.648769175
 20
223.8651217596
 30
0.0
 10
103.4854647748
 20
223.8248233223
 30
0.0
 10
103.266192921
 20
223.7857156081
 30
0.0
 10
102.9873282063
 20
223.7453236129
 30
0.0
 10
102.5035129526
 20
223.6873837055
 30
0.0
 10
101.7686933534
 20
223.6181085535
 30
0.0
 10
100.749963896
 20
223.5383821767
 30
0.0
 10
99.5729762411
 20
223.4580863337
 30
0.0
 10
98.2719041481
 20
223.3773731542
 30
0.0
 10
96.8831995664
 20
223.2966564359
 30
0.0
 10
95.4467785273
 20
223.2158851232
 30
0.0
 10
94.0056536534
 20
223.1350951768
 30
0.0
 10
92.6037502658
 20
223.0544155252
 30
0.0
 10
91.2829145645
 20
222.9737919732
 30
0.0
 10
90.0807986026
 20
222.8932680907
 30
0.0
 10
89.0307140654
 20
222.8134482338
 30
0.0
 10
88.163867789
 20
222.7344523654
 30
0.0
 10
87.6510977531
 20
222.6749975258
 30
0.0
 10
87.4311138203
 20
222.6418989433
 30
0.0
  0
SPLINE
  5
424
100
AcDbEntity
  8
0
100
AcDbSpline
 62
7
  6
BYLAYER
 70
0
 71
3
 72
22
 73
18
 74
0
 42
0.0000001
 43
0.0000001
 44
0.0000000001
 40
0.0
 40
0.0
 40
0.0
 40
0.0
 40
0.0525781464
 40
0.1013726982
 40
0.1563422272
 40
0.2200761948
 40
0.2909941266
 40
0.3658472507
 40
0.4407756796
 40
0.5118146253
 40
0.5753374844
 40
0.6302233625
 40
0.729674594
 40
0.7812304137
 40
0.8394093005
 40
0.9100602053
 40
1.0
 40
1.0
 40
1.0
 40
1.0
 10
103.8099056603
 20
157.9577344366
 30
0.0
 10
103.7980460983
 20
157.879541367
 30
0.0
 10
103.7437551025
 20
157.7280611136
 30
0.0
 10
103.5496606042
 20
157.5790623209
 30
0.0
 10
103.3031755135
 20
157.5129222385
 30
0.0
 10
103.01773394
 20
157.4947490698
 30
0.0
 10
102.7025884342
 20
157.5090621585
 30
0.0
 10
102.3721544138
 20
157.5410616511
 30
0.0
 10
102.0418762403
 20
157.5765698856
 30
0.0
 10
101.7277059282
 20
157.6010248766
 30
0.0
 10
101.4418756022
 20
157.6009717877
 30
0.0
 10
101.1173240459
 20
157.5447429679
 30
0.0
 10
100.8275922635
 20
157.4325509097
 30
0.0
 10
100.5222813613
 20
157.3536928123
 30
0.0
 10
100.2505055137
 20
157.3294724786
 30
0.0
 10
99.921302703
 20
157.360043002
 30
0.0
 10
99.6861993227
 20
157.4190385408
 30
0.0
 10
99.5567768833
 20
157.4584363826
 30
0.0
  0
SPLINE
  5
425
100
AcDbEntity
  8
0
100
AcDbSpline
 62
7
  6
BYLAYER
 70
0
 71
3
 72
27
 73
23
 74
0
 42
0.0000001
 43
0.0000001
 44
0.0000000001
 40
0.0
 40
0.0
 40
0.0
 40
0.0
 40
0.0031465958
 40
0.0058175488
 40
0.0093405293
 40
0.019043713
 40
0.0323530465
 40
0.0492829379
 40
0.0698039199
 40
0.120833774
 40
0.1835639122
 40
0.256031556
 40
0.3362645632
 40
0.4221015753
 40
0.5108985972
 40
0.5999337555
 40
0.6864851035
 40
0.7679055508
 40
0.8419921004
 40
0.9067087101
 40
0.9600273444
 40
1.0
 40
1.0
 40
1.0
 40
1.0
 10
103.8029788956
 20
208.9588998645
 30
0.0
 10
103.8028239269
 20
208.9416149342
 30
0.0
 10
103.7734604356
 20
208.9162078853
 30
0.0
 10
103.7292320812
 20
208.8945706929
 30
0.0
 10
103.6463007465
 20
208.8637785654
 30
0.0
 10
103.5051283381
 20
208.8291399483
 30
0.0
 10
103.2891043986
 20
208.7888706092
 30
0.0
 10
103.0132218685
 20
208.7486433617
 30
0.0
 10
102.5306035558
 20
208.6902701734
 30
0.0
 10
101.7961739791
 20
208.6205903961
 30
0.0
 10
100.7762811168
 20
208.5402822695
 30
0.0
 10
99.5955754961
 20
208.4594414721
 30
0.0
 10
98.2876978732
 20
208.3782370051
 30
0.0
 10
96.8899547589
 20
208.2970662669
 30
0.0
 10
95.443788009
 20
208.2157705643
 30
0.0
 10
93.9936910349
 20
208.1344679753
 30
0.0
 10
92.5841765498
 20
208.0532582123
 30
0.0
 10
91.2569201801
 20
207.9720350414
 30
0.0
 10
90.0498458926
 20
207.8910729802
 30
0.0
 10
88.997444967
 20
207.810824182
 30
0.0
 10
88.1330765302
 20
207.7315881724
 30
0.0
 10
87.6239027106
 20
207.6714499016
 30
0.0
 10
87.4068819537
 20
207.6379752517
 30
0.0
  0
SPLINE
  5
426
100
AcDbEntity
  8
0
100
AcDbSpline
 62
7
  6
BYLAYER
 70
0
 71
3
 72
20
 73
16
 74
0
 42
0.0000001
 43
0.0000001
 44
0.0000000001
 40
0.0
 40
0.0
 40
0.0
 40
0.0
 40
0.007271411
 40
0.0137761282
 40
0.0224379293
 40
0.0463893876
 40
0.0792238102
 40
0.1208750046
 40
0.1712109295
 40
0.2297426682
 40
0.29572519
 40
0.4470172751
 40
0.6190180688
 40
0.8056129381
 40
1.0
 40
1.0
 40
1.0
 40
1.0
 10
103.8042450066
 20
124.9595973895
 30
0.0
 10
103.8040590684
 20
124.9388596225
 30
0.0
 10
103.7640326617
 20
124.9103998451
 30
0.0
 10
103.7084097292
 20
124.8863441893
 30
0.0
 10
103.6005875198
 20
124.8512722319
 30
0.0
 10
103.419026834
 20
124.8120072974
 30
0.0
 10
103.1414790991
 20
124.7661926002
 30
0.0
 10
102.7885687562
 20
124.720449086
 30
0.0
 10
102.3616810154
 20
124.6743008522
 30
0.0
 10
101.8651527506
 20
124.6280563379
 30
0.0
 10
101.0811991146
 20
124.5631256868
 30
0.0
 10
99.9737487237
 20
124.4841068605
 30
0.0
 10
98.5224095251
 20
124.3922298264
 30
0.0
 10
96.9479478105
 20
124.3001656066
 30
0.0
 10
95.8630705686
 20
124.2392066656
 30
0.0
 10
95.309537049
 20
124.208111392
 30
0.0
  0
SPLINE
  5
427
100
AcDbEntity
  8
0
100
AcDbSpline
 62
7
  6
BYLAYER
 70
0
 71
3
 72
27
 73
23
 74
0
 42
0.0000001
 43
0.0000001
 44
0.0000000001
 40
0.0
 40
0.0
 40
0.0
 40
0.0
 40
0.0031488699
 40
0.0058309249
 40
0.0093788411
 40
0.0191948911
 40
0.0327358182
 40
0.049978318
 40
0.0707373271
 40
0.1219651835
 40
0.1847120229
 40
0.2572448289
 40
0.3377333469
 40
0.4237341704
 40
0.5125461965
 40
0.6014665156
 40
0.6878025384
 40
0.7690962281
 40
0.8431226524
 40
0.9076703954
 40
0.9605381886
 40
1.0
 40
1.0
 40
1.0
 40
1.0
 10
103.802339983
 20
160.9574025301
 30
0.0
 10
103.8021783526
 20
160.9400960466
 30
0.0
 10
103.7726914213
 20
160.9146436029
 30
0.0
 10
103.7282041013
 20
160.8930268441
 30
0.0
 10
103.6443627836
 20
160.8621604671
 30
0.0
 10
103.5010348892
 20
160.8274912572
 30
0.0
 10
103.2812003454
 20
160.7872982523
 30
0.0
 10
103.000806896
 20
160.7472347043
 30
0.0
 10
102.5137821278
 20
160.6889220415
 30
0.0
 10
101.7764817357
 20
160.6190876232
 30
0.0
 10
100.7545169558
 20
160.5386078616
 30
0.0
 10
99.5713344589
 20
160.4576584409
 30
0.0
 10
98.2600866135
 20
160.3766106481
 30
0.0
 10
96.8592150492
 20
160.2954078559
 30
0.0
 10
95.411933371
 20
160.2140728524
 30
0.0
 10
93.9628058236
 20
160.1327436174
 30
0.0
 10
92.5550688417
 20
160.0514010971
 30
0.0
 10
91.2293264609
 20
159.9701580075
 30
0.0
 10
90.0235674182
 20
159.8892663927
 30
0.0
 10
88.9743467011
 20
159.8091495154
 30
0.0
 10
88.115748281
 20
159.7299288393
 30
0.0
 10
87.6116706925
 20
159.6694169824
 30
0.0
 10
87.3973621185
 20
159.6360195297
 30
0.0
  0
SPLINE
  5
428
100
AcDbEntity
  8
0
100
AcDbSpline
 62
7
  6
BYLAYER
 70
0
 71
3
 72
27
 73
23
 74
0
 42
0.0000001
 43
0.0000001
 44
0.0000000001
 40
0.0
 40
0.0
 40
0.0
 40
0.0
 40
0.0031846381
 40
0.005910725
 40
0.0095023348
 40
0.0193499861
 40
0.0327596399
 40
0.0496829466
 40
0.0700510855
 40
0.1207969693
 40
0.1837112228
 40
0.2565718438
 40
0.3370749236
 40
0.4229122872
 40
0.5116996759
 40
0.6007945363
 40
0.6874983774
 40
0.7691134819
 40
0.843014506
 40
0.9072172803
 40
0.9600841875
 40
1.0
 40
1.0
 40
1.0
 40
1.0
 10
103.8077941771
 20
163.9596643816
 30
0.0
 10
103.8076405753
 20
163.9421445743
 30
0.0
 10
103.777039118
 20
163.9167746354
 30
0.0
 10
103.7319211435
 20
163.8951749949
 30
0.0
 10
103.6472010593
 20
163.8643635296
 30
0.0
 10
103.5041173208
 20
163.8296866889
 30
0.0
 10
103.2864223144
 20
163.7893238489
 30
0.0
 10
103.0104834778
 20
163.7489731961
 30
0.0
 10
102.5296470656
 20
163.690168627
 30
0.0
 10
101.7955561487
 20
163.6200386645
 30
0.0
 10
100.7725184093
 20
163.5398206743
 30
0.0
 10
99.5853928342
 20
163.458907917
 30
0.0
 10
98.2719269983
 20
163.3775442853
 30
0.0
 10
96.8706955262
 20
163.2959834981
 30
0.0
 10
95.4221192296
 20
163.2144412648
 30
0.0
 10
93.9687679345
 20
163.1329042111
 30
0.0
 10
92.5549340332
 20
163.0514554453
 30
0.0
 10
91.2248137463
 20
162.970274441
 30
0.0
 10
90.0187418395
 20
162.8891055944
 30
0.0
 10
88.9711539862
 20
162.8084714037
 30
0.0
 10
88.1111991162
 20
162.7286437061
 30
0.0
 10
87.604084321
 20
162.6685346308
 30
0.0
 10
87.3870492987
 20
162.6350736185
 30
0.0
  0
SPLINE
  5
429
100
AcDbEntity
  8
0
100
AcDbSpline
 62
7
  6
BYLAYER
 70
0
 71
3
 72
27
 73
23
 74
0
 42
0.0000001
 43
0.0000001
 44
0.0000000001
 40
0.0
 40
0.0
 40
0.0
 40
0.0
 40
0.0032277892
 40
0.0060286694
 40
0.0097225275
 40
0.0198311322
 40
0.0335359877
 40
0.0507415359
 40
0.0713324939
 40
0.1221735954
 40
0.1850031795
 40
0.2580153671
 40
0.3387413698
 40
0.4246845427
 40
0.5133461082
 40
0.6022030973
 40
0.6886783145
 40
0.7701876449
 40
0.8441489057
 40
0.908110544
 40
0.9604728059
 40
1.0
 40
1.0
 40
1.0
 40
1.0
 10
103.8098682542
 20
127.9576246155
 30
0.0
 10
103.8097052029
 20
127.9398640594
 30
0.0
 10
103.7775696017
 20
127.9146240893
 30
0.0
 10
103.7312856002
 20
127.8931843085
 30
0.0
 10
103.6438497521
 20
127.8624259305
 30
0.0
 10
103.4970912549
 20
127.8278331937
 30
0.0
 10
103.2746180708
 20
127.7875131736
 30
0.0
 10
102.9941873906
 20
127.747200126
 30
0.0
 10
102.5098950427
 20
127.6886506742
 30
0.0
 10
101.7744025475
 20
127.6183182162
 30
0.0
 10
100.7502799494
 20
127.5379170124
 30
0.0
 10
99.5613119206
 20
127.4572199775
 30
0.0
 10
98.2449355506
 20
127.3759884204
 30
0.0
 10
96.8423080184
 20
127.2945425827
 30
0.0
 10
95.3948732994
 20
127.2129900904
 30
0.0
 10
93.9445048072
 20
127.1314606363
 30
0.0
 10
92.5335502379
 20
127.0500299978
 30
0.0
 10
91.2046860704
 20
126.9688249772
 30
0.0
 10
89.999935633
 20
126.8880368058
 30
0.0
 10
88.9559179656
 20
126.8075160104
 30
0.0
 10
88.1020695111
 20
126.727561729
 30
0.0
 10
87.5998279647
 20
126.6673117879
 30
0.0
 10
87.3848918455
 20
126.6339934262
 30
0.0
  0
SPLINE
  5
42A
100
AcDbEntity
  8
0
100
AcDbSpline
 62
7
  6
BYLAYER
 70
0
 71
3
 72
22
 73
18
 74
0
 42
0.0000001
 43
0.0000001
 44
0.0000000001
 40
0.0
 40
0.0
 40
0.0
 40
0.0
 40
0.0028511493
 40
0.0075513755
 40
0.0146491121
 40
0.0242758392
 40
0.0510084496
 40
0.0873253731
 40
0.1326649594
 40
0.186434106
 40
0.2480276163
 40
0.3168320333
 40
0.3920353702
 40
0.4724966708
 40
0.6444986394
 40
0.8234432123
 40
1.0
 40
1.0
 40
1.0
 40
1.0
 10
103.8066873927
 20
214.956360213
 30
0.0
 10
103.8065946327
 20
214.9459338103
 30
0.0
 10
103.7886147529
 20
214.9207169986
 30
0.0
 10
103.7412263599
 20
214.8962737093
 30
0.0
 10
103.6673591747
 20
214.8690636937
 30
0.0
 10
103.5134364501
 20
214.8293808496
 30
0.0
 10
103.2515355601
 20
214.782395079
 30
0.0
 10
102.8587699555
 20
214.7290513737
 30
0.0
 10
102.3663994877
 20
214.6750566941
 30
0.0
 10
101.7812216654
 20
214.6206215995
 30
0.0
 10
101.1099205757
 20
214.5659526534
 30
0.0
 10
100.3600158162
 20
214.5112022635
 30
0.0
 10
99.540943599
 20
214.4564530015
 30
0.0
 10
98.3449830381
 20
214.3816473821
 30
0.0
 10
96.769948951
 20
214.2901701946
 30
0.0
 10
94.8438574402
 20
214.1823272153
 30
0.0
 10
93.5458524759
 20
214.1087197522
 30
0.0
 10
92.9012814129
 20
214.0709242767
 30
0.0
  0
SPLINE
  5
42B
100
AcDbEntity
  8
0
100
AcDbSpline
 62
7
  6
BYLAYER
 70
0
 71
3
 72
11
 73
7
 74
0
 42
0.0000001
 43
0.0000001
 44
0.0000000001
 40
0.0
 40
0.0
 40
0.0
 40
0.0
 40
0.3214314627
 40
0.6048514519
 40
0.8344216748
 40
1.0
 40
1.0
 40
1.0
 40
1.0
 10
92.9012814129
 20
214.0709242767
 30
0.0
 10
92.3136186844
 20
214.0364657141
 30
0.0
 10
91.2079168436
 20
213.9696420243
 30
0.0
 10
89.6831536676
 20
213.866487313
 30
0.0
 10
88.4447426324
 20
213.7637055117
 30
0.0
 10
87.7249314791
 20
213.6852777175
 30
0.0
 10
87.4250869181
 20
213.6400160269
 30
0.0
  0
SPLINE
  5
42C
100
AcDbEntity
  8
0
100
AcDbSpline
 62
7
  6
BYLAYER
 70
0
 71
3
 72
9
 73
5
 74
0
 42
0.0000001
 43
0.0000001
 44
0.0000000001
 40
0.0
 40
0.0
 40
0.0
 40
0.0
 40
0.5198126014
 40
1.0
 40
1.0
 40
1.0
 40
1.0
 10
105.172762629
 20
71.2380624053
 30
0.0
 10
104.7503091786
 20
71.2380624053
 30
0.0
 10
103.9376413792
 20
71.2289861565
 30
0.0
 10
103.1250005097
 20
71.2156360621
 30
0.0
 10
102.7349476923
 20
71.203234631
 30
0.0
  0
SPLINE
  5
42D
100
AcDbEntity
  8
0
100
AcDbSpline
 62
7
  6
BYLAYER
 70
0
 71
3
 72
14
 73
10
 74
0
 42
0.0000001
 43
0.0000001
 44
0.0000000001
 40
0.0
 40
0.0
 40
0.0
 40
0.0
 40
0.4288608852
 40
0.6008062447
 40
0.7430119648
 40
0.8544367015
 40
0.9344465363
 40
0.9828805358
 40
1.0
 40
1.0
 40
1.0
 40
1.0
 10
102.7349476923
 20
71.203234631
 30
0.0
 10
102.6929594952
 20
71.2018996484
 30
0.0
 10
102.6340782301
 20
71.1999152808
 30
0.0
 10
102.5614981912
 20
71.1968087828
 30
0.0
 10
102.5195678197
 20
71.1949045671
 30
0.0
 10
102.487701975
 20
71.1926479795
 30
0.0
 10
102.4625381571
 20
71.191608897
 30
0.0
 10
102.4514467799
 20
71.1887091362
 30
0.0
 10
102.4418286605
 20
71.1888969173
 30
0.0
 10
102.44179504
 20
71.1872203035
 30
0.0
  0
SPLINE
  5
42E
100
AcDbEntity
  8
0
100
AcDbSpline
 62
7
  6
BYLAYER
 70
0
 71
3
 72
26
 73
22
 74
0
 42
0.0000001
 43
0.0000001
 44
0.0000000001
 40
0.0
 40
0.0
 40
0.0
 40
0.0
 40
0.0307832401
 40
0.0613594234
 40
0.0925574102
 40
0.1244738627
 40
0.1567581724
 40
0.1888676832
 40
0.2046912593
 40
0.2203195266
 40
0.2515056105
 40
0.3138777078
 40
0.3762505814
 40
0.438624341
 40
0.5009984346
 40
0.6257465865
 40
0.7505025287
 40
0.8128770433
 40
0.8752483294
 40
0.9376197242
 40
1.0
 40
1.0
 40
1.0
 40
1.0
 10
103.8055737258
 20
166.9563172862
 30
0.0
 10
103.6641393622
 20
166.8629980943
 30
0.0
 10
103.3588582527
 20
166.7105135557
 30
0.0
 10
102.8636738228
 20
166.5806807579
 30
0.0
 10
102.349883118
 20
166.5240383569
 30
0.0
 10
101.8245474493
 20
166.5136640155
 30
0.0
 10
101.2945282286
 20
166.5245492576
 30
0.0
 10
100.8529603304
 20
166.5307579463
 30
0.0
 10
100.5030833707
 20
166.5222553645
 30
0.0
 10
100.159110071
 20
166.4978217704
 30
0.0
 10
99.5594826466
 20
166.4573931099
 30
0.0
 10
98.7028870026
 20
166.4026437777
 30
0.0
 10
97.6747253697
 20
166.341244902
 30
0.0
 10
96.6463911743
 20
166.2825219329
 30
0.0
 10
95.2751581911
 20
166.206241719
 30
0.0
 10
93.5611255868
 20
166.1100081862
 30
0.0
 10
91.847112395
 20
166.0130461295
 30
0.0
 10
90.4766313083
 20
165.9236411079
 30
0.0
 10
89.4494549683
 20
165.8471826389
 30
0.0
 10
88.4229963984
 20
165.7621840594
 30
0.0
 10
87.7400975789
 20
165.6865968068
 30
0.0
 10
87.4004490681
 20
165.6361613727
 30
0.0
  0
SPLINE
  5
42F
100
AcDbEntity
  8
0
100
AcDbSpline
 62
7
  6
BYLAYER
 70
0
 71
3
 72
28
 73
24
 74
0
 42
0.0000001
 43
0.0000001
 44
0.0000000001
 40
0.0
 40
0.0
 40
0.0
 40
0.0
 40
0.0149369085
 40
0.0292624776
 40
0.0591593767
 40
0.0923452889
 40
0.1097477189
 40
0.1272387098
 40
0.1444481621
 40
0.1610283167
 40
0.1689942136
 40
0.1767725706
 40
0.1923047262
 40
0.2233688574
 40
0.2544330947
 40
0.2854976927
 40
0.3165627716
 40
0.378694271
 40
0.5029579503
 40
0.6272198693
 40
0.7514817106
 40
0.8757384619
 40
1.0
 40
1.0
 40
1.0
 40
1.0
 10
103.8088818565
 20
205.9567484379
 30
0.0
 10
103.7626755274
 20
205.8884656511
 30
0.0
 10
103.6541325216
 20
205.7656003425
 30
0.0
 10
103.3760350025
 20
205.5876070822
 30
0.0
 10
102.9488078184
 20
205.493658248
 30
0.0
 10
102.5042451483
 20
205.4998148538
 30
0.0
 10
102.1293448693
 20
205.5262735061
 30
0.0
 10
101.8427922975
 20
205.5506518349
 30
0.0
 10
101.5604248066
 20
205.5705885485
 30
0.0
 10
101.3298612209
 20
205.5768984593
 30
0.0
 10
101.1514716513
 20
205.5707388341
 30
0.0
 10
100.9794083681
 20
205.5564119481
 30
0.0
 10
100.6800787309
 20
205.5346085557
 30
0.0
 10
100.2525465535
 20
205.503407183
 30
0.0
 10
99.739340633
 20
205.4684119484
 30
0.0
 10
99.2260302871
 20
205.4348882187
 30
0.0
 10
98.5414809016
 20
205.3920909659
 30
0.0
 10
97.3432497261
 20
205.3213289626
 30
0.0
 10
95.6311390981
 20
205.2263402237
 30
0.0
 10
93.5766559257
 20
205.1122077579
 30
0.0
 10
91.5223938089
 20
204.992627881
 30
0.0
 10
89.4697498565
 20
204.8535296727
 30
0.0
 10
88.1022628768
 20
204.7332491031
 30
0.0
 10
87.4227684477
 20
204.6398228256
 30
0.0
  0
SPLINE
  5
430
100
AcDbEntity
  8
0
100
AcDbSpline
 62
7
  6
BYLAYER
 70
0
 71
3
 72
27
 73
23
 74
0
 42
0.0000001
 43
0.0000001
 44
0.0000000001
 40
0.0
 40
0.0
 40
0.0
 40
0.0
 40
0.003159296
 40
0.005862262
 40
0.0094449839
 40
0.0193821527
 40
0.0330964365
 40
0.0504703798
 40
0.0713170363
 40
0.1226403486
 40
0.185463608
 40
0.2581591053
 40
0.3388479444
 40
0.4249606264
 40
0.5138050412
 40
0.6026881782
 40
0.6889471577
 40
0.7701730949
 40
0.8440854746
 40
0.908408503
 40
0.9608933169
 40
1.0
 40
1.0
 40
1.0
 40
1.0
 10
103.8030975057
 20
130.9567440991
 30
0.0
 10
103.8029307708
 20
130.9393662637
 30
0.0
 10
103.7730761417
 20
130.9138787084
 30
0.0
 10
103.7281848888
 20
130.8922805347
 30
0.0
 10
103.6432262789
 20
130.8613428646
 30
0.0
 10
103.4979304186
 20
130.826686589
 30
0.0
 10
103.275511227
 20
130.7865676332
 30
0.0
 10
102.9927268649
 20
130.7463940872
 30
0.0
 10
102.5035624974
 20
130.6880377526
 30
0.0
 10
101.764241481
 20
130.6180553893
 30
0.0
 10
100.7396065484
 20
130.5374235279
 30
0.0
 10
99.5530402489
 20
130.456420818
 30
0.0
 10
98.2381087944
 20
130.37534569
 30
0.0
 10
96.8342046399
 20
130.2940299542
 30
0.0
 10
95.3851602113
 20
130.212599249
 30
0.0
 10
93.9353095489
 20
130.131166629
 30
0.0
 10
92.5274361844
 20
130.0497010164
 30
0.0
 10
91.2020434265
 20
129.9684040993
 30
0.0
 10
89.9975470212
 20
129.8874534329
 30
0.0
 10
88.9514479252
 20
129.8073542829
 30
0.0
 10
88.0974839246
 20
129.7279321659
 30
0.0
 10
87.5970885861
 20
129.6673198271
 30
0.0
 10
87.3845898529
 20
129.6338540996
 30
0.0
  0
SPLINE
  5
431
100
AcDbEntity
  8
0
100
AcDbSpline
 62
7
  6
BYLAYER
 70
0
 71
3
 72
27
 73
23
 74
0
 42
0.0000001
 43
0.0000001
 44
0.0000000001
 40
0.0
 40
0.0
 40
0.0
 40
0.0
 40
0.0031596653
 40
0.0058463386
 40
0.0093874679
 40
0.0191225441
 40
0.0324388048
 40
0.049328208
 40
0.0697617812
 40
0.1208037531
 40
0.1837553439
 40
0.2564967489
 40
0.3368987375
 40
0.4227991292
 40
0.5116913096
 40
0.6008437065
 40
0.6875207941
 40
0.7689922695
 40
0.8428440475
 40
0.9071835845
 40
0.9601743286
 40
1.0
 40
1.0
 40
1.0
 40
1.0
 10
103.8038444978
 20
133.9595409913
 30
0.0
 10
103.8036865973
 20
133.9421605824
 30
0.0
 10
103.7739521521
 20
133.9167187174
 30
0.0
 10
103.7294318416
 20
133.8950435656
 30
0.0
 10
103.645986442
 20
133.8641939304
 30
0.0
 10
103.5043253467
 20
133.8294776024
 30
0.0
 10
103.2880189157
 20
133.7891049178
 30
0.0
 10
103.012446724
 20
133.7487474314
 30
0.0
 10
102.5298472748
 20
133.6899775144
 30
0.0
 10
101.793601567
 20
133.620204165
 30
0.0
 10
100.76951978
 20
133.5397650779
 30
0.0
 10
99.5835407815
 20
133.4587887175
 30
0.0
 10
98.2710961614
 20
133.3773426893
 30
0.0
 10
96.8696505691
 20
133.2958684749
 30
0.0
 10
95.4199948908
 20
133.2143636474
 30
0.0
 10
93.9660606132
 20
133.132840485
 30
0.0
 10
92.5530065381
 20
133.0514311626
 30
0.0
 10
91.2242537338
 20
132.9701407854
 30
0.0
 10
90.0186356987
 20
132.8888830225
 30
0.0
 10
88.9699896428
 20
132.8083719404
 30
0.0
 10
88.1091858788
 20
132.72867678
 30
0.0
 10
87.6019195522
 20
132.6686432935
 30
0.0
 10
87.3854411618
 20
132.6349901385
 30
0.0
  0
SPLINE
  5
432
100
AcDbEntity
  8
0
100
AcDbSpline
 62
7
  6
BYLAYER
 70
0
 71
3
 72
9
 73
5
 74
0
 42
0.0000001
 43
0.0000001
 44
0.0000000001
 40
0.0
 40
0.0
 40
0.0
 40
0.0
 40
0.2817027437
 40
1.0
 40
1.0
 40
1.0
 40
1.0
 10
99.5129539552
 20
228.2063930752
 30
0.0
 10
99.5813291415
 20
227.9048715927
 30
0.0
 10
99.8517365846
 20
226.8406975423
 30
0.0
 10
100.1987654894
 20
225.7980631948
 30
0.0
 10
100.4615084265
 20
225.0547832279
 30
0.0
  0
SPLINE
  5
433
100
AcDbEntity
  8
0
100
AcDbSpline
 62
7
  6
BYLAYER
 70
0
 71
3
 72
23
 73
19
 74
0
 42
0.0000001
 43
0.0000001
 44
0.0000000001
 40
0.0
 40
0.0
 40
0.0
 40
0.0
 40
0.0029176377
 40
0.0052700202
 40
0.0083342678
 40
0.0167048168
 40
0.0281354395
 40
0.0602323247
 40
0.1043698074
 40
0.1593025007
 40
0.2235401672
 40
0.2955822885
 40
0.373923443
 40
0.4569150348
 40
0.5425600263
 40
0.7136091655
 40
0.8708368873
 40
1.0
 40
1.0
 40
1.0
 40
1.0
 10
103.8031787286
 20
202.9590316398
 30
0.0
 10
103.8030492629
 20
202.9443695399
 30
0.0
 10
103.7811241291
 20
202.9218737984
 30
0.0
 10
103.7455780716
 20
202.9022302028
 30
0.0
 10
103.6810260157
 20
202.8751238579
 30
0.0
 10
103.5704420227
 20
202.844361108
 30
0.0
 10
103.3149199995
 20
202.7907464929
 30
0.0
 10
102.8784152331
 20
202.7295046949
 30
0.0
 10
102.2229435074
 20
202.6594068867
 30
0.0
 10
101.4052403861
 20
202.5886845576
 30
0.0
 10
100.4469574766
 20
202.5171235188
 30
0.0
 10
99.3707610802
 20
202.4452610803
 30
0.0
 10
98.2001411098
 20
202.3732180572
 30
0.0
 10
96.9610359606
 20
202.3012142657
 30
0.0
 10
95.2566437519
 20
202.2051203375
 30
0.0
 10
93.1796767947
 20
202.0894213179
 30
0.0
 10
90.8850042925
 20
201.9507632096
 30
0.0
 10
89.449258007
 20
201.8483257773
 30
0.0
 10
88.8026249296
 20
201.7916403324
 30
0.0
  0
SPLINE
  5
434
100
AcDbEntity
  8
0
100
AcDbSpline
 62
7
  6
BYLAYER
 70
0
 71
3
 72
9
 73
5
 74
0
 42
0.0000001
 43
0.0000001
 44
0.0000000001
 40
0.0
 40
0.0
 40
0.0
 40
0.0
 40
0.4916490523
 40
1.0
 40
1.0
 40
1.0
 40
1.0
 10
88.879049585
 20
117.2082803319
 30
0.0
 10
88.8790497788
 20
117.6552994392
 30
0.0
 10
88.9572023722
 20
118.5652968223
 30
0.0
 10
89.1600614789
 20
119.4544631343
 30
0.0
 10
89.2910908183
 20
119.8977064704
 30
0.0
  0
SPLINE
  5
435
100
AcDbEntity
  8
0
100
AcDbSpline
 62
7
  6
BYLAYER
 70
0
 71
3
 72
9
 73
5
 74
0
 42
0.0000001
 43
0.0000001
 44
0.0000000001
 40
0.0
 40
0.0
 40
0.0
 40
0.0
 40
0.2485839983
 40
1.0
 40
1.0
 40
1.0
 40
1.0
 10
89.2910908183
 20
119.8977064704
 30
0.0
 10
89.3414954131
 20
120.0682140902
 30
0.0
 10
89.5610249861
 20
120.7490161573
 30
0.0
 10
89.847470329
 20
121.4086151078
 30
0.0
 10
90.1003481922
 20
121.8828643421
 30
0.0
  0
SPLINE
  5
436
100
AcDbEntity
  8
0
100
AcDbSpline
 62
7
  6
BYLAYER
 70
0
 71
3
 72
11
 73
7
 74
0
 42
0.0000001
 43
0.0000001
 44
0.0000000001
 40
0.0
 40
0.0
 40
0.0
 40
0.0
 40
0.2390050242
 40
0.4797041635
 40
0.730037988
 40
1.0
 40
1.0
 40
1.0
 40
1.0
 10
90.1003481922
 20
121.8828643421
 30
0.0
 10
90.3506502641
 20
122.352282916
 30
0.0
 10
90.9290999869
 20
123.2570384253
 30
0.0
 10
92.0649447185
 20
124.4379412863
 30
0.0
 10
93.5380103125
 20
125.3231798038
 30
0.0
 10
94.7090741571
 20
125.5476907427
 30
0.0
 10
95.3099453081
 20
125.5433620786
 30
0.0
  0
SPLINE
  5
437
100
AcDbEntity
  8
0
100
AcDbSpline
 62
7
  6
BYLAYER
 70
0
 71
3
 72
9
 73
5
 74
0
 42
0.0000001
 43
0.0000001
 44
0.0000000001
 40
0.0
 40
0.0
 40
0.0
 40
0.0
 40
0.5198126014
 40
1.0
 40
1.0
 40
1.0
 40
1.0
 10
104.9950456321
 20
84.7380624053
 30
0.0
 10
104.5725921818
 20
84.7380624053
 30
0.0
 10
103.7599243824
 20
84.7289861565
 30
0.0
 10
102.9472835129
 20
84.7156360621
 30
0.0
 10
102.5572306954
 20
84.703234631
 30
0.0
  0
SPLINE
  5
438
100
AcDbEntity
  8
0
100
AcDbSpline
 62
7
  6
BYLAYER
 70
0
 71
3
 72
14
 73
10
 74
0
 42
0.0000001
 43
0.0000001
 44
0.0000000001
 40
0.0
 40
0.0
 40
0.0
 40
0.0
 40
0.4288608852
 40
0.6008062447
 40
0.7430119648
 40
0.8544367015
 40
0.9344465363
 40
0.9828805358
 40
1.0
 40
1.0
 40
1.0
 40
1.0
 10
102.5572306954
 20
84.703234631
 30
0.0
 10
102.5152424983
 20
84.7018996484
 30
0.0
 10
102.4563612332
 20
84.6999152808
 30
0.0
 10
102.3837811944
 20
84.6968087828
 30
0.0
 10
102.3418508229
 20
84.6949045671
 30
0.0
 10
102.3099849782
 20
84.6926479795
 30
0.0
 10
102.2848211602
 20
84.691608897
 30
0.0
 10
102.2737297831
 20
84.6887091362
 30
0.0
 10
102.2641116636
 20
84.6888969173
 30
0.0
 10
102.2640780431
 20
84.6872203035
 30
0.0
  0
SPLINE
  5
439
100
AcDbEntity
  8
0
100
AcDbSpline
 62
7
  6
BYLAYER
 70
0
 71
3
 72
27
 73
23
 74
0
 42
0.0000001
 43
0.0000001
 44
0.0000000001
 40
0.0
 40
0.0
 40
0.0
 40
0.0
 40
0.0307519246
 40
0.0612922165
 40
0.0924856075
 40
0.1244341652
 40
0.1567743954
 40
0.1889420678
 40
0.2047880544
 40
0.220424779
 40
0.2516066479
 40
0.2827884405
 40
0.3139703295
 40
0.376334721
 40
0.4387000005
 40
0.5010656492
 40
0.6257968709
 40
0.7505373251
 40
0.8129039899
 40
0.8752668561
 40
0.9376296567
 40
1.0
 40
1.0
 40
1.0
 40
1.0
 10
103.8056139023
 20
136.9562656788
 30
0.0
 10
103.6652527073
 20
136.8615431183
 30
0.0
 10
103.3613188062
 20
136.706626862
 30
0.0
 10
102.8666824719
 20
136.5751271499
 30
0.0
 10
102.3527218235
 20
136.5183583446
 30
0.0
 10
101.8267121395
 20
136.5088791496
 30
0.0
 10
101.295735035
 20
136.5213202442
 30
0.0
 10
100.8532914223
 20
136.5290022701
 30
0.0
 10
100.5027684795
 20
136.5218103286
 30
0.0
 10
100.1584766381
 20
136.4980245288
 30
0.0
 10
99.7299937758
 20
136.4688328881
 30
0.0
 10
99.2159688647
 20
136.4354151667
 30
0.0
 10
98.5305170963
 20
136.392366058
 30
0.0
 10
97.6735288339
 20
136.3411513969
 30
0.0
 10
96.6449806783
 20
136.2824011936
 30
0.0
 10
95.2734566257
 20
136.2061278379
 30
0.0
 10
93.559063146
 20
136.1097322506
 30
0.0
 10
91.8446543797
 20
136.01313823
 30
0.0
 10
90.4738628142
 20
135.9238896025
 30
0.0
 10
89.4464666032
 20
135.8473266161
 30
0.0
 10
88.4198767485
 20
135.7616241163
 30
0.0
 10
87.7367533706
 20
135.6865817128
 30
0.0
 10
87.3971288184
 20
135.6355505517
 30
0.0
  0
SPLINE
  5
43A
100
AcDbEntity
  8
0
100
AcDbSpline
 62
7
  6
BYLAYER
 70
0
 71
3
 72
9
 73
5
 74
0
 42
0.0000001
 43
0.0000001
 44
0.0000000001
 40
0.0
 40
0.0
 40
0.0
 40
0.0
 40
0.748233449
 40
1.0
 40
1.0
 40
1.0
 40
1.0
 10
88.3308199165
 20
167.0445627213
 30
0.0
 10
88.1277474339
 20
167.057714988
 30
0.0
 10
87.8560434189
 20
167.1358374478
 30
0.0
 10
87.6239678231
 20
167.2782151854
 30
0.0
 10
87.5681966351
 20
167.3179412562
 30
0.0
  0
SPLINE
  5
43B
100
AcDbEntity
  8
0
100
AcDbSpline
 62
7
  6
BYLAYER
 70
0
 71
3
 72
27
 73
23
 74
0
 42
0.0000001
 43
0.0000001
 44
0.0000000001
 40
0.0
 40
0.0
 40
0.0
 40
0.0
 40
0.0031530642
 40
0.0058319692
 40
0.009367331
 40
0.0191120711
 40
0.0324910875
 40
0.0495255851
 40
0.0701747417
 40
0.1214682463
 40
0.1844659644
 40
0.257198801
 40
0.3376882287
 40
0.4237545723
 40
0.5127273414
 40
0.6018606789
 40
0.6884086783
 40
0.7696917061
 40
0.8434950212
 40
0.9078072062
 40
0.9606256638
 40
1.0
 40
1.0
 40
1.0
 40
1.0
 10
103.802049393
 20
139.9586949457
 30
0.0
 10
103.8018884298
 20
139.9413447615
 30
0.0
 10
103.7723702051
 20
139.9158556321
 30
0.0
 10
103.7279251469
 20
139.8941572407
 30
0.0
 10
103.6445013669
 20
139.8632569727
 30
0.0
 10
103.5024027926
 20
139.8285064077
 30
0.0
 10
103.2848082234
 20
139.7881057772
 30
0.0
 10
103.0067757452
 20
139.7477725081
 30
0.0
 10
102.5205817104
 20
139.6892545861
 30
0.0
 10
101.7812570677
 20
139.6193422853
 30
0.0
 10
100.7552243478
 20
139.5387743123
 30
0.0
 10
99.5681451318
 20
139.4576696758
 30
0.0
 10
98.2538862654
 20
139.3762112571
 30
0.0
 10
96.850100891
 20
139.2947898973
 30
0.0
 10
95.398680925
 20
139.2132436801
 30
0.0
 10
93.9446061801
 20
139.1316931958
 30
0.0
 10
92.5329093939
 20
139.0502463376
 30
0.0
 10
91.205714384
 20
138.9687885807
 30
0.0
 10
90.0011246036
 20
138.887571795
 30
0.0
 10
88.9534708883
 20
138.8071135548
 30
0.0
 10
88.0959392962
 20
138.7276398675
 30
0.0
 10
87.5919603739
 20
138.6673770879
 30
0.0
 10
87.3779403567
 20
138.6335794834
 30
0.0
  0
SPLINE
  5
43C
100
AcDbEntity
  8
0
100
AcDbSpline
 62
7
  6
BYLAYER
 70
0
 71
3
 72
15
 73
11
 74
0
 42
0.0000001
 43
0.0000001
 44
0.0000000001
 40
0.0
 40
0.0
 40
0.0
 40
0.0
 40
0.1278192807
 40
0.2774936659
 40
0.43756702
 40
0.5954001201
 40
0.7385231469
 40
0.8012619435
 40
0.8567293244
 40
1.0
 40
1.0
 40
1.0
 40
1.0
 10
90.1047817018
 20
241.2082803319
 30
0.0
 10
90.22495394
 20
241.2082803319
 30
0.0
 10
90.4857327257
 20
241.1788797366
 30
0.0
 10
90.8855780462
 20
241.0790426061
 30
0.0
 10
91.2986733729
 20
240.9263618787
 30
0.0
 10
91.688334167
 20
240.7339242201
 30
0.0
 10
91.9759531025
 20
240.5491167646
 30
0.0
 10
92.1666415588
 20
240.3901372592
 30
0.0
 10
92.3347452186
 20
240.2225407003
 30
0.0
 10
92.4628542138
 20
240.0160929792
 30
0.0
 10
92.4120642065
 20
239.8913361929
 30
0.0
  0
SPLINE
  5
43D
100
AcDbEntity
  8
0
100
AcDbSpline
 62
7
  6
BYLAYER
 70
0
 71
3
 72
27
 73
23
 74
0
 42
0.0000001
 43
0.0000001
 44
0.0000000001
 40
0.0
 40
0.0
 40
0.0
 40
0.0
 40
0.003144115
 40
0.0058152618
 40
0.0093436401
 40
0.0190864459
 40
0.0324957461
 40
0.0495959441
 40
0.0702505957
 40
0.1213475644
 40
0.1840029309
 40
0.2564057739
 40
0.3367061459
 40
0.4225810951
 40
0.5113374038
 40
0.6002710148
 40
0.6866804739
 40
0.768055347
 40
0.8422010182
 40
0.9069558001
 40
0.9601660781
 40
1.0
 40
1.0
 40
1.0
 40
1.0
 10
103.8023642624
 20
199.9579820312
 30
0.0
 10
103.8021948625
 20
199.9407157736
 30
0.0
 10
103.7728885277
 20
199.9153124744
 30
0.0
 10
103.7286350218
 20
199.8936958798
 30
0.0
 10
103.6454692616
 20
199.8628958445
 30
0.0
 10
103.5035118428
 20
199.8282736823
 30
0.0
 10
103.2858113972
 20
199.7880455866
 30
0.0
 10
103.0077414004
 20
199.7480033367
 30
0.0
 10
102.5231976747
 20
199.6897560678
 30
0.0
 10
101.7882889759
 20
199.6200472879
 30
0.0
 10
100.7690878434
 20
199.5397185069
 30
0.0
 10
99.5891165685
 20
199.4588787155
 30
0.0
 10
98.2813774944
 20
199.3778587746
 30
0.0
 10
96.8836732023
 20
199.2967677893
 30
0.0
 10
95.438489104
 20
199.2155330193
 30
0.0
 10
93.9903643881
 20
199.1343033593
 30
0.0
 10
92.5828416952
 20
199.0530907463
 30
0.0
 10
91.2566671619
 20
198.9719240404
 30
0.0
 10
90.049642716
 20
198.891101628
 30
0.0
 10
88.9975947772
 20
198.8110018762
 30
0.0
 10
88.1346050976
 20
198.7319004233
 30
0.0
 10
87.6269786429
 20
198.6715318857
 30
0.0
 10
87.4107667618
 20
198.6382205174
 30
0.0
  0
SPLINE
  5
43E
100
AcDbEntity
  8
0
100
AcDbSpline
 62
7
  6
BYLAYER
 70
0
 71
3
 72
27
 73
23
 74
0
 42
0.0000001
 43
0.0000001
 44
0.0000000001
 40
0.0
 40
0.0
 40
0.0
 40
0.0
 40
0.0031955649
 40
0.0059402518
 40
0.0095564906
 40
0.019463082
 40
0.032931238
 40
0.0498971947
 40
0.0702769334
 40
0.1209045932
 40
0.1837232667
 40
0.2565784754
 40
0.3370956185
 40
0.4228957188
 40
0.5115808939
 40
0.6005869058
 40
0.6872557652
 40
0.7689291623
 40
0.8429598597
 40
0.9071572482
 40
0.9599909749
 40
1.0
 40
1.0
 40
1.0
 40
1.0
 10
103.8089287338
 20
142.9593482625
 30
0.0
 10
103.8087748109
 20
142.9417758671
 30
0.0
 10
103.7777786003
 20
142.9164643465
 30
0.0
 10
103.7323981416
 20
142.8949201979
 30
0.0
 10
103.6470751687
 20
142.8641504535
 30
0.0
 10
103.5032677894
 20
142.8295219436
 30
0.0
 10
103.2847565654
 20
142.7892007873
 30
0.0
 10
103.0083108828
 20
142.7488885301
 30
0.0
 10
102.5280222358
 20
142.6902062748
 30
0.0
 10
101.7953791765
 20
142.6199625951
 30
0.0
 10
100.7739813649
 20
142.5398357426
 30
0.0
 10
99.5878380458
 20
142.4590410223
 30
0.0
 10
98.2750872417
 20
142.3777874486
 30
0.0
 10
96.8751439277
 20
142.2963066432
 30
0.0
 10
95.4284453557
 20
142.2147975558
 30
0.0
 10
93.9769598486
 20
142.1333198661
 30
0.0
 10
92.5640907831
 20
142.0519275492
 30
0.0
 10
91.2336964167
 20
141.9708007943
 30
0.0
 10
90.0271207999
 20
141.889859049
 30
0.0
 10
88.9794819327
 20
141.8092322571
 30
0.0
 10
88.1195941273
 20
141.7293788616
 30
0.0
 10
87.6123768308
 20
141.6692675536
 30
0.0
 10
87.3948934392
 20
141.6359683431
 30
0.0
  0
SPLINE
  5
43F
100
AcDbEntity
  8
0
100
AcDbSpline
 62
7
  6
BYLAYER
 70
0
 71
3
 72
13
 73
9
 74
0
 42
0.0000001
 43
0.0000001
 44
0.0000000001
 40
0.0
 40
0.0
 40
0.0
 40
0.0
 40
0.2836717827
 40
0.5799331056
 40
0.7153566585
 40
0.8335729949
 40
0.9299078612
 40
1.0
 40
1.0
 40
1.0
 40
1.0
 10
99.5567768833
 20
157.4584363826
 30
0.0
 10
98.4062576878
 20
157.3837103647
 30
0.0
 10
96.0530396504
 20
157.2486927538
 30
0.0
 10
93.1499820457
 20
157.0885131015
 30
0.0
 10
90.9192141534
 20
156.9512526845
 30
0.0
 10
89.5001817069
 20
156.8519184401
 30
0.0
 10
88.3475538165
 20
156.7535750771
 30
0.0
 10
87.6748394893
 20
156.6793346417
 30
0.0
 10
87.3932587443
 20
156.6361073984
 30
0.0
  0
SPLINE
  5
440
100
AcDbEntity
  8
0
100
AcDbSpline
 62
7
  6
BYLAYER
 70
0
 71
3
 72
27
 73
23
 74
0
 42
0.0000001
 43
0.0000001
 44
0.0000000001
 40
0.0
 40
0.0
 40
0.0
 40
0.0
 40
0.0032166046
 40
0.0059982019
 40
0.0096645224
 40
0.0196976836
 40
0.033307171
 40
0.0504058528
 40
0.0708867625
 40
0.1215312418
 40
0.1842048309
 40
0.256992647
 40
0.3374688299
 40
0.4231966831
 40
0.5117353394
 40
0.6005695527
 40
0.6870938215
 40
0.7686978499
 40
0.8427738261
 40
0.9070116843
 40
0.9598822191
 40
1.0
 40
1.0
 40
1.0
 40
1.0
 10
103.8099434543
 20
196.95795342
 30
0.0
 10
103.8097736862
 20
196.9402756108
 30
0.0
 10
103.7779918312
 20
196.9150957658
 30
0.0
 10
103.7320716556
 20
196.8936618292
 30
0.0
 10
103.6454648217
 20
196.8629767827
 30
0.0
 10
103.4999770656
 20
196.8284476195
 30
0.0
 10
103.2793201818
 20
196.7882192005
 30
0.0
 10
103.0009490928
 20
196.7479955679
 30
0.0
 10
102.5195215872
 20
196.6895465782
 30
0.0
 10
101.7874523027
 20
196.6193719941
 30
0.0
 10
100.7677197319
 20
196.5392504391
 30
0.0
 10
99.5836399458
 20
196.4586964566
 30
0.0
 10
98.2726277364
 20
196.3776336581
 30
0.0
 10
96.8749086399
 20
196.2963506909
 30
0.0
 10
95.4311843835
 20
196.2149868327
 30
0.0
 10
93.9830738607
 20
196.1336597938
 30
0.0
 10
92.5731326707
 20
196.0524217049
 30
0.0
 10
91.2444255457
 20
195.9714251746
 30
0.0
 10
90.0384384149
 20
195.8907284992
 30
0.0
 10
88.9907165685
 20
195.8102695709
 30
0.0
 10
88.1302864127
 20
195.7305276931
 30
0.0
 10
87.622552744
 20
195.670520396
 30
0.0
 10
87.4045695609
 20
195.6373707124
 30
0.0
  0
SPLINE
  5
441
100
AcDbEntity
  8
0
100
AcDbSpline
 62
7
  6
BYLAYER
 70
0
 71
3
 72
27
 73
23
 74
0
 42
0.0000001
 43
0.0000001
 44
0.0000000001
 40
0.0
 40
0.0
 40
0.0
 40
0.0
 40
0.0306678388
 40
0.0611439213
 40
0.092395909
 40
0.1244945061
 40
0.1569825191
 40
0.1891940269
 40
0.2050009354
 40
0.2206030577
 40
0.2517777355
 40
0.2829523673
 40
0.3141271246
 40
0.3764773204
 40
0.4388284437
 40
0.5011798961
 40
0.6258827565
 40
0.7505937578
 40
0.8129456537
 40
0.8752941493
 40
0.9376428065
 40
1.0
 40
1.0
 40
1.0
 40
1.0
 10
103.8057371664
 20
145.9561479176
 30
0.0
 10
103.6682483993
 20
145.8579382481
 30
0.0
 10
103.3670614632
 20
145.6978326923
 30
0.0
 10
102.8723465818
 20
145.5660361988
 30
0.0
 10
102.3567896213
 20
145.5131625091
 30
0.0
 10
101.8284672025
 20
145.5089063529
 30
0.0
 10
101.2954557712
 20
145.5252860079
 30
0.0
 10
100.8518649791
 20
145.5338537553
 30
0.0
 10
100.5013889446
 20
145.523223912
 30
0.0
 10
100.1575415543
 20
145.4970599435
 30
0.0
 10
99.729004269
 20
145.4689912166
 30
0.0
 10
99.2148457815
 20
145.4351793952
 30
0.0
 10
98.5291653736
 20
145.3922393063
 30
0.0
 10
97.6719052532
 20
145.3409823984
 30
0.0
 10
96.6430224106
 20
145.2822952537
 30
0.0
 10
95.2710578482
 20
145.2060165222
 30
0.0
 10
93.556113045
 20
145.1097285676
 30
0.0
 10
91.8411784698
 20
145.0128536946
 30
0.0
 10
90.469970439
 20
144.923366375
 30
0.0
 10
89.4422569613
 20
144.8467330352
 30
0.0
 10
88.4152865571
 20
144.7614191586
 30
0.0
 10
87.7320175979
 20
144.6857360945
 30
0.0
 10
87.3922547719
 20
144.634846393
 30
0.0
  0
SPLINE
  5
442
100
AcDbEntity
  8
0
100
AcDbSpline
 62
7
  6
BYLAYER
 70
0
 71
3
 72
27
 73
23
 74
0
 42
0.0000001
 43
0.0000001
 44
0.0000000001
 40
0.0
 40
0.0
 40
0.0
 40
0.0
 40
0.003146926
 40
0.0058215402
 40
0.0093543259
 40
0.0191067761
 40
0.0325233871
 40
0.0496316981
 40
0.0703135091
 40
0.1215108832
 40
0.1843013561
 40
0.2568417298
 40
0.337258632
 40
0.4232458881
 40
0.5121004006
 40
0.6011034036
 40
0.687537662
 40
0.7688660521
 40
0.842895496
 40
0.9074750108
 40
0.9604618233
 40
1.0
 40
1.0
 40
1.0
 40
1.0
 10
103.8023729696
 20
193.958158596
 30
0.0
 10
103.8022210714
 20
193.9408617295
 30
0.0
 10
103.7728335487
 20
193.9154074793
 30
0.0
 10
103.7284927281
 20
193.8937621299
 30
0.0
 10
103.6451562793
 20
193.8629104283
 30
0.0
 10
103.5029644936
 20
193.8282333517
 30
0.0
 10
103.2849416629
 20
193.787926539
 30
0.0
 10
103.0064020441
 20
193.7477931956
 30
0.0
 10
102.5206915652
 20
193.6894465357
 30
0.0
 10
101.783699075
 20
193.6196285616
 30
0.0
 10
100.7615602976
 20
193.5391764324
 30
0.0
 10
99.5784246507
 20
193.4582041974
 30
0.0
 10
98.2675377753
 20
193.3770264641
 30
0.0
 10
96.8668229446
 20
193.2957988633
 30
0.0
 10
95.4188466927
 20
193.2144270506
 30
0.0
 10
93.9684089434
 20
193.1330612601
 30
0.0
 10
92.5594044707
 20
193.0517237065
 30
0.0
 10
91.2328415961
 20
192.9704198268
 30
0.0
 10
90.0266356188
 20
192.8894612847
 30
0.0
 10
88.9765154159
 20
192.8092337287
 30
0.0
 10
88.1166148151
 20
192.7300394746
 30
0.0
 10
87.6114190146
 20
192.669563012
 30
0.0
 10
87.3966844059
 20
192.6360935585
 30
0.0
  0
SPLINE
  5
443
100
AcDbEntity
  8
0
100
AcDbSpline
 62
7
  6
BYLAYER
 70
0
 71
3
 72
11
 73
7
 74
0
 42
0.0000001
 43
0.0000001
 44
0.0000000001
 40
0.0
 40
0.0
 40
0.0
 40
0.0
 40
0.0679921081
 40
0.255938623
 40
0.5669131415
 40
1.0
 40
1.0
 40
1.0
 40
1.0
 10
105.4636635452
 20
84.7293403604
 30
0.0
 10
105.4636810736
 20
84.7302144809
 30
0.0
 10
105.4588960554
 20
84.7306663979
 30
0.0
 10
105.4531130708
 20
84.7318721509
 30
0.0
 10
105.4403256734
 20
84.7325982108
 30
0.0
 10
105.4310441067
 20
84.7331549646
 30
0.0
 10
105.4254810076
 20
84.7334106813
 30
0.0
  0
SPLINE
  5
444
100
AcDbEntity
  8
0
100
AcDbSpline
 62
7
  6
BYLAYER
 70
0
 71
3
 72
9
 73
5
 74
0
 42
0.0000001
 43
0.0000001
 44
0.0000000001
 40
0.0
 40
0.0
 40
0.0
 40
0.0
 40
0.3706543266
 40
1.0
 40
1.0
 40
1.0
 40
1.0
 10
105.4254810076
 20
84.7334106813
 30
0.0
 10
105.3723512263
 20
84.7358528763
 30
0.0
 10
105.2288244368
 20
84.7373944155
 30
0.0
 10
105.0853516179
 20
84.7380624053
 30
0.0
 10
104.9950456321
 20
84.7380624053
 30
0.0
  0
SPLINE
  5
445
100
AcDbEntity
  8
0
100
AcDbSpline
 62
7
  6
BYLAYER
 70
0
 71
3
 72
12
 73
8
 74
0
 42
0.0000001
 43
0.0000001
 44
0.0000000001
 40
0.0
 40
0.0
 40
0.0
 40
0.0
 40
0.2874654577
 40
0.5542922369
 40
0.7890493583
 40
0.8964101791
 40
1.0
 40
1.0
 40
1.0
 40
1.0
 10
104.1487821701
 20
229.7082803319
 30
0.0
 10
104.1487821701
 20
229.9015257782
 30
0.0
 10
104.0979914776
 20
230.2764806009
 30
0.0
 10
103.8771665192
 20
230.7674975901
 30
0.0
 10
103.5776883556
 20
231.0667679149
 30
0.0
 10
103.3003101086
 20
231.1880903519
 30
0.0
 10
103.1577590995
 20
231.2082162871
 30
0.0
 10
103.0881219983
 20
231.2082162871
 30
0.0
  0
SPLINE
  5
446
100
AcDbEntity
  8
0
100
AcDbSpline
 62
7
  6
BYLAYER
 70
0
 71
3
 72
12
 73
8
 74
0
 42
0.0000001
 43
0.0000001
 44
0.0000000001
 40
0.0
 40
0.0
 40
0.0
 40
0.0
 40
0.0984713355
 40
0.1833323841
 40
0.2950147672
 40
0.5987336231
 40
1.0
 40
1.0
 40
1.0
 40
1.0
 10
97.9748625261
 20
122.0227016141
 30
0.0
 10
97.9766795956
 20
122.0076787244
 30
0.0
 10
98.0061595693
 20
121.9892537377
 30
0.0
 10
98.0474793209
 20
121.976369599
 30
0.0
 10
98.1238673401
 20
121.9606742698
 30
0.0
 10
98.2485212177
 20
121.9502779506
 30
0.0
 10
98.3570685303
 20
121.9478080654
 30
0.0
 10
98.4187323199
 20
121.9478080654
 30
0.0
  0
SPLINE
  5
447
100
AcDbEntity
  8
0
100
AcDbSpline
 62
7
  6
BYLAYER
 70
0
 71
3
 72
12
 73
8
 74
0
 42
0.0000001
 43
0.0000001
 44
0.0000000001
 40
0.0
 40
0.0
 40
0.0
 40
0.0
 40
0.4012829158
 40
0.7049793515
 40
0.8166616024
 40
0.9015303647
 40
1.0
 40
1.0
 40
1.0
 40
1.0
 10
99.139950727
 20
116.1633453091
 30
0.0
 10
99.0782828261
 20
116.1633453091
 30
0.0
 10
98.969733824
 20
116.1658136873
 30
0.0
 10
98.8450770562
 20
116.1762109211
 30
0.0
 10
98.7686902405
 20
116.1919057296
 30
0.0
 10
98.7273652781
 20
116.2047840736
 30
0.0
 10
98.6978884463
 20
116.2232146555
 30
0.0
 10
98.696070623
 20
116.2382375788
 30
0.0
  0
SPLINE
  5
448
100
AcDbEntity
  8
0
100
AcDbSpline
 62
7
  6
BYLAYER
 70
0
 71
3
 72
27
 73
23
 74
0
 42
0.0000001
 43
0.0000001
 44
0.0000000001
 40
0.0
 40
0.0
 40
0.0
 40
0.0
 40
0.0031498003
 40
0.0058255517
 40
0.009357707
 40
0.0190989075
 40
0.0324832126
 40
0.0495373274
 40
0.0701987498
 40
0.1214610466
 40
0.1843839373
 40
0.2570354859
 40
0.3374727066
 40
0.4234952249
 40
0.5124184034
 40
0.601502629
 40
0.6880082393
 40
0.7692831592
 40
0.8431399403
 40
0.9075483645
 40
0.960486265
 40
1.0
 40
1.0
 40
1.0
 40
1.0
 10
103.8018642312
 20
169.9584899669
 30
0.0
 10
103.8017050338
 20
169.941163302
 30
0.0
 10
103.7722605508
 20
169.9156874266
 30
0.0
 10
103.7278748265
 20
169.8940057336
 30
0.0
 10
103.6445359433
 20
169.863124321
 30
0.0
 10
103.5024842087
 20
169.8284006052
 30
0.0
 10
103.2848372956
 20
169.7880316747
 30
0.0
 10
103.0066792008
 20
169.7477666716
 30
0.0
 10
102.5206318366
 20
169.6893246542
 30
0.0
 10
101.7820623354
 20
169.6194488362
 30
0.0
 10
100.7573911235
 20
169.5389310123
 30
0.0
 10
99.5718405504
 20
169.45787757
 30
0.0
 10
98.2589776414
 20
169.3765081319
 30
0.0
 10
96.8564431638
 20
169.2951640248
 30
0.0
 10
95.4062728689
 20
169.2136854697
 30
0.0
 10
93.9534406446
 20
169.1322047456
 30
0.0
 10
92.5427447772
 20
169.0508158758
 30
0.0
 10
91.2159590354
 20
168.969407099
 30
0.0
 10
90.0109717883
 20
168.8882729179
 30
0.0
 10
88.9621677552
 20
168.8078924064
 30
0.0
 10
88.102939399
 20
168.7285318948
 30
0.0
 10
87.5976909588
 20
168.6683215091
 30
0.0
 10
87.3829459234
 20
168.6346463116
 30
0.0
  0
SPLINE
  5
449
100
AcDbEntity
  8
0
100
AcDbSpline
 62
7
  6
BYLAYER
 70
0
 71
3
 72
15
 73
11
 74
0
 42
0.0000001
 43
0.0000001
 44
0.0000000001
 40
0.0
 40
0.0
 40
0.0
 40
0.0
 40
0.2956594404
 40
0.4650439694
 40
0.6298793768
 40
0.7760971434
 40
0.8913902343
 40
0.966556533
 40
0.9878315495
 40
1.0
 40
1.0
 40
1.0
 40
1.0
 10
98.4187323199
 20
121.9478080654
 30
0.0
 10
98.6752265278
 20
121.9478080654
 30
0.0
 10
99.0784896579
 20
121.9768656453
 30
0.0
 10
99.6211920772
 20
122.040481734
 30
0.0
 10
100.0331189479
 20
122.1040249898
 30
0.0
 10
100.3966090782
 20
122.1752345944
 30
0.0
 10
100.6790175834
 20
122.2462382785
 30
0.0
 10
100.8545005666
 20
122.3086603964
 30
0.0
 10
100.9346741224
 20
122.3556041105
 30
0.0
 10
100.9529624438
 20
122.3833789045
 30
0.0
 10
100.9516948346
 20
122.3938590498
 30
0.0
  0
SPLINE
  5
44A
100
AcDbEntity
  8
0
100
AcDbSpline
 62
7
  6
BYLAYER
 70
0
 71
3
 72
27
 73
23
 74
0
 42
0.0000001
 43
0.0000001
 44
0.0000000001
 40
0.0
 40
0.0
 40
0.0
 40
0.0
 40
0.003191729
 40
0.0059288465
 40
0.0095346256
 40
0.0194146844
 40
0.0328537495
 40
0.0497937666
 40
0.0701563492
 40
0.1207972691
 40
0.1836329178
 40
0.2564745012
 40
0.336969982
 40
0.4227629831
 40
0.5114673189
 40
0.6004984049
 40
0.6871860941
 40
0.7688606481
 40
0.842872534
 40
0.9070909336
 40
0.9599668334
 40
1.0
 40
1.0
 40
1.0
 40
1.0
 10
103.8084874773
 20
172.9595012984
 30
0.0
 10
103.8083198016
 20
172.9419500966
 30
0.0
 10
103.777484393
 20
172.9166319251
 30
0.0
 10
103.7322162465
 20
172.8950661189
 30
0.0
 10
103.6471697273
 20
172.8642911171
 30
0.0
 10
103.5037271473
 20
172.8296510059
 30
0.0
 10
103.2856769365
 20
172.7893245666
 30
0.0
 10
103.0096307028
 20
172.7490072179
 30
0.0
 10
102.5295109231
 20
172.6902923629
 30
0.0
 10
101.7967888746
 20
172.6200934407
 30
0.0
 10
100.7752987615
 20
172.5399664135
 30
0.0
 10
99.5892559742
 20
172.4591474331
 30
0.0
 10
98.2767378121
 20
172.3778759293
 30
0.0
 10
96.8768459379
 20
172.2963814956
 30
0.0
 10
95.4299403587
 20
172.2148759946
 30
0.0
 10
93.9781053969
 20
172.1333950863
 30
0.0
 10
92.5649861596
 20
172.0519988855
 30
0.0
 10
91.2345829928
 20
171.9708740109
 30
0.0
 10
90.0279905195
 20
171.8898809566
 30
0.0
 10
88.980105396
 20
171.8092532754
 30
0.0
 10
88.1197336341
 20
171.7294123179
 30
0.0
 10
87.6121458798
 20
171.6693126735
 30
0.0
 10
87.3945310713
 20
171.6359923226
 30
0.0
  0
SPLINE
  5
44B
100
AcDbEntity
  8
0
100
AcDbSpline
 62
7
  6
BYLAYER
 70
0
 71
3
 72
27
 73
23
 74
0
 42
0.0000001
 43
0.0000001
 44
0.0000000001
 40
0.0
 40
0.0
 40
0.0
 40
0.0
 40
0.0031810292
 40
0.0059333274
 40
0.0095965081
 40
0.0197300288
 40
0.0335477211
 40
0.0509149352
 40
0.0716763181
 40
0.1227234532
 40
0.185348254
 40
0.2580951391
 40
0.338741032
 40
0.4246815575
 40
0.5133074627
 40
0.6020105915
 40
0.688259634
 40
0.7696243298
 40
0.8436829597
 40
0.9080177492
 40
0.9604954276
 40
1.0
 40
1.0
 40
1.0
 40
1.0
 10
103.8065494104
 20
175.9562399114
 30
0.0
 10
103.806382106
 20
175.9387552809
 30
0.0
 10
103.7756692772
 20
175.9133174065
 30
0.0
 10
103.7299714067
 20
175.8918728638
 30
0.0
 10
103.6430509449
 20
175.8610832806
 30
0.0
 10
103.495726815
 20
175.8267049838
 30
0.0
 10
103.2718326329
 20
175.7865287029
 30
0.0
 10
102.9892008853
 20
175.746371464
 30
0.0
 10
102.5024256179
 20
175.6880880894
 30
0.0
 10
101.7667411957
 20
175.6181049267
 30
0.0
 10
100.7451820941
 20
175.5375571576
 30
0.0
 10
99.5605030837
 20
175.4569727832
 30
0.0
 10
98.2474279566
 20
175.3760271348
 30
0.0
 10
96.8469308881
 20
175.2948331666
 30
0.0
 10
95.4020807868
 20
175.2135283382
 30
0.0
 10
93.9555339428
 20
175.1321857248
 30
0.0
 10
92.5489628456
 20
175.0508823198
 30
0.0
 10
91.2230114198
 20
174.9698093912
 30
0.0
 10
90.0177463538
 20
174.8890921869
 30
0.0
 10
88.9715683462
 20
174.8091702201
 30
0.0
 10
88.1160374254
 20
174.7294121182
 30
0.0
 10
87.6138303598
 20
174.6691163936
 30
0.0
 10
87.3992341735
 20
174.6359233552
 30
0.0
  0
SPLINE
  5
44C
100
AcDbEntity
  8
0
100
AcDbSpline
 62
7
  6
BYLAYER
 70
0
 71
3
 72
11
 73
7
 74
0
 42
0.0000001
 43
0.0000001
 44
0.0000000001
 40
0.0
 40
0.0
 40
0.0
 40
0.0
 40
0.3278889527
 40
0.5991383449
 40
0.816844948
 40
1.0
 40
1.0
 40
1.0
 40
1.0
 10
86.2884455694
 20
231.8602041205
 30
0.0
 10
86.2305294692
 20
231.8602041205
 30
0.0
 10
86.1244573042
 20
231.854167754
 30
0.0
 10
85.9829286315
 20
231.821674933
 30
0.0
 10
85.8759779353
 20
231.7654891478
 30
0.0
 10
85.8304788209
 20
231.70711162
 30
0.0
 10
85.8182803719
 20
231.6771482596
 30
0.0
  0
SPLINE
  5
44D
100
AcDbEntity
  8
0
100
AcDbSpline
 62
7
  6
BYLAYER
 70
0
 71
3
 72
19
 73
15
 74
0
 42
0.0000001
 43
0.0000001
 44
0.0000000001
 40
0.0
 40
0.0
 40
0.0
 40
0.0
 40
0.0073739895
 40
0.0137149241
 40
0.0221098347
 40
0.045310025
 40
0.0772299516
 40
0.1179263245
 40
0.1671434355
 40
0.2888980889
 40
0.4378763328
 40
0.6093862185
 40
0.7986719039
 40
1.0
 40
1.0
 40
1.0
 40
1.0
 10
103.8019250616
 20
178.9583757993
 30
0.0
 10
103.8017686292
 20
178.940356768
 30
0.0
 10
103.7702603038
 20
178.9141759615
 30
0.0
 10
103.723552715
 20
178.8919941143
 30
0.0
 10
103.6351326426
 20
178.8601814346
 30
0.0
 10
103.4846000419
 20
178.8244752134
 30
0.0
 10
103.2537953209
 20
178.782926335
 30
0.0
 10
102.9590275439
 20
178.7415503349
 30
0.0
 10
102.4452019392
 20
178.6814558064
 30
0.0
 10
101.6666012061
 20
178.6095676342
 30
0.0
 10
100.5890590309
 20
178.5266969079
 30
0.0
 10
99.3461148996
 20
178.4432832943
 30
0.0
 10
97.9750055593
 20
178.3596476536
 30
0.0
 10
97.0220364062
 20
178.3049388852
 30
0.0
 10
96.5308434213
 20
178.2770775581
 30
0.0
  0
SPLINE
  5
44E
100
AcDbEntity
  8
0
100
AcDbSpline
 62
7
  6
BYLAYER
 70
0
 71
3
 72
13
 73
9
 74
0
 42
0.0000001
 43
0.0000001
 44
0.0000000001
 40
0.0
 40
0.0
 40
0.0
 40
0.0
 40
0.310359965
 40
0.6004135674
 40
0.7279169507
 40
0.8392193067
 40
0.93097927
 40
1.0
 40
1.0
 40
1.0
 40
1.0
 10
96.5308434213
 20
178.2770775581
 30
0.0
 10
95.5851631213
 20
178.2234369139
 30
0.0
 10
93.7555470665
 20
178.1221030491
 30
0.0
 10
91.5377869153
 20
177.9916533344
 30
0.0
 10
89.9274504362
 20
177.8821852932
 30
0.0
 10
88.9215477326
 20
177.8043214657
 30
0.0
 10
88.0947425549
 20
177.727439605
 30
0.0
 10
87.6073172254
 20
177.6691059308
 30
0.0
 10
87.3991661244
 20
177.6367737966
 30
0.0
  0
SPLINE
  5
44F
100
AcDbEntity
  8
0
100
AcDbSpline
 62
7
  6
BYLAYER
 70
0
 71
3
 72
11
 73
7
 74
0
 42
0.0000001
 43
0.0000001
 44
0.0000000001
 40
0.0
 40
0.0
 40
0.0
 40
0.0
 40
0.2185617964
 40
0.4558856924
 40
0.7193888779
 40
1.0
 40
1.0
 40
1.0
 40
1.0
 10
89.9995029671
 20
200.293004218
 30
0.0
 10
89.8451652322
 20
200.2840240324
 30
0.0
 10
89.5143064428
 20
200.3609090125
 30
0.0
 10
89.1156540684
 20
200.7017759234
 30
0.0
 10
88.8633236747
 20
201.2061605169
 30
0.0
 10
88.8024882747
 20
201.5931512999
 30
0.0
 10
88.8025891935
 20
201.7916403764
 30
0.0
  0
SPLINE
  5
450
100
AcDbEntity
  8
0
100
AcDbSpline
 62
7
  6
BYLAYER
 70
0
 71
3
 72
13
 73
9
 74
0
 42
0.0000001
 43
0.0000001
 44
0.0000000001
 40
0.0
 40
0.0
 40
0.0
 40
0.0
 40
0.3208112701
 40
0.6047939487
 40
0.7242467615
 40
0.827809038
 40
0.9178082114
 40
1.0
 40
1.0
 40
1.0
 40
1.0
 10
99.5567770057
 20
157.4584363905
 30
0.0
 10
99.5568453767
 20
157.6550243063
 30
0.0
 10
99.5193885317
 20
158.0259671748
 30
0.0
 10
99.385823064
 20
158.4554149664
 30
0.0
 10
99.2205649637
 20
158.7206272688
 30
0.0
 10
99.0858776889
 20
158.859727605
 30
0.0
 10
98.9371962908
 20
158.9458909342
 30
0.0
 10
98.8292225053
 20
158.9612988642
 30
0.0
 10
98.7790150064
 20
158.9573088827
 30
0.0
  0
SPLINE
  5
451
100
AcDbEntity
  8
0
100
AcDbSpline
 62
7
  6
BYLAYER
 70
0
 71
3
 72
15
 73
11
 74
0
 42
0.0000001
 43
0.0000001
 44
0.0000000001
 40
0.0
 40
0.0
 40
0.0
 40
0.0
 40
0.1432706756
 40
0.1987380565
 40
0.2614768531
 40
0.4045998799
 40
0.56243298
 40
0.7225063341
 40
0.8721807193
 40
1.0
 40
1.0
 40
1.0
 40
1.0
 10
88.5957280741
 20
230.5432599815
 30
0.0
 10
88.6465180814
 20
230.6680167678
 30
0.0
 10
88.5184090862
 20
230.8744644889
 30
0.0
 10
88.3503054264
 20
231.0420610478
 30
0.0
 10
88.1596169701
 20
231.2010405532
 30
0.0
 10
87.8719980346
 20
231.3858480087
 30
0.0
 10
87.4823372405
 20
231.5782856673
 30
0.0
 10
87.0692419138
 20
231.7309663947
 30
0.0
 10
86.6693965933
 20
231.8308035252
 30
0.0
 10
86.4086178076
 20
231.8602041205
 30
0.0
 10
86.2884455694
 20
231.8602041205
 30
0.0
  0
SPLINE
  5
452
100
AcDbEntity
  8
0
100
AcDbSpline
 62
7
  6
BYLAYER
 70
0
 71
3
 72
21
 73
17
 74
0
 42
0.0000001
 43
0.0000001
 44
0.0000000001
 40
0.0
 40
0.0
 40
0.0
 40
0.0
 40
0.0591113695
 40
0.1178386596
 40
0.1793856864
 40
0.2438099554
 40
0.3094623301
 40
0.3740870392
 40
0.4356953503
 40
0.4943078548
 40
0.5514525622
 40
0.6080819204
 40
0.7223244914
 40
0.7820663527
 40
0.8461677199
 40
1.0
 40
1.0
 40
1.0
 40
1.0
 10
103.8077111779
 20
181.956391354
 30
0.0
 10
103.7027728717
 20
181.8524017178
 30
0.0
 10
103.4561129424
 20
181.6797237903
 30
0.0
 10
103.0232785501
 20
181.5460129791
 30
0.0
 10
102.5620309891
 20
181.5015448708
 30
0.0
 10
102.0827937437
 20
181.5099164649
 30
0.0
 10
101.5971140196
 20
181.5394253552
 30
0.0
 10
101.1179032857
 20
181.5610873583
 30
0.0
 10
100.6551103117
 20
181.5402184734
 30
0.0
 10
100.2183973691
 20
181.4579087526
 30
0.0
 10
99.8033857505
 20
181.3411751562
 30
0.0
 10
99.2617111981
 20
181.1652109925
 30
0.0
 10
98.7070197954
 20
181.0002504248
 30
0.0
 10
98.1138390901
 20
180.9320602793
 30
0.0
 10
97.4176877909
 20
180.9569979183
 30
0.0
 10
96.8862636594
 20
181.1219445316
 30
0.0
 10
96.534644891
 20
181.2774483117
 30
0.0
  0
SPLINE
  5
453
100
AcDbEntity
  8
0
100
AcDbSpline
 62
7
  6
BYLAYER
 70
0
 71
3
 72
12
 73
8
 74
0
 42
0.0000001
 43
0.0000001
 44
0.0000000001
 40
0.0
 40
0.0
 40
0.0
 40
0.0
 40
0.3098386494
 40
0.6006365764
 40
0.8397379638
 40
0.9307751132
 40
1.0
 40
1.0
 40
1.0
 40
1.0
 10
96.534644891
 20
181.2774483117
 30
0.0
 10
95.5909049648
 20
181.2238263158
 30
0.0
 10
93.7612674328
 20
181.1223158986
 30
0.0
 10
91.2038898634
 20
180.9712821349
 30
0.0
 10
89.3137638553
 20
180.8412907875
 30
0.0
 10
88.1006933586
 20
180.7274715303
 30
0.0
 10
87.6150769306
 20
180.6690765252
 30
0.0
 10
87.4063178313
 20
180.6371079039
 30
0.0
  0
SPLINE
  5
454
100
AcDbEntity
  8
0
100
AcDbSpline
 62
7
  6
BYLAYER
 70
0
 71
3
 72
11
 73
7
 74
0
 42
0.0000001
 43
0.0000001
 44
0.0000000001
 40
0.0
 40
0.0
 40
0.0
 40
0.0
 40
0.183155052
 40
0.4008616551
 40
0.6721110473
 40
1.0
 40
1.0
 40
1.0
 40
1.0
 10
89.6346165043
 20
241.025224471
 30
0.0
 10
89.6468149533
 20
241.0551878314
 30
0.0
 10
89.6923140677
 20
241.1135653592
 30
0.0
 10
89.7992647639
 20
241.1697511444
 30
0.0
 10
89.9407934366
 20
241.2022439654
 30
0.0
 10
90.0468656016
 20
241.2082803319
 30
0.0
 10
90.1047817018
 20
241.2082803319
 30
0.0
  0
SPLINE
  5
455
100
AcDbEntity
  8
0
100
AcDbSpline
 62
7
  6
BYLAYER
 70
0
 71
3
 72
27
 73
23
 74
0
 42
0.0000001
 43
0.0000001
 44
0.0000000001
 40
0.0
 40
0.0
 40
0.0
 40
0.0
 40
0.0031429928
 40
0.0058097081
 40
0.0093279872
 40
0.0190240503
 40
0.032335317
 40
0.0492832692
 40
0.0698251254
 40
0.1208491651
 40
0.1835324518
 40
0.2559397376
 40
0.3361258652
 40
0.421925004
 40
0.5106857805
 40
0.599690447
 40
0.686221181
 40
0.7676372339
 40
0.8417438941
 40
0.9065102722
 40
0.9599133612
 40
1.0
 40
1.0
 40
1.0
 40
1.0
 10
103.8023729375
 20
184.9586869964
 30
0.0
 10
103.802217933
 20
184.9414274769
 30
0.0
 10
103.7729551405
 20
184.9160288243
 30
0.0
 10
103.7288021679
 20
184.8944012188
 30
0.0
 10
103.6459962439
 20
184.8636225917
 30
0.0
 10
103.504918197
 20
184.8290037837
 30
0.0
 10
103.2888917914
 20
184.7887598232
 30
0.0
 10
103.0128655545
 20
184.7485853286
 30
0.0
 10
102.5302143861
 20
184.690293185
 30
0.0
 10
101.7961996594
 20
184.6206382579
 30
0.0
 10
100.7772595287
 20
184.5403739349
 30
0.0
 10
99.5977851537
 20
184.4595749792
 30
0.0
 10
98.2911288783
 20
184.3784359946
 30
0.0
 10
96.894503942
 20
184.2973277341
 30
0.0
 10
95.4493812921
 20
184.2160885609
 30
0.0
 10
94.0002347445
 20
184.134843062
 30
0.0
 10
92.591482382
 20
184.0536884741
 30
0.0
 10
91.2646831301
 20
183.9725179969
 30
0.0
 10
90.0576394027
 20
183.8916071407
 30
0.0
 10
89.0047294665
 20
183.8114067071
 30
0.0
 10
88.1392727009
 20
183.7322044856
 30
0.0
 10
87.6291627439
 20
183.6721437987
 30
0.0
 10
87.4115744851
 20
183.6387109832
 30
0.0
  0
SPLINE
  5
456
100
AcDbEntity
  8
0
100
AcDbSpline
 62
7
  6
BYLAYER
 70
0
 71
3
 72
11
 73
7
 74
0
 42
0.0000001
 43
0.0000001
 44
0.0000000001
 40
0.0
 40
0.0
 40
0.0
 40
0.0
 40
0.0679921081
 40
0.255938623
 40
0.5669131415
 40
1.0
 40
1.0
 40
1.0
 40
1.0
 10
105.6413805421
 20
71.2293403604
 30
0.0
 10
105.6413980705
 20
71.2302144809
 30
0.0
 10
105.6366130523
 20
71.2306663979
 30
0.0
 10
105.6308300677
 20
71.2318721509
 30
0.0
 10
105.6180426703
 20
71.2325982108
 30
0.0
 10
105.6087611036
 20
71.2331549646
 30
0.0
 10
105.6031980044
 20
71.2334106813
 30
0.0
  0
SPLINE
  5
457
100
AcDbEntity
  8
0
100
AcDbSpline
 62
7
  6
BYLAYER
 70
0
 71
3
 72
9
 73
5
 74
0
 42
0.0000001
 43
0.0000001
 44
0.0000000001
 40
0.0
 40
0.0
 40
0.0
 40
0.0
 40
0.3706543266
 40
1.0
 40
1.0
 40
1.0
 40
1.0
 10
105.6031980044
 20
71.2334106813
 30
0.0
 10
105.5500682231
 20
71.2358528763
 30
0.0
 10
105.4065414336
 20
71.2373944155
 30
0.0
 10
105.2630686148
 20
71.2380624053
 30
0.0
 10
105.172762629
 20
71.2380624053
 30
0.0
  0
SPLINE
  5
458
100
AcDbEntity
  8
0
100
AcDbSpline
 62
7
  6
BYLAYER
 70
0
 71
3
 72
27
 73
23
 74
0
 42
0.0000001
 43
0.0000001
 44
0.0000000001
 40
0.0
 40
0.0
 40
0.0
 40
0.0
 40
0.0032076633
 40
0.0059758111
 40
0.0096236395
 40
0.0196075514
 40
0.0331558555
 40
0.0501864306
 40
0.0705972137
 40
0.1211147845
 40
0.1836890209
 40
0.2563720466
 40
0.3367483284
 40
0.4223942887
 40
0.5108819456
 40
0.5997044352
 40
0.6862610028
 40
0.7679460384
 40
0.8421560401
 40
0.9065608802
 40
0.9596310833
 40
1.0
 40
1.0
 40
1.0
 40
1.0
 10
103.8099047727
 20
187.9583531955
 30
0.0
 10
103.8097445735
 20
187.9407368023
 30
0.0
 10
103.7782504087
 20
187.9155563995
 30
0.0
 10
103.7325739717
 20
187.8941254715
 30
0.0
 10
103.6465191418
 20
187.8634665524
 30
0.0
 10
103.5018442911
 20
187.8289651143
 30
0.0
 10
103.2823435286
 20
187.7887743611
 30
0.0
 10
103.0052699432
 20
187.748589035
 30
0.0
 10
102.5256483406
 20
187.6901759123
 30
0.0
 10
101.7957243336
 20
187.6200662037
 30
0.0
 10
100.7785263771
 20
187.5400580379
 30
0.0
 10
99.5969494705
 20
187.4595742461
 30
0.0
 10
98.2884321371
 20
187.3785889059
 30
0.0
 10
96.8929726631
 20
187.2973808523
 30
0.0
 10
95.4510550166
 20
187.216094146
 30
0.0
 10
94.00412607
 20
187.1348439929
 30
0.0
 10
92.5946135084
 20
187.0536815952
 30
0.0
 10
91.2654765443
 20
186.9727539673
 30
0.0
 10
90.0582302127
 20
186.892140806
 30
0.0
 10
89.0084858796
 20
186.8117448661
 30
0.0
 10
88.1452508819
 20
186.732046108
 30
0.0
 10
87.6353837271
 20
186.6721043168
 30
0.0
 10
87.416145911
 20
186.6390601889
 30
0.0
  0
SPLINE
  5
459
100
AcDbEntity
  8
0
100
AcDbSpline
 62
7
  6
BYLAYER
 70
0
 71
3
 72
11
 73
7
 74
0
 42
0.0000001
 43
0.0000001
 44
0.0000000001
 40
0.0
 40
0.0
 40
0.0
 40
0.0
 40
0.3949850108
 40
0.5325463511
 40
0.6818283899
 40
1.0
 40
1.0
 40
1.0
 40
1.0
 10
98.8588676469
 20
155.961871581
 30
0.0
 10
99.0849895948
 20
155.9945441739
 30
0.0
 10
99.3131166759
 20
156.2994287272
 30
0.0
 10
99.4461318448
 20
156.6616717843
 30
0.0
 10
99.5317274475
 20
157.003697128
 30
0.0
 10
99.5566644491
 20
157.2743972268
 30
0.0
 10
99.5567282441
 20
157.4584364333
 30
0.0
  0
SPLINE
  5
45A
100
AcDbEntity
  8
0
100
AcDbSpline
 62
7
  6
BYLAYER
 70
0
 71
3
 72
12
 73
8
 74
0
 42
0.0000001
 43
0.0000001
 44
0.0000000001
 40
0.0
 40
0.0
 40
0.0
 40
0.0
 40
0.1035898209
 40
0.2109506417
 40
0.4457077631
 40
0.7125345423
 40
1.0
 40
1.0
 40
1.0
 40
1.0
 10
103.0881219983
 20
228.2083443767
 30
0.0
 10
103.1577590995
 20
228.2083443767
 30
0.0
 10
103.3003101086
 20
228.228470312
 30
0.0
 10
103.5776883556
 20
228.349792749
 30
0.0
 10
103.8771665192
 20
228.6490630738
 30
0.0
 10
104.0979914776
 20
229.1400800629
 30
0.0
 10
104.1487821701
 20
229.5150348856
 30
0.0
 10
104.1487821701
 20
229.7082803319
 30
0.0
  0
SPLINE
  5
45B
100
AcDbEntity
  8
0
100
AcDbSpline
 62
7
  6
BYLAYER
 70
0
 71
3
 72
11
 73
7
 74
0
 42
0.0000001
 43
0.0000001
 44
0.0000000001
 40
0.0
 40
0.0
 40
0.0
 40
0.0
 40
0.2669829095
 40
0.5241248936
 40
0.7669598241
 40
1.0
 40
1.0
 40
1.0
 40
1.0
 10
102.666728273
 20
190.7083119754
 30
0.0
 10
102.6667289187
 20
190.9089943347
 30
0.0
 10
102.5948549349
 20
191.3057346955
 30
0.0
 10
102.2980042866
 20
191.8160923428
 30
0.0
 10
101.8385000291
 20
192.1491434955
 30
0.0
 10
101.4716981658
 20
192.2175164505
 30
0.0
 10
101.2969174023
 20
192.2058647443
 30
0.0
  0
SPLINE
  5
45C
100
AcDbEntity
  8
0
100
AcDbSpline
 62
7
  6
BYLAYER
 70
0
 71
3
 72
17
 73
13
 74
0
 42
0.0000001
 43
0.0000001
 44
0.0000000001
 40
0.0
 40
0.0
 40
0.0
 40
0.0
 40
0.0046406163
 40
0.017089521
 40
0.0376286868
 40
0.0662925364
 40
0.1476917053
 40
0.2604766084
 40
0.4037673968
 40
0.5762655108
 40
0.7757795133
 40
1.0
 40
1.0
 40
1.0
 40
1.0
 10
106.102107424
 20
36.2293400839
 30
0.0
 10
106.1020978941
 20
36.2300655774
 30
0.0
 10
106.0983488175
 20
36.2305971729
 30
0.0
 10
106.0935699657
 20
36.2315812769
 30
0.0
 10
106.0833814696
 20
36.2323186899
 30
0.0
 10
106.0633489945
 20
36.2335907338
 30
0.0
 10
106.0282649526
 20
36.2347710095
 30
0.0
 10
105.9756382991
 20
36.2359742016
 30
0.0
 10
105.9085892426
 20
36.2368973725
 30
0.0
 10
105.8280416392
 20
36.2375760908
 30
0.0
 10
105.7348161378
 20
36.2379809077
 30
0.0
 10
105.6685670657
 20
36.2380624053
 30
0.0
 10
105.6335103987
 20
36.2380624053
 30
0.0
  0
SPLINE
  5
45D
100
AcDbEntity
  8
0
100
AcDbSpline
 62
7
  6
BYLAYER
 70
0
 71
3
 72
16
 73
12
 74
0
 42
0.0000001
 43
0.0000001
 44
0.0000000001
 40
0.0
 40
0.0
 40
0.0
 40
0.0
 40
0.0960929548
 40
0.2217481118
 40
0.3681191572
 40
0.5233137202
 40
0.6750114916
 40
0.8118331711
 40
0.9233598449
 40
0.9664560486
 40
1.0
 40
1.0
 40
1.0
 40
1.0
 10
102.6666895161
 20
190.7083129163
 30
0.0
 10
102.1796816992
 20
190.6538945275
 30
0.0
 10
101.05265006
 20
190.5581154519
 30
0.0
 10
99.1797504255
 20
190.4306663253
 30
0.0
 10
97.0047789742
 20
190.3030681706
 30
0.0
 10
94.6969053277
 20
190.1743293
 30
0.0
 10
92.4377605295
 20
190.0457771129
 30
0.0
 10
90.4017234008
 20
189.9176769722
 30
0.0
 10
88.9193939514
 20
189.8073533464
 30
0.0
 10
87.9644890575
 20
189.7124440357
 30
0.0
 10
87.5765971272
 20
189.6635817847
 30
0.0
 10
87.4075397138
 20
189.6374716709
 30
0.0
  0
SPLINE
  5
45E
100
AcDbEntity
  8
0
100
AcDbSpline
 62
7
  6
BYLAYER
 70
0
 71
3
 72
9
 73
5
 74
0
 42
0.0000001
 43
0.0000001
 44
0.0000000001
 40
0.0
 40
0.0
 40
0.0
 40
0.0
 40
0.5649832742
 40
1.0
 40
1.0
 40
1.0
 40
1.0
 10
88.8026249296
 20
201.7916403324
 30
0.0
 10
88.5404487091
 20
201.7686573205
 30
0.0
 10
88.0767092297
 20
201.7246670634
 30
0.0
 10
87.6140425668
 20
201.6691839093
 30
0.0
 10
87.4136748898
 20
201.6389197619
 30
0.0
  0
SPLINE
  5
45F
100
AcDbEntity
  8
0
100
AcDbSpline
 62
7
  6
BYLAYER
 70
0
 71
3
 72
15
 73
11
 74
0
 42
0.0000001
 43
0.0000001
 44
0.0000000001
 40
0.0
 40
0.0
 40
0.0
 40
0.0
 40
0.0121672795
 40
0.0334423427
 40
0.108607574
 40
0.223900315
 40
0.3701157351
 40
0.5349629304
 40
0.7043601525
 40
1.0
 40
1.0
 40
1.0
 40
1.0
 10
101.672923552
 20
116.6093975723
 30
0.0
 10
101.6741915622
 20
116.5989184347
 30
0.0
 10
101.6559143013
 20
116.5711393893
 30
0.0
 10
101.5757321788
 20
116.5242002409
 30
0.0
 10
101.4002584638
 20
116.461773417
 30
0.0
 10
101.117846411
 20
116.3907732068
 30
0.0
 10
100.7543484259
 20
116.319559521
 30
0.0
 10
100.342398908
 20
116.2560169954
 30
0.0
 10
99.7996893632
 20
116.1923985178
 30
0.0
 10
99.3964294864
 20
116.1633453091
 30
0.0
 10
99.139950727
 20
116.1633453091
 30
0.0
  0
SPLINE
  5
460
100
AcDbEntity
  8
0
100
AcDbSpline
 62
7
  6
BYLAYER
 70
0
 71
3
 72
27
 73
23
 74
0
 42
0.0000001
 43
0.0000001
 44
0.0000000001
 40
0.0
 40
0.0
 40
0.0
 40
0.0
 40
0.0031774121
 40
0.0058901248
 40
0.0094640664
 40
0.0192705313
 40
0.0326424539
 40
0.0495445277
 40
0.0699208068
 40
0.1207856623
 40
0.1837763372
 40
0.2566644874
 40
0.3371879051
 40
0.4230794858
 40
0.5119405196
 40
0.6010913473
 40
0.6878157189
 40
0.769398175
 40
0.84323567
 40
0.9073956995
 40
0.9602024075
 40
1.0
 40
1.0
 40
1.0
 40
1.0
 10
103.8063590786
 20
148.9598184944
 30
0.0
 10
103.8061955619
 20
148.9423333661
 30
0.0
 10
103.7758856963
 20
148.9169233844
 30
0.0
 10
103.7309535831
 20
148.8952755566
 30
0.0
 10
103.6466649377
 20
148.8644294281
 30
0.0
 10
103.5040728473
 20
148.8297103266
 30
0.0
 10
103.2868856809
 20
148.7893120552
 30
0.0
 10
103.0111474522
 20
148.7489276601
 30
0.0
 10
102.5295903757
 20
148.6900401362
 30
0.0
 10
101.7941449717
 20
148.6200016859
 30
0.0
 10
100.7695835965
 20
148.5396670186
 30
0.0
 10
99.5814247782
 20
148.458673999
 30
0.0
 10
98.2670120797
 20
148.3772208263
 30
0.0
 10
96.8645510762
 20
148.2956064581
 30
0.0
 10
95.414534681
 20
148.2140171262
 30
0.0
 10
93.9599281205
 20
148.1324219628
 30
0.0
 10
92.545436295
 20
148.0509200775
 30
0.0
 10
91.2153422971
 20
147.9696718558
 30
0.0
 10
90.0096856683
 20
147.8884020169
 30
0.0
 10
88.9627066608
 20
147.8077367178
 30
0.0
 10
88.1037223988
 20
147.7278813367
 30
0.0
 10
87.5974433484
 20
147.6677352112
 30
0.0
 10
87.3810149622
 20
147.6341836302
 30
0.0
  0
SPLINE
  5
461
100
AcDbEntity
  8
0
100
AcDbSpline
 62
7
  6
BYLAYER
 70
0
 71
3
 72
11
 73
7
 74
0
 42
0.0000001
 43
0.0000001
 44
0.0000000001
 40
0.0
 40
0.0
 40
0.0
 40
0.0
 40
0.2350746775
 40
0.4802984969
 40
0.7370562353
 40
1.0
 40
1.0
 40
1.0
 40
1.0
 10
101.6996254198
 20
189.2593342842
 30
0.0
 10
101.8384809351
 20
189.3023257296
 30
0.0
 10
102.1081698496
 20
189.4433614986
 30
0.0
 10
102.4214176381
 20
189.7857557463
 30
0.0
 10
102.6187326877
 20
190.2228968726
 30
0.0
 10
102.6666423876
 20
190.5457214614
 30
0.0
 10
102.6666418595
 20
190.7083129163
 30
0.0
  0
ENDSEC
  0
SECTION
  2
OBJECTS
  0
DICTIONARY
  5
C
100
AcDbDictionary
280
0
281
1
  3
ACAD_GROUP
350
D
  3
ACAD_MLINESTYLE
350
17
  3
ACAD_LAYOUT
350
1A
  3
ACAD_PLOTSETTINGS
350
19
  3
ACAD_PLOTSTYLENAME
350
E
  0
DICTIONARY
  5
D
102
{ACAD_REACTORS
330
C
102
}
100
AcDbDictionary
280
0
281
1
  0
ACDBDICTIONARYWDFLT
  5
E
102
{ACAD_REACTORS
330
C
102
}
100
AcDbDictionary
281
1
  3
Normal
350
F
100
AcDbDictionaryWithDefault
340
F
  0
DICTIONARY
  5
17
102
{ACAD_REACTORS
330
C
102
}
100
AcDbDictionary
280
0
281
1
  3
Standard
350
18
  0
DICTIONARY
  5
19
102
{ACAD_REACTORS
330
C
102
}
100
AcDbDictionary
281
1
  0
DICTIONARY
  5
1A
102
{ACAD_REACTORS
330
C
102
}
100
AcDbDictionary
281
1
  3
Model
350
462
  3
Layout1
350
463
  0
ACDBPLACEHOLDER
  5
F
102
{ACAD_REACTORS
330
E
102
}
  0
MLINESTYLE
  5
18
102
{ACAD_REACTORS
330
17
102
}
100
AcDbMlineStyle
  2
STANDARD
 70
0
  3

 62
256
 51
90.0
 52
90.0
 71
2
 49
0.5
 62
256
  6
BYLAYER
 49
-0.5
 62
256
  6
BYLAYER
  0
LAYOUT
  5
462
102
{ACAD_REACTORS
330
1A
102
}
100
AcDbPlotSettings
  1

  2
none_device
  4

  6

 40
0.0
 41
0.0
 42
0.0
 43
0.0
 44
210.0
 45
297.0
 46
0.0
 47
0.0
 48
0.0
 49
0.0
140
0.0
141
0.0
142
1.0
143
1.0
 70
1024
 72
1
 73
0
 74
0
  7

 75
0
147
1.0
148
0.0
149
0.0
100
AcDbLayout
  1
Model
 70
0
 71
0
 10
0.0
 20
0.0
 11
210.0
 21
297.0
 12
0.0
 22
0.0
 32
0.0
 14
0.0
 24
0.0
 34
0.0
 15
0.0
 25
0.0
 35
0.0
146
0.0
 13
0.0
 23
0.0
 33
0.0
 16
1.0
 26
0.0
 36
0.0
 17
0.0
 27
1.0
 37
0.0
 76
0
330
210
345
0
346
0
  0
LAYOUT
  5
463
102
{ACAD_REACTORS
330
1A
102
}
100
AcDbPlotSettings
  1

  2
none_device
  4

  6

 40
0.0
 41
0.0
 42
0.0
 43
0.0
 44
210.0
 45
297.0
 46
0.0
 47
0.0
 48
0.0
 49
0.0
140
0.0
141
0.0
142
1.0
143
1.0
 70
0
 72
1
 73
0
 74
0
  7

 75
0
147
1.0
148
0.0
149
0.0
100
AcDbLayout
  1
Layout1
 70
0
 71
1
 10
0.0
 20
0.0
 11
210.0
 21
297.0
 12
0.0
 22
0.0
 32
0.0
 14
0.0
 24
0.0
 34
0.0
 15
0.0
 25
0.0
 35
0.0
146
0.0
 13
0.0
 23
0.0
 33
0.0
 16
1.0
 26
0.0
 36
0.0
 17
0.0
 27
1.0
 37
0.0
 76
0
330
211
345
0
346
0
  0
ENDSEC
  0
EOF
