  0
SECTION
  2
HEADER
  9
$ACADVER
  1
AC1009
  9
$DWGCODEPAGE
  3
ansi_1250
  9
$INSBASE
 10
0.0
 20
0.0
 30
0.0
  9
$EXTMIN
 10
-1.24
 20
-4.212449
 30
0.0
  9
$EXTMAX
 10
4.372727
 20
5.513
 30
0.0
  9
$LIMMIN
 10
0.0
 20
0.0
  9
$LIMMAX
 10
0.0
 20
0.0
  9
$ORTHOMODE
 70
     0
  9
$REGENMODE
 70
     1
  9
$FILLMODE
 70
     1
  9
$QTEXTMODE
 70
     0
  9
$MIRRTEXT
 70
     1
  9
$DRAGMODE
 70
     2
  9
$LTSCALE
 40
1.0
  9
$OSMODE
 70
     0
  9
$ATTMODE
 70
     1
  9
$TEXTSIZE
 40
0.2
  9
$TRACEWID
 40
0.05
  9
$TEXTSTYLE
  7
STANDARD
  9
$CLAYER
  8
0
  9
$CELTYPE
  6
CONTINUOUS
  9
$CECOLOR
 62
   256
  9
$DIMSCALE
 40
1.0
  9
$DIMASZ
 40
0.18
  9
$DIMEXO
 40
0.0625
  9
$DIMDLI
 40
0.38
  9
$DIMRND
 40
0.0
  9
$DIMDLE
 40
0.0
  9
$DIMEXE
 40
0.18
  9
$DIMTP
 40
0.0
  9
$DIMTM
 40
0.0
  9
$DIMTXT
 40
0.18
  9
$DIMCEN
 40
0.09
  9
$DIMTSZ
 40
0.0
  9
$DIMTOL
 70
     0
  9
$DIMLIM
 70
     0
  9
$DIMTIH
 70
     1
  9
$DIMTOH
 70
     1
  9
$DIMSE1
 70
     0
  9
$DIMSE2
 70
     0
  9
$DIMTAD
 70
     0
  9
$DIMZIN
 70
     0
  9
$DIMBLK
  1

  9
$DIMASO
 70
     1
  9
$DIMSHO
 70
     1
  9
$DIMPOST
  1

  9
$DIMAPOST
  1

  9
$DIMALT
 70
     0
  9
$DIMALTD
 70
     2
  9
$DIMALTF
 40
25.4
  9
$DIMLFAC
 40
1.0
  9
$DIMTOFL
 70
     0
  9
$DIMTVP
 40
0.0
  9
$DIMTIX
 70
     0
  9
$DIMSOXD
 70
     0
  9
$DIMSAH
 70
     0
  9
$DIMBLK1
  1

  9
$DIMBLK2
  1

  9
$DIMSTYLE
  2
STANDARD
  9
$DIMCLRD
 70
     0
  9
$DIMCLRE
 70
     0
  9
$DIMCLRT
 70
     0
  9
$DIMTFAC
 40
1.0
  9
$DIMGAP
 40
0.09
  9
$LUNITS
 70
     2
  9
$LUPREC
 70
     4
  9
$AXISMODE
 70
     0
  9
$AXISUNIT
 10
0.0
 20
0.0
  9
$SKETCHINC
 40
0.1
  9
$FILLETRAD
 40
0.0
  9
$AUNITS
 70
     0
  9
$AUPREC
 70
     0
  9
$MENU
  1
acad
  9
$ELEVATION
 40
0.0
  9
$PELEVATION
 40
0.0
  9
$THICKNESS
 40
0.0
  9
$LIMCHECK
 70
     0
  9
$BLIPMODE
 70
     1
  9
$CHAMFERA
 40
0.0
  9
$CHAMFERB
 40
0.0
  9
$SKPOLY
 70
     0
  9
$TDCREATE
 40
0.000000000
  9
$TDUPDATE
 40
0.000000000
  9
$TDINDWG
 40
0.0000000000
  9
$TDUSRTIMER
 40
0.0000000000
  9
$USRTIMER
 70
     1
  9
$ANGBASE
 50
0.0
  9
$ANGDIR
 70
     0
  9
$PDMODE
 70
     0
  9
$PDSIZE
 40
0.0
  9
$PLINEWID
 40
0.0
  9
$COORDS
 70
     0
  9
$SPLFRAME
 70
     0
  9
$SPLINETYPE
 70
     6
  9
$SPLINESEGS
 70
     8
  9
$ATTDIA
 70
     0
  9
$ATTREQ
 70
     1
  9
$HANDLING
 70
     1
  9
$HANDSEED
  5
406
  9
$SURFTAB1
 70
     6
  9
$SURFTAB2
 70
     6
  9
$SURFTYPE
 70
     6
  9
$SURFU
 70
     6
  9
$SURFV
 70
     6
  9
$UCSNAME
  2

  9
$UCSORG
 10
0.0
 20
0.0
 30
0.0
  9
$UCSXDIR
 10
1.0
 20
0.0
 30
0.0
  9
$UCSYDIR
 10
0.0
 20
1.0
 30
0.0
  9
$PUCSNAME
  2

  9
$PUCSORG
 10
0.0
 20
0.0
 30
0.0
  9
$PUCSXDIR
 10
1.0
 20
0.0
 30
0.0
  9
$PUCSYDIR
 10
0.0
 20
1.0
 30
0.0
  9
$USERI1
 70
     0
  9
$USERI2
 70
     0
  9
$USERI3
 70
     0
  9
$USERI4
 70
     0
  9
$USERI5
 70
     0
  9
$USERR1
 40
0.0
  9
$USERR2
 40
0.0
  9
$USERR3
 40
0.0
  9
$USERR4
 40
0.0
  9
$USERR5
 40
0.0
  9
$WORLDVIEW
 70
     1
  9
$SHADEDGE
 70
     3
  9
$SHADEDIF
 70
    70
  9
$TILEMODE
 70
     1
  9
$MAXACTVP
 70
    16
  9
$PINSBASE
 10
0.0
 20
0.0
 30
0.0
  9
$PLIMCHECK
 70
     0
  9
$PEXTMIN
 10
1.000000E+20
 20
1.000000E+20
 30
1.000000E+20
  9
$PEXTMAX
 10
-1.000000E+20
 20
-1.000000E+20
 30
-1.000000E+20
  9
$PLIMMIN
 10
0.0
 20
0.0
  9
$PLIMMAX
 10
12.0
 20
9.0
  9
$UNITMODE
 70
     0
  9
$VISRETAIN
 70
     0
  9
$PLINEGEN
 70
     1
  9
$PSLTSCALE
 70
     0
  9
$TREEDEPTH
 70
  3020
  0
ENDSEC
  0
SECTION
  2
TABLES
  0
TABLE
  2
VPORT
 70
     1
  0
VPORT
  2
*ACTIVE
 70
     0
 10
0.0
 20
0.0
 11
1.0
 21
1.0
 12
6.591288
 22
4.579184
 13
0.0
 23
0.0
 14
1.0
 24
1.0
 15
0.0
 25
0.0
 16
0.0
 26
0.0
 36
1.0
 17
0.0
 27
0.0
 37
0.0
 40
9.158369
 41
0.688564
 42
50.0
 43
0.0
 44
0.0
 50
0.0
 51
0.0
 71
     0
 72
   100
 73
     1
 74
     1
 75
     0
 76
     0
 77
     0
 78
     0
  0
ENDTAB
  0
TABLE
  2
LTYPE
 70
     5
  0
LTYPE
  2
CONTINUOUS
 70
    64
  3
Solid line
 72
    65
 73
     0
 40
0.0
  0
LTYPE
  2
CENTER
 70
    64
  3
Center ____ _ ____ _ ____ _ ____ _ ____ _ ____
 72
    65
 73
     4
 40
50.8
 49
31.75
 49
-6.35
 49
6.35
 49
-6.35
  0
LTYPE
  2
HIDDEN
 70
    64
  3
Hidden __ __ __ __ __ __ __ __ __ __ __ __ __ __
 72
    65
 73
     2
 40
9.525
 49
6.35
 49
-3.175
  0
LTYPE
  2
CENTER2
 70
    64
  3
Center (.5x) ___ _ ___ _ ___ _ ___ _ ___ _ ___
 72
    65
 73
     4
 40
28.575
 49
19.05
 49
-3.175
 49
3.175
 49
-3.175
  0
LTYPE
  2
HIDDEN2
 70
    64
  3
Hidden (.5x) _ _ _ _ _ _ _ _ _ _ _ _ _ _ _ _ _
 72
    65
 73
     2
 40
4.7625
 49
3.175
 49
-1.5875
  0
ENDTAB
  0
TABLE
  2
LAYER
 70
     1
  0
LAYER
  2
0
 70
     0
 62
     7
  6
CONTINUOUS
  0
ENDTAB
  0
TABLE
  2
STYLE
 70
     1
  0
STYLE
  2
STANDARD
 70
     0
 40
0.0
 41
1.0
 50
0.0
 71
     0
 42
0.0
  3
txt
  4

  0
ENDTAB
  0
TABLE
  2
VIEW
 70
     0
  0
ENDTAB
  0
TABLE
  2
UCS
 70
     0
  0
ENDTAB
  0
TABLE
  2
APPID
 70
     1
  0
APPID
  2
ACAD
 70
     0
  0
ENDTAB
  0
TABLE
  2
DIMSTYLE
 70
     1
  0
DIMSTYLE
  2
STANDARD
 70
     0
  3

  4

  5

  6

  7

 40
1.0
 41
0.18
 42
0.0625
 43
0.38
 44
0.18
 45
0.0
 46
0.0
 47
0.0
 48
0.0
 71
     0
 72
     0
 73
     1
 74
     1
 75
     0
 76
     0
 77
     0
 78
     0
140
0.18
141
0.09
142
0.0
143
25.4
144
1.0
145
0.0
146
1.0
147
0.09
170
     0
171
     2
172
     0
173
     0
174
     0
175
     0
176
     0
177
     0
178
     0
  0
ENDTAB
  0
ENDSEC
  0
SECTION
  2
BLOCKS
  0
ENDSEC
  0
SECTION
  2
ENTITIES
  0
LINE
  8
0
  6
CONTINUOUS
 62
     7
  5
25B
 10
4.210972
 20
-0.389064
 30
0.0
 11
3.75
 21
-0.239285
 31
0.0
  0
LINE
  8
0
  6
CONTINUOUS
 62
     7
  5
25C
 10
4.288226
 20
-0.1513
 30
0.0
 11
4.210972
 21
-0.389064
 31
0.0
  0
LINE
  8
0
  6
CONTINUOUS
 62
     7
  5
25D
 10
4.288226
 20
-0.1513
 30
0.0
 11
3.75
 21
0.023581
 31
0.0
  0
LINE
  8
0
  6
CONTINUOUS
 62
     7
  5
25E
 10
4.372727
 20
0.536905
 30
0.0
 11
3.75
 21
0.49336
 31
0.0
  0
LINE
  8
0
  6
CONTINUOUS
 62
     7
  5
25F
 10
4.355288
 20
0.786296
 30
0.0
 11
4.372727
 21
0.536905
 31
0.0
  0
LINE
  8
0
  6
CONTINUOUS
 62
     7
  5
260
 10
4.355288
 20
0.786296
 30
0.0
 11
3.75
 21
0.743971
 31
0.0
  0
LINE
  8
0
  6
CONTINUOUS
 62
     7
  5
261
 10
4.264396
 20
1.213908
 30
0.0
 11
3.75
 21
1.026683
 31
0.0
  0
LINE
  8
0
  6
CONTINUOUS
 62
     7
  5
262
 10
4.178891
 20
1.448831
 30
0.0
 11
4.264396
 21
1.213908
 31
0.0
  0
LINE
  8
0
  6
CONTINUOUS
 62
     7
  5
263
 10
4.178891
 20
1.448831
 30
0.0
 11
3.75
 21
1.292727
 31
0.0
  0
LINE
  8
0
  6
CONTINUOUS
 62
     7
  5
264
 10
0.0
 20
2.103
 30
0.0
 11
0.0
 21
-3.2
 31
0.0
  0
LINE
  8
0
  6
CONTINUOUS
 62
     7
  5
265
 10
2.87
 20
-2.46
 30
0.0
 11
2.87
 21
-3.199
 31
0.0
  0
LINE
  8
0
  6
CONTINUOUS
 62
     7
  5
266
 10
1.923
 20
-3.2
 30
0.0
 11
0.0
 21
-3.2
 31
0.0
  0
LINE
  8
0
  6
CONTINUOUS
 62
     7
  5
267
 10
1.923
 20
2.851
 30
0.0
 11
1.923
 21
-3.2
 31
0.0
  0
LINE
  8
0
  6
CONTINUOUS
 62
     7
  5
268
 10
2.87
 20
-3.199
 30
0.0
 11
1.923
 21
-3.199
 31
0.0
  0
LINE
  8
0
  6
CONTINUOUS
 62
     7
  5
269
 10
3.24
 20
-2.46
 30
0.0
 11
2.87
 21
-2.46
 31
0.0
  0
LINE
  8
0
  6
CONTINUOUS
 62
     7
  5
26A
 10
2.87
 20
2.851
 30
0.0
 11
2.87
 21
2.85
 31
0.0
  0
LINE
  8
0
  6
CONTINUOUS
 62
     7
  5
26B
 10
3.24
 20
-2.01
 30
0.0
 11
3.24
 21
-2.46
 31
0.0
  0
LINE
  8
0
  6
CONTINUOUS
 62
     7
  5
26C
 10
3.63
 20
1.7921
 30
0.0
 11
3.75
 21
1.7921
 31
0.0
  0
LINE
  8
0
  6
CONTINUOUS
 62
     7
  5
26D
 10
3.75
 20
-1.1159
 30
0.0
 11
3.63
 21
-1.1159
 31
0.0
  0
LINE
  8
0
  6
CONTINUOUS
 62
     7
  5
26E
 10
3.75
 20
1.7921
 30
0.0
 11
3.75
 21
-1.1159
 31
0.0
  0
LINE
  8
0
  6
CONTINUOUS
 62
     7
  5
26F
 10
3.44
 20
-1.23
 30
0.0
 11
3.44
 21
-2.01
 31
0.0
  0
LINE
  8
0
  6
CONTINUOUS
 62
     7
  5
270
 10
3.44
 20
-2.01
 30
0.0
 11
2.87
 21
-2.01
 31
0.0
  0
LINE
  8
0
  6
CONTINUOUS
 62
     7
  5
271
 10
2.87
 20
2.85
 30
0.0
 11
3.63
 21
2.85
 31
0.0
  0
LINE
  8
0
  6
CONTINUOUS
 62
     7
  5
272
 10
3.63
 20
-1.23
 30
0.0
 11
3.44
 21
-1.23
 31
0.0
  0
LINE
  8
0
  6
CONTINUOUS
 62
     7
  5
273
 10
3.63
 20
2.85
 30
0.0
 11
3.63
 21
-1.23
 31
0.0
  0
LINE
  8
0
  6
CONTINUOUS
 62
     7
  5
274
 10
2.87
 20
2.85
 30
0.0
 11
2.87
 21
-2.01
 31
0.0
  0
LINE
  8
0
  6
CONTINUOUS
 62
     7
  5
275
 10
1.529555
 20
5.301307
 30
0.0
 11
1.484286
 21
4.932317
 31
0.0
  0
ARC
  8
0
  6
CONTINUOUS
 62
     7
  5
276
 10
1.34345
 20
5.324138
 30
0.0
 40
0.1875
 50
353.005781
 51
30.0
  0
LINE
  8
0
  6
CONTINUOUS
 62
     7
  5
277
 10
1.457268
 20
5.502
 30
0.0
 11
1.50583
 21
5.417888
 31
0.0
  0
LINE
  8
0
  6
CONTINUOUS
 62
     7
  5
278
 10
1.388985
 20
5.462577
 30
0.0
 11
1.457268
 21
5.502
 31
0.0
  0
LINE
  8
0
  6
CONTINUOUS
 62
     7
  5
279
 10
1.778732
 20
5.502
 30
0.0
 11
1.845562
 21
5.463416
 31
0.0
  0
LINE
  8
0
  6
CONTINUOUS
 62
     7
  5
27A
 10
1.73017
 20
5.417888
 30
0.0
 11
1.778732
 21
5.502
 31
0.0
  0
ARC
  8
0
  6
CONTINUOUS
 62
     7
  5
27B
 10
1.89255
 20
5.324138
 30
0.0
 40
0.1875
 50
150.0
 51
186.994219
  0
LINE
  8
0
  6
CONTINUOUS
 62
     7
  5
27C
 10
1.750239
 20
4.94434
 30
0.0
 11
1.706445
 21
5.301307
 31
0.0
  0
LINE
  8
0
  6
CONTINUOUS
 62
     7
  5
27D
 10
0.178675
 20
4.77756
 30
0.0
 11
0.270723
 21
4.653
 31
0.0
  0
ARC
  8
0
  6
CONTINUOUS
 62
     7
  5
27E
 10
0.255479
 20
4.834317
 30
0.0
 40
0.0955
 50
173.005781
 51
216.46391
  0
LINE
  8
0
  6
CONTINUOUS
 62
     7
  5
27F
 10
0.216555
 20
5.301307
 30
0.0
 11
0.16069
 21
4.845946
 31
0.0
  0
ARC
  8
0
  6
CONTINUOUS
 62
     7
  5
280
 10
0.03045
 20
5.324138
 30
0.0
 40
0.1875
 50
353.005781
 51
30.0
  0
LINE
  8
0
  6
CONTINUOUS
 62
     7
  5
281
 10
0.144268
 20
5.502
 30
0.0
 11
0.19283
 21
5.417888
 31
0.0
  0
LINE
  8
0
  6
CONTINUOUS
 62
     7
  5
282
 10
0.064594
 20
5.456
 30
0.0
 11
0.144268
 21
5.502
 31
0.0
  0
LINE
  8
0
  6
CONTINUOUS
 62
     7
  5
283
 10
0.113155
 20
5.371888
 30
0.0
 11
0.064594
 21
5.456
 31
0.0
  0
ARC
  8
0
  6
CONTINUOUS
 62
     7
  5
284
 10
0.03045
 20
5.324138
 30
0.0
 40
0.0955
 50
353.005781
 51
30.0
  0
LINE
  8
0
  6
CONTINUOUS
 62
     7
  5
285
 10
0.082973
 20
4.967994
 30
0.0
 11
0.125239
 21
5.312509
 31
0.0
  0
ARC
  8
0
  6
CONTINUOUS
 62
     7
  5
286
 10
0.255479
 20
4.834317
 30
0.0
 40
0.1875
 50
213.766226
 51
216.46391
  0
LINE
  8
0
  6
CONTINUOUS
 62
     7
  5
287
 10
0.156328
 20
4.653
 30
0.0
 11
0.104686
 21
4.722883
 31
0.0
  0
LINE
  8
0
  6
CONTINUOUS
 62
     7
  5
288
 10
0.505314
 20
4.722883
 30
0.0
 11
0.453672
 21
4.653
 31
0.0
  0
ARC
  8
0
  6
CONTINUOUS
 62
     7
  5
289
 10
0.354521
 20
4.834317
 30
0.0
 40
0.1875
 50
323.53609
 51
326.233774
  0
LINE
  8
0
  6
CONTINUOUS
 62
     7
  5
28A
 10
0.484761
 20
5.312509
 30
0.0
 11
0.527027
 21
4.967994
 31
0.0
  0
ARC
  8
0
  6
CONTINUOUS
 62
     7
  5
28B
 10
0.57955
 20
5.324138
 30
0.0
 40
0.0955
 50
150.0
 51
186.994219
  0
LINE
  8
0
  6
CONTINUOUS
 62
     7
  5
28C
 10
0.545406
 20
5.456
 30
0.0
 11
0.496845
 21
5.371888
 31
0.0
  0
LINE
  8
0
  6
CONTINUOUS
 62
     7
  5
28D
 10
0.465732
 20
5.502
 30
0.0
 11
0.545406
 21
5.456
 31
0.0
  0
LINE
  8
0
  6
CONTINUOUS
 62
     7
  5
28E
 10
0.41717
 20
5.417888
 30
0.0
 11
0.465732
 21
5.502
 31
0.0
  0
ARC
  8
0
  6
CONTINUOUS
 62
     7
  5
28F
 10
0.57955
 20
5.324138
 30
0.0
 40
0.1875
 50
150.0
 51
186.994219
  0
LINE
  8
0
  6
CONTINUOUS
 62
     7
  5
290
 10
0.44931
 20
4.845946
 30
0.0
 11
0.393445
 21
5.301307
 31
0.0
  0
ARC
  8
0
  6
CONTINUOUS
 62
     7
  5
291
 10
0.354521
 20
4.834317
 30
0.0
 40
0.0955
 50
323.53609
 51
6.994219
  0
LINE
  8
0
  6
CONTINUOUS
 62
     7
  5
292
 10
0.339277
 20
4.653
 30
0.0
 11
0.431325
 21
4.77756
 31
0.0
  0
LINE
  8
0
  6
CONTINUOUS
 62
     7
  5
293
 10
2.802675
 20
4.77756
 30
0.0
 11
2.894723
 21
4.653
 31
0.0
  0
ARC
  8
0
  6
CONTINUOUS
 62
     7
  5
294
 10
2.879479
 20
4.834317
 30
0.0
 40
0.0955
 50
173.005781
 51
216.46391
  0
LINE
  8
0
  6
CONTINUOUS
 62
     7
  5
295
 10
2.840555
 20
5.301307
 30
0.0
 11
2.78469
 21
4.845946
 31
0.0
  0
ARC
  8
0
  6
CONTINUOUS
 62
     7
  5
296
 10
2.65445
 20
5.324138
 30
0.0
 40
0.1875
 50
353.005781
 51
30.0
  0
LINE
  8
0
  6
CONTINUOUS
 62
     7
  5
297
 10
2.768268
 20
5.502
 30
0.0
 11
2.81683
 21
5.417888
 31
0.0
  0
LINE
  8
0
  6
CONTINUOUS
 62
     7
  5
298
 10
2.688594
 20
5.456
 30
0.0
 11
2.768268
 21
5.502
 31
0.0
  0
LINE
  8
0
  6
CONTINUOUS
 62
     7
  5
299
 10
2.737155
 20
5.371888
 30
0.0
 11
2.688594
 21
5.456
 31
0.0
  0
ARC
  8
0
  6
CONTINUOUS
 62
     7
  5
29A
 10
2.65445
 20
5.324138
 30
0.0
 40
0.0955
 50
353.005781
 51
30.0
  0
LINE
  8
0
  6
CONTINUOUS
 62
     7
  5
29B
 10
2.706973
 20
4.967994
 30
0.0
 11
2.749239
 21
5.312509
 31
0.0
  0
ARC
  8
0
  6
CONTINUOUS
 62
     7
  5
29C
 10
2.879479
 20
4.834317
 30
0.0
 40
0.1875
 50
213.766226
 51
216.46391
  0
LINE
  8
0
  6
CONTINUOUS
 62
     7
  5
29D
 10
2.780328
 20
4.653
 30
0.0
 11
2.728686
 21
4.722883
 31
0.0
  0
LINE
  8
0
  6
CONTINUOUS
 62
     7
  5
29E
 10
3.129314
 20
4.722883
 30
0.0
 11
3.077672
 21
4.653
 31
0.0
  0
ARC
  8
0
  6
CONTINUOUS
 62
     7
  5
29F
 10
2.978521
 20
4.834317
 30
0.0
 40
0.1875
 50
323.53609
 51
326.233774
  0
LINE
  8
0
  6
CONTINUOUS
 62
     7
  5
2A0
 10
3.108761
 20
5.312509
 30
0.0
 11
3.151027
 21
4.967994
 31
0.0
  0
ARC
  8
0
  6
CONTINUOUS
 62
     7
  5
2A1
 10
3.20355
 20
5.324138
 30
0.0
 40
0.0955
 50
150.0
 51
186.994219
  0
LINE
  8
0
  6
CONTINUOUS
 62
     7
  5
2A2
 10
3.169406
 20
5.456
 30
0.0
 11
3.120845
 21
5.371888
 31
0.0
  0
LINE
  8
0
  6
CONTINUOUS
 62
     7
  5
2A3
 10
3.089732
 20
5.502
 30
0.0
 11
3.169406
 21
5.456
 31
0.0
  0
LINE
  8
0
  6
CONTINUOUS
 62
     7
  5
2A4
 10
3.04117
 20
5.417888
 30
0.0
 11
3.089732
 21
5.502
 31
0.0
  0
ARC
  8
0
  6
CONTINUOUS
 62
     7
  5
2A5
 10
3.20355
 20
5.324138
 30
0.0
 40
0.1875
 50
150.0
 51
186.994219
  0
LINE
  8
0
  6
CONTINUOUS
 62
     7
  5
2A6
 10
3.07331
 20
4.845946
 30
0.0
 11
3.017445
 21
5.301307
 31
0.0
  0
ARC
  8
0
  6
CONTINUOUS
 62
     7
  5
2A7
 10
2.978521
 20
4.834317
 30
0.0
 40
0.0955
 50
323.53609
 51
6.994219
  0
LINE
  8
0
  6
CONTINUOUS
 62
     7
  5
2A8
 10
2.963277
 20
4.653
 30
0.0
 11
3.055325
 21
4.77756
 31
0.0
  0
LINE
  8
0
  6
CONTINUOUS
 62
     7
  5
2A9
 10
-0.595827
 20
5.039173
 30
0.0
 11
-0.602
 21
5.033
 31
0.0
  0
LINE
  8
0
  6
CONTINUOUS
 62
     7
  5
2AA
 10
-0.482
 20
5.153
 30
0.0
 11
-0.595827
 21
5.039173
 31
0.0
  0
LINE
  8
0
  6
CONTINUOUS
 62
     7
  5
2AB
 10
-0.333428
 20
5.153
 30
0.0
 11
-0.482
 21
5.153
 31
0.0
  0
LINE
  8
0
  6
CONTINUOUS
 62
     7
  5
2AC
 10
-0.602
 20
4.103
 30
0.0
 11
-0.602
 21
5.033
 31
0.0
  0
ARC
  8
0
  6
CONTINUOUS
 62
     7
  5
2AD
 10
-0.427567
 20
4.153
 30
0.0
 40
0.05
 50
270.0
 51
0.0
  0
LINE
  8
0
  6
CONTINUOUS
 62
     7
  5
2AE
 10
-0.377567
 20
4.153
 30
0.0
 11
-0.377567
 21
4.956128
 31
0.0
  0
LINE
  8
0
  6
CONTINUOUS
 62
     7
  5
2AF
 10
-0.374528
 20
4.981807
 30
0.0
 11
-0.267244
 21
5.428679
 31
0.0
  0
ARC
  8
0
  6
CONTINUOUS
 62
     7
  5
2B0
 10
-0.267567
 20
4.956128
 30
0.0
 40
0.11
 50
166.5
 51
180.0
  0
LINE
  8
0
  6
CONTINUOUS
 62
     7
  5
2B1
 10
3.291714
 20
5.513
 30
0.0
 11
3.402283
 21
5.513
 31
0.0
  0
ARC
  8
0
  6
CONTINUOUS
 62
     7
  5
2B2
 10
3.291714
 20
5.403
 30
0.0
 40
0.11
 50
90.0
 51
176.0
  0
LINE
  8
0
  6
CONTINUOUS
 62
     7
  5
2B3
 10
3.132252
 20
4.699512
 30
0.0
 11
3.181982
 21
5.410673
 31
0.0
  0
ARC
  8
0
  6
CONTINUOUS
 62
     7
  5
2B4
 10
3.082374
 20
4.703
 30
0.0
 40
0.05
 50
270.0
 51
356.0
  0
LINE
  8
0
  6
CONTINUOUS
 62
     7
  5
2B5
 10
2.775626
 20
4.653
 30
0.0
 11
3.082374
 21
4.653
 31
0.0
  0
ARC
  8
0
  6
CONTINUOUS
 62
     7
  5
2B6
 10
2.775626
 20
4.703
 30
0.0
 40
0.05
 50
184.0
 51
270.0
  0
LINE
  8
0
  6
CONTINUOUS
 62
     7
  5
2B7
 10
2.676018
 20
5.410673
 30
0.0
 11
2.725748
 21
4.699512
 31
0.0
  0
ARC
  8
0
  6
CONTINUOUS
 62
     7
  5
2B8
 10
2.566286
 20
5.403
 30
0.0
 40
0.11
 50
4.0
 51
90.0
  0
LINE
  8
0
  6
CONTINUOUS
 62
     7
  5
2B9
 10
2.542714
 20
5.513
 30
0.0
 11
2.566286
 21
5.513
 31
0.0
  0
ARC
  8
0
  6
CONTINUOUS
 62
     7
  5
2BA
 10
0.691286
 20
5.403
 30
0.0
 40
0.11
 50
4.0
 51
90.0
  0
LINE
  8
0
  6
CONTINUOUS
 62
     7
  5
2BB
 10
0.667714
 20
5.513
 30
0.0
 11
0.691286
 21
5.513
 31
0.0
  0
ARC
  8
0
  6
CONTINUOUS
 62
     7
  5
2BC
 10
0.667714
 20
5.403
 30
0.0
 40
0.11
 50
90.0
 51
176.0
  0
LINE
  8
0
  6
CONTINUOUS
 62
     7
  5
2BD
 10
0.508252
 20
4.699512
 30
0.0
 11
0.557982
 21
5.410673
 31
0.0
  0
ARC
  8
0
  6
CONTINUOUS
 62
     7
  5
2BE
 10
0.458374
 20
4.703
 30
0.0
 40
0.05
 50
270.0
 51
356.0
  0
LINE
  8
0
  6
CONTINUOUS
 62
     7
  5
2BF
 10
0.151626
 20
4.653
 30
0.0
 11
0.458374
 21
4.653
 31
0.0
  0
ARC
  8
0
  6
CONTINUOUS
 62
     7
  5
2C0
 10
0.151626
 20
4.703
 30
0.0
 40
0.05
 50
184.0
 51
270.0
  0
LINE
  8
0
  6
CONTINUOUS
 62
     7
  5
2C1
 10
0.052018
 20
5.410673
 30
0.0
 11
0.101748
 21
4.699512
 31
0.0
  0
ARC
  8
0
  6
CONTINUOUS
 62
     7
  5
2C2
 10
-0.057714
 20
5.403
 30
0.0
 40
0.11
 50
4.0
 51
90.0
  0
ARC
  8
0
  6
CONTINUOUS
 62
     7
  5
2C3
 10
2.003286
 20
5.403
 30
0.0
 40
0.11
 50
4.0
 51
90.0
  0
LINE
  8
0
  6
CONTINUOUS
 62
     7
  5
2C4
 10
1.937485
 20
5.513
 30
0.0
 11
2.003286
 21
5.513
 31
0.0
  0
ARC
  8
0
  6
CONTINUOUS
 62
     7
  5
2C5
 10
1.937485
 20
5.403
 30
0.0
 40
0.11
 50
90.0
 51
147.5
  0
LINE
  8
0
  6
CONTINUOUS
 62
     7
  5
2C6
 10
1.783393
 20
5.365852
 30
0.0
 11
1.844712
 21
5.462103
 31
0.0
  0
ARC
  8
0
  6
CONTINUOUS
 62
     7
  5
2C7
 10
1.876167
 20
5.306749
 30
0.0
 40
0.11
 50
147.5
 51
177.5
  0
LINE
  8
0
  6
CONTINUOUS
 62
     7
  5
2C8
 10
1.746041
 20
4.848202
 30
0.0
 11
1.766271
 21
5.311547
 31
0.0
  0
ARC
  8
0
  6
CONTINUOUS
 62
     7
  5
2C9
 10
1.636146
 20
4.853
 30
0.0
 40
0.11
 50
270.0
 51
357.5
  0
LINE
  8
0
  6
CONTINUOUS
 62
     7
  5
2CA
 10
1.597854
 20
4.743
 30
0.0
 11
1.636146
 21
4.743
 31
0.0
  0
ARC
  8
0
  6
CONTINUOUS
 62
     7
  5
2CB
 10
1.597854
 20
4.853
 30
0.0
 40
0.11
 50
182.5
 51
270.0
  0
LINE
  8
0
  6
CONTINUOUS
 62
     7
  5
2CC
 10
1.467729
 20
5.311547
 30
0.0
 11
1.487959
 21
4.848202
 31
0.0
  0
ARC
  8
0
  6
CONTINUOUS
 62
     7
  5
2CD
 10
1.357833
 20
5.306749
 30
0.0
 40
0.11
 50
2.5
 51
32.5
  0
LINE
  8
0
  6
CONTINUOUS
 62
     7
  5
2CE
 10
1.389288
 20
5.462103
 30
0.0
 11
1.450607
 21
5.365852
 31
0.0
  0
ARC
  8
0
  6
CONTINUOUS
 62
     7
  5
2CF
 10
1.296515
 20
5.403
 30
0.0
 40
0.11
 50
32.5
 51
90.0
  0
LINE
  8
0
  6
CONTINUOUS
 62
     7
  5
2D0
 10
1.230714
 20
5.513
 30
0.0
 11
1.296515
 21
5.513
 31
0.0
  0
LINE
  8
0
  6
CONTINUOUS
 62
     7
  5
2D1
 10
3.4
 20
2.981
 30
0.0
 11
3.4
 21
2.851
 31
0.0
  0
LINE
  8
0
  6
CONTINUOUS
 62
     7
  5
2D2
 10
2.978
 20
2.851
 30
0.0
 11
2.978
 21
3.481
 31
0.0
  0
LINE
  8
0
  6
CONTINUOUS
 62
     7
  5
2D3
 10
3.831
 20
2.981
 30
0.0
 11
3.4
 21
2.981
 31
0.0
  0
ARC
  8
0
  6
CONTINUOUS
 62
     7
  5
2D4
 10
3.831
 20
3.081
 30
0.0
 40
0.1
 50
270.0
 51
360.0
  0
LINE
  8
0
  6
CONTINUOUS
 62
     7
  5
2D5
 10
3.931
 20
3.481
 30
0.0
 11
3.931
 21
3.081
 31
0.0
  0
LINE
  8
0
  6
CONTINUOUS
 62
     7
  5
2D6
 10
3.648
 20
3.481
 30
0.0
 11
3.931
 21
3.481
 31
0.0
  0
LINE
  8
0
  6
CONTINUOUS
 62
     7
  5
2D7
 10
3.4
 20
2.851
 30
0.0
 11
2.978
 21
2.851
 31
0.0
  0
LINE
  8
0
  6
CONTINUOUS
 62
     7
  5
2D8
 10
2.978
 20
3.481
 30
0.0
 11
3.648
 21
3.481
 31
0.0
  0
LINE
  8
0
  6
CONTINUOUS
 62
     7
  5
2D9
 10
3.648
 20
4.826861
 30
0.0
 11
3.648
 21
3.481
 31
0.0
  0
LINE
  8
0
  6
CONTINUOUS
 62
     7
  5
2DA
 10
0.168
 20
2.103
 30
0.0
 11
-0.762
 21
2.103
 31
0.0
  0
LINE
  8
0
  6
CONTINUOUS
 62
     7
  5
2DB
 10
0.168
 20
2.851
 30
0.0
 11
0.168
 21
2.103
 31
0.0
  0
LINE
  8
0
  6
CONTINUOUS
 62
     7
  5
2DC
 10
2.978
 20
2.851
 30
0.0
 11
0.168
 21
2.851
 31
0.0
  0
LINE
  8
0
  6
CONTINUOUS
 62
     7
  5
2DD
 10
3.642004
 20
4.875691
 30
0.0
 11
3.648
 21
4.826861
 31
0.0
  0
LINE
  8
0
  6
CONTINUOUS
 62
     7
  5
2DE
 10
3.509244
 20
5.428679
 30
0.0
 11
3.642004
 21
4.875691
 31
0.0
  0
ARC
  8
0
  6
CONTINUOUS
 62
     7
  5
2DF
 10
3.402283
 20
5.403
 30
0.0
 40
0.11
 50
13.5
 51
90.0
  0
ARC
  8
0
  6
CONTINUOUS
 62
     7
  5
2E0
 10
2.542714
 20
5.403
 30
0.0
 40
0.11
 50
90.0
 51
176.0
  0
LINE
  8
0
  6
CONTINUOUS
 62
     7
  5
2E1
 10
2.383252
 20
4.699512
 30
0.0
 11
2.432982
 21
5.410673
 31
0.0
  0
ARC
  8
0
  6
CONTINUOUS
 62
     7
  5
2E2
 10
2.333374
 20
4.703
 30
0.0
 40
0.05
 50
270.0
 51
356.0
  0
LINE
  8
0
  6
CONTINUOUS
 62
     7
  5
2E3
 10
2.212626
 20
4.653
 30
0.0
 11
2.333374
 21
4.653
 31
0.0
  0
ARC
  8
0
  6
CONTINUOUS
 62
     7
  5
2E4
 10
2.212626
 20
4.703
 30
0.0
 40
0.05
 50
184.0
 51
270.0
  0
LINE
  8
0
  6
CONTINUOUS
 62
     7
  5
2E5
 10
2.113018
 20
5.410673
 30
0.0
 11
2.162748
 21
4.699512
 31
0.0
  0
ARC
  8
0
  6
CONTINUOUS
 62
     7
  5
2E6
 10
1.230714
 20
5.403
 30
0.0
 40
0.11
 50
90.0
 51
176.0
  0
LINE
  8
0
  6
CONTINUOUS
 62
     7
  5
2E7
 10
1.071252
 20
4.699512
 30
0.0
 11
1.120982
 21
5.410673
 31
0.0
  0
ARC
  8
0
  6
CONTINUOUS
 62
     7
  5
2E8
 10
1.021374
 20
4.703
 30
0.0
 40
0.05
 50
270.0
 51
356.0
  0
LINE
  8
0
  6
CONTINUOUS
 62
     7
  5
2E9
 10
0.900626
 20
4.653
 30
0.0
 11
1.021374
 21
4.653
 31
0.0
  0
ARC
  8
0
  6
CONTINUOUS
 62
     7
  5
2EA
 10
0.900626
 20
4.703
 30
0.0
 40
0.05
 50
184.0
 51
270.0
  0
LINE
  8
0
  6
CONTINUOUS
 62
     7
  5
2EB
 10
0.801018
 20
5.410673
 30
0.0
 11
0.850748
 21
4.699512
 31
0.0
  0
LINE
  8
0
  6
CONTINUOUS
 62
     7
  5
2EC
 10
-0.160283
 20
5.513
 30
0.0
 11
-0.057714
 21
5.513
 31
0.0
  0
ARC
  8
0
  6
CONTINUOUS
 62
     7
  5
2ED
 10
-0.160283
 20
5.403
 30
0.0
 40
0.11
 50
90.0
 51
166.5
  0
LINE
  8
0
  6
CONTINUOUS
 62
     7
  5
2EE
 10
-0.62
 20
4.103
 30
0.0
 11
-0.427567
 21
4.103
 31
0.0
  0
ARC
  8
0
  6
CONTINUOUS
 62
     7
  5
2EF
 10
-0.62
 20
3.961
 30
0.0
 40
0.142
 50
90.0
 51
180.0
  0
LINE
  8
0
  6
CONTINUOUS
 62
     7
  5
2F0
 10
-0.762
 20
2.103
 30
0.0
 11
-0.762
 21
3.961
 31
0.0
  0
LINE
  8
0
  6
CONTINUOUS
 62
     7
  5
2F1
 10
-0.502
 20
-4.125183
 30
0.0
 11
-0.502
 21
-3.985056
 31
0.0
  0
LINE
  8
0
  6
CONTINUOUS
 62
     7
  5
2F2
 10
-0.502
 20
-4.212449
 30
0.0
 11
-0.502
 21
-4.125183
 31
0.0
  0
LINE
  8
0
  6
CONTINUOUS
 62
     7
  5
2F3
 10
-0.502
 20
-3.277449
 30
0.0
 11
-0.502
 21
-3.219449
 31
0.0
  0
LINE
  8
0
  6
CONTINUOUS
 62
     7
  5
2F4
 10
-0.502
 20
-3.424451
 30
0.0
 11
-0.502
 21
-3.277449
 31
0.0
  0
LINE
  8
0
  6
CONTINUOUS
 62
     7
  5
2F5
 10
-0.58
 20
-4.125183
 30
0.0
 11
-0.58
 21
-3.985056
 31
0.0
  0
LINE
  8
0
  6
CONTINUOUS
 62
     7
  5
2F6
 10
-0.58
 20
-3.510108
 30
0.0
 11
-0.58
 21
-3.985056
 31
0.0
  0
LINE
  8
0
  6
CONTINUOUS
 62
     7
  5
2F7
 10
-0.58
 20
-3.510108
 30
0.0
 11
-0.58
 21
-3.476068
 31
0.0
  0
LINE
  8
0
  6
CONTINUOUS
 62
     7
  5
2F8
 10
-0.58
 20
-3.476068
 30
0.0
 11
-0.58
 21
-3.277449
 31
0.0
  0
LINE
  8
0
  6
CONTINUOUS
 62
     7
  5
2F9
 10
-0.58
 20
-3.277449
 30
0.0
 11
-0.58
 21
-3.219449
 31
0.0
  0
LINE
  8
0
  6
CONTINUOUS
 62
     7
  5
2FA
 10
-0.58
 20
-4.212449
 30
0.0
 11
-0.58
 21
-4.125183
 31
0.0
  0
LINE
  8
0
  6
CONTINUOUS
 62
     7
  5
2FB
 10
-0.58
 20
-3.476068
 30
0.0
 11
-0.570606
 21
-3.476068
 31
0.0
  0
LINE
  8
0
  6
CONTINUOUS
 62
     7
  5
2FC
 10
-0.58
 20
-3.219449
 30
0.0
 11
-0.502
 21
-3.219449
 31
0.0
  0
LINE
  8
0
  6
CONTINUOUS
 62
     7
  5
2FD
 10
-0.58
 20
-3.277449
 30
0.0
 11
-0.502
 21
-3.277449
 31
0.0
  0
LINE
  8
0
  6
CONTINUOUS
 62
     7
  5
2FE
 10
-0.58
 20
-3.985056
 30
0.0
 11
-0.579846
 21
-3.980643
 31
0.0
  0
LINE
  8
0
  6
CONTINUOUS
 62
     7
  5
2FF
 10
-0.579846
 20
-3.980643
 30
0.0
 11
-0.579384
 21
-3.97624
 31
0.0
  0
LINE
  8
0
  6
CONTINUOUS
 62
     7
  5
300
 10
-0.579384
 20
-3.97624
 30
0.0
 11
-0.578615
 21
-3.971854
 31
0.0
  0
LINE
  8
0
  6
CONTINUOUS
 62
     7
  5
301
 10
-0.578615
 20
-3.971854
 30
0.0
 11
-0.577541
 21
-3.967495
 31
0.0
  0
LINE
  8
0
  6
CONTINUOUS
 62
     7
  5
302
 10
-0.577541
 20
-3.967495
 30
0.0
 11
-0.576164
 21
-3.963171
 31
0.0
  0
LINE
  8
0
  6
CONTINUOUS
 62
     7
  5
303
 10
-0.576164
 20
-3.963171
 30
0.0
 11
-0.574486
 21
-3.958892
 31
0.0
  0
LINE
  8
0
  6
CONTINUOUS
 62
     7
  5
304
 10
-0.574486
 20
-3.958892
 30
0.0
 11
-0.572512
 21
-3.954665
 31
0.0
  0
LINE
  8
0
  6
CONTINUOUS
 62
     7
  5
305
 10
-0.572512
 20
-3.954665
 30
0.0
 11
-0.570244
 21
-3.950499
 31
0.0
  0
LINE
  8
0
  6
CONTINUOUS
 62
     7
  5
306
 10
-0.570244
 20
-3.950499
 30
0.0
 11
-0.567688
 21
-3.946403
 31
0.0
  0
LINE
  8
0
  6
CONTINUOUS
 62
     7
  5
307
 10
-0.567688
 20
-3.946403
 30
0.0
 11
-0.564848
 21
-3.942385
 31
0.0
  0
LINE
  8
0
  6
CONTINUOUS
 62
     7
  5
308
 10
-0.564848
 20
-3.942385
 30
0.0
 11
-0.561731
 21
-3.938452
 31
0.0
  0
LINE
  8
0
  6
CONTINUOUS
 62
     7
  5
309
 10
-0.561731
 20
-3.938452
 30
0.0
 11
-0.558343
 21
-3.934614
 31
0.0
  0
LINE
  8
0
  6
CONTINUOUS
 62
     7
  5
30A
 10
-0.558343
 20
-3.934614
 30
0.0
 11
-0.55469
 21
-3.930877
 31
0.0
  0
LINE
  8
0
  6
CONTINUOUS
 62
     7
  5
30B
 10
-0.55469
 20
-3.930877
 30
0.0
 11
-0.55078
 21
-3.927249
 31
0.0
  0
LINE
  8
0
  6
CONTINUOUS
 62
     7
  5
30C
 10
-0.55078
 20
-3.927249
 30
0.0
 11
-0.54662
 21
-3.923738
 31
0.0
  0
LINE
  8
0
  6
CONTINUOUS
 62
     7
  5
30D
 10
-0.54662
 20
-3.923738
 30
0.0
 11
-0.54222
 21
-3.92035
 31
0.0
  0
LINE
  8
0
  6
CONTINUOUS
 62
     7
  5
30E
 10
-0.54222
 20
-3.92035
 30
0.0
 11
-0.537588
 21
-3.917092
 31
0.0
  0
LINE
  8
0
  6
CONTINUOUS
 62
     7
  5
30F
 10
-0.537588
 20
-3.917092
 30
0.0
 11
-0.532733
 21
-3.913971
 31
0.0
  0
LINE
  8
0
  6
CONTINUOUS
 62
     7
  5
310
 10
-0.532733
 20
-3.913971
 30
0.0
 11
-0.527665
 21
-3.910994
 31
0.0
  0
LINE
  8
0
  6
CONTINUOUS
 62
     7
  5
311
 10
-0.527665
 20
-3.910994
 30
0.0
 11
-0.522394
 21
-3.908165
 31
0.0
  0
LINE
  8
0
  6
CONTINUOUS
 62
     7
  5
312
 10
-0.522394
 20
-3.908165
 30
0.0
 11
-0.516931
 21
-3.905492
 31
0.0
  0
LINE
  8
0
  6
CONTINUOUS
 62
     7
  5
313
 10
-0.516931
 20
-3.905492
 30
0.0
 11
-0.511287
 21
-3.902978
 31
0.0
  0
LINE
  8
0
  6
CONTINUOUS
 62
     7
  5
314
 10
-0.511287
 20
-3.902978
 30
0.0
 11
-0.505474
 21
-3.90063
 31
0.0
  0
LINE
  8
0
  6
CONTINUOUS
 62
     7
  5
315
 10
-0.505474
 20
-3.90063
 30
0.0
 11
-0.499502
 21
-3.898452
 31
0.0
  0
LINE
  8
0
  6
CONTINUOUS
 62
     7
  5
316
 10
-0.499502
 20
-3.898452
 30
0.0
 11
-0.493384
 21
-3.896448
 31
0.0
  0
LINE
  8
0
  6
CONTINUOUS
 62
     7
  5
317
 10
-0.493384
 20
-3.896448
 30
0.0
 11
-0.487133
 21
-3.894623
 31
0.0
  0
LINE
  8
0
  6
CONTINUOUS
 62
     7
  5
318
 10
-0.487133
 20
-3.894623
 30
0.0
 11
-0.48076
 21
-3.89298
 31
0.0
  0
LINE
  8
0
  6
CONTINUOUS
 62
     7
  5
319
 10
-0.48076
 20
-3.89298
 30
0.0
 11
-0.47428
 21
-3.891522
 31
0.0
  0
LINE
  8
0
  6
CONTINUOUS
 62
     7
  5
31A
 10
-0.47428
 20
-3.891522
 30
0.0
 11
-0.467704
 21
-3.890253
 31
0.0
  0
LINE
  8
0
  6
CONTINUOUS
 62
     7
  5
31B
 10
-0.467704
 20
-3.890253
 30
0.0
 11
-0.461046
 21
-3.889175
 31
0.0
  0
LINE
  8
0
  6
CONTINUOUS
 62
     7
  5
31C
 10
-0.461046
 20
-3.889175
 30
0.0
 11
-0.454319
 21
-3.88829
 31
0.0
  0
LINE
  8
0
  6
CONTINUOUS
 62
     7
  5
31D
 10
-0.454319
 20
-3.88829
 30
0.0
 11
-0.447538
 21
-3.887599
 31
0.0
  0
LINE
  8
0
  6
CONTINUOUS
 62
     7
  5
31E
 10
-0.447538
 20
-3.887599
 30
0.0
 11
-0.440715
 21
-3.887105
 31
0.0
  0
LINE
  8
0
  6
CONTINUOUS
 62
     7
  5
31F
 10
-0.440715
 20
-3.887105
 30
0.0
 11
-0.433864
 21
-3.886808
 31
0.0
  0
LINE
  8
0
  6
CONTINUOUS
 62
     7
  5
320
 10
-0.433864
 20
-3.886808
 30
0.0
 11
-0.427
 21
-3.886709
 31
0.0
  0
LINE
  8
0
  6
CONTINUOUS
 62
     7
  5
321
 10
-0.58
 20
-3.510108
 30
0.0
 11
-0.579846
 21
-3.505696
 31
0.0
  0
LINE
  8
0
  6
CONTINUOUS
 62
     7
  5
322
 10
-0.579846
 20
-3.505696
 30
0.0
 11
-0.579384
 21
-3.501292
 31
0.0
  0
LINE
  8
0
  6
CONTINUOUS
 62
     7
  5
323
 10
-0.579384
 20
-3.501292
 30
0.0
 11
-0.578615
 21
-3.496907
 31
0.0
  0
LINE
  8
0
  6
CONTINUOUS
 62
     7
  5
324
 10
-0.578615
 20
-3.496907
 30
0.0
 11
-0.577541
 21
-3.492548
 31
0.0
  0
LINE
  8
0
  6
CONTINUOUS
 62
     7
  5
325
 10
-0.577541
 20
-3.492548
 30
0.0
 11
-0.576164
 21
-3.488224
 31
0.0
  0
LINE
  8
0
  6
CONTINUOUS
 62
     7
  5
326
 10
-0.576164
 20
-3.488224
 30
0.0
 11
-0.574486
 21
-3.483944
 31
0.0
  0
LINE
  8
0
  6
CONTINUOUS
 62
     7
  5
327
 10
-0.574486
 20
-3.483944
 30
0.0
 11
-0.572512
 21
-3.479717
 31
0.0
  0
LINE
  8
0
  6
CONTINUOUS
 62
     7
  5
328
 10
-0.572512
 20
-3.479717
 30
0.0
 11
-0.570244
 21
-3.475552
 31
0.0
  0
LINE
  8
0
  6
CONTINUOUS
 62
     7
  5
329
 10
-0.570244
 20
-3.475552
 30
0.0
 11
-0.567688
 21
-3.471455
 31
0.0
  0
LINE
  8
0
  6
CONTINUOUS
 62
     7
  5
32A
 10
-0.567688
 20
-3.471455
 30
0.0
 11
-0.564848
 21
-3.467437
 31
0.0
  0
LINE
  8
0
  6
CONTINUOUS
 62
     7
  5
32B
 10
-0.564848
 20
-3.467437
 30
0.0
 11
-0.561731
 21
-3.463505
 31
0.0
  0
LINE
  8
0
  6
CONTINUOUS
 62
     7
  5
32C
 10
-0.561731
 20
-3.463505
 30
0.0
 11
-0.558343
 21
-3.459666
 31
0.0
  0
LINE
  8
0
  6
CONTINUOUS
 62
     7
  5
32D
 10
-0.558343
 20
-3.459666
 30
0.0
 11
-0.55469
 21
-3.455929
 31
0.0
  0
LINE
  8
0
  6
CONTINUOUS
 62
     7
  5
32E
 10
-0.55469
 20
-3.455929
 30
0.0
 11
-0.55078
 21
-3.452301
 31
0.0
  0
LINE
  8
0
  6
CONTINUOUS
 62
     7
  5
32F
 10
-0.55078
 20
-3.452301
 30
0.0
 11
-0.54662
 21
-3.44879
 31
0.0
  0
LINE
  8
0
  6
CONTINUOUS
 62
     7
  5
330
 10
-0.54662
 20
-3.44879
 30
0.0
 11
-0.54222
 21
-3.445402
 31
0.0
  0
LINE
  8
0
  6
CONTINUOUS
 62
     7
  5
331
 10
-0.54222
 20
-3.445402
 30
0.0
 11
-0.537588
 21
-3.442144
 31
0.0
  0
LINE
  8
0
  6
CONTINUOUS
 62
     7
  5
332
 10
-0.537588
 20
-3.442144
 30
0.0
 11
-0.532733
 21
-3.439024
 31
0.0
  0
LINE
  8
0
  6
CONTINUOUS
 62
     7
  5
333
 10
-0.532733
 20
-3.439024
 30
0.0
 11
-0.527665
 21
-3.436046
 31
0.0
  0
LINE
  8
0
  6
CONTINUOUS
 62
     7
  5
334
 10
-0.527665
 20
-3.436046
 30
0.0
 11
-0.522394
 21
-3.433218
 31
0.0
  0
LINE
  8
0
  6
CONTINUOUS
 62
     7
  5
335
 10
-0.522394
 20
-3.433218
 30
0.0
 11
-0.516931
 21
-3.430544
 31
0.0
  0
LINE
  8
0
  6
CONTINUOUS
 62
     7
  5
336
 10
-0.516931
 20
-3.430544
 30
0.0
 11
-0.511287
 21
-3.428031
 31
0.0
  0
LINE
  8
0
  6
CONTINUOUS
 62
     7
  5
337
 10
-0.511287
 20
-3.428031
 30
0.0
 11
-0.505474
 21
-3.425683
 31
0.0
  0
LINE
  8
0
  6
CONTINUOUS
 62
     7
  5
338
 10
-0.505474
 20
-3.425683
 30
0.0
 11
-0.499502
 21
-3.423505
 31
0.0
  0
LINE
  8
0
  6
CONTINUOUS
 62
     7
  5
339
 10
-0.499502
 20
-3.423505
 30
0.0
 11
-0.493384
 21
-3.421501
 31
0.0
  0
LINE
  8
0
  6
CONTINUOUS
 62
     7
  5
33A
 10
-0.493384
 20
-3.421501
 30
0.0
 11
-0.487133
 21
-3.419676
 31
0.0
  0
LINE
  8
0
  6
CONTINUOUS
 62
     7
  5
33B
 10
-0.487133
 20
-3.419676
 30
0.0
 11
-0.48076
 21
-3.418033
 31
0.0
  0
LINE
  8
0
  6
CONTINUOUS
 62
     7
  5
33C
 10
-0.48076
 20
-3.418033
 30
0.0
 11
-0.47428
 21
-3.416575
 31
0.0
  0
LINE
  8
0
  6
CONTINUOUS
 62
     7
  5
33D
 10
-0.47428
 20
-3.416575
 30
0.0
 11
-0.467704
 21
-3.415306
 31
0.0
  0
LINE
  8
0
  6
CONTINUOUS
 62
     7
  5
33E
 10
-0.467704
 20
-3.415306
 30
0.0
 11
-0.461046
 21
-3.414227
 31
0.0
  0
LINE
  8
0
  6
CONTINUOUS
 62
     7
  5
33F
 10
-0.461046
 20
-3.414227
 30
0.0
 11
-0.454319
 21
-3.413342
 31
0.0
  0
LINE
  8
0
  6
CONTINUOUS
 62
     7
  5
340
 10
-0.454319
 20
-3.413342
 30
0.0
 11
-0.447538
 21
-3.412652
 31
0.0
  0
LINE
  8
0
  6
CONTINUOUS
 62
     7
  5
341
 10
-0.447538
 20
-3.412652
 30
0.0
 11
-0.440715
 21
-3.412157
 31
0.0
  0
LINE
  8
0
  6
CONTINUOUS
 62
     7
  5
342
 10
-0.440715
 20
-3.412157
 30
0.0
 11
-0.433864
 21
-3.411861
 31
0.0
  0
LINE
  8
0
  6
CONTINUOUS
 62
     7
  5
343
 10
-0.433864
 20
-3.411861
 30
0.0
 11
-0.427
 21
-3.411762
 31
0.0
  0
LINE
  8
0
  6
CONTINUOUS
 62
     7
  5
344
 10
-0.427
 20
-3.936847
 30
0.0
 11
-0.430365
 21
-3.936895
 31
0.0
  0
LINE
  8
0
  6
CONTINUOUS
 62
     7
  5
345
 10
-0.430365
 20
-3.936895
 30
0.0
 11
-0.433723
 21
-3.937041
 31
0.0
  0
LINE
  8
0
  6
CONTINUOUS
 62
     7
  5
346
 10
-0.433723
 20
-3.937041
 30
0.0
 11
-0.437067
 21
-3.937283
 31
0.0
  0
LINE
  8
0
  6
CONTINUOUS
 62
     7
  5
347
 10
-0.437067
 20
-3.937283
 30
0.0
 11
-0.440392
 21
-3.937621
 31
0.0
  0
LINE
  8
0
  6
CONTINUOUS
 62
     7
  5
348
 10
-0.440392
 20
-3.937621
 30
0.0
 11
-0.443689
 21
-3.938055
 31
0.0
  0
LINE
  8
0
  6
CONTINUOUS
 62
     7
  5
349
 10
-0.443689
 20
-3.938055
 30
0.0
 11
-0.446953
 21
-3.938584
 31
0.0
  0
LINE
  8
0
  6
CONTINUOUS
 62
     7
  5
34A
 10
-0.446953
 20
-3.938584
 30
0.0
 11
-0.450176
 21
-3.939206
 31
0.0
  0
LINE
  8
0
  6
CONTINUOUS
 62
     7
  5
34B
 10
-0.450176
 20
-3.939206
 30
0.0
 11
-0.453353
 21
-3.939921
 31
0.0
  0
LINE
  8
0
  6
CONTINUOUS
 62
     7
  5
34C
 10
-0.453353
 20
-3.939921
 30
0.0
 11
-0.456477
 21
-3.940726
 31
0.0
  0
LINE
  8
0
  6
CONTINUOUS
 62
     7
  5
34D
 10
-0.456477
 20
-3.940726
 30
0.0
 11
-0.459541
 21
-3.941621
 31
0.0
  0
LINE
  8
0
  6
CONTINUOUS
 62
     7
  5
34E
 10
-0.459541
 20
-3.941621
 30
0.0
 11
-0.46254
 21
-3.942603
 31
0.0
  0
LINE
  8
0
  6
CONTINUOUS
 62
     7
  5
34F
 10
-0.46254
 20
-3.942603
 30
0.0
 11
-0.465467
 21
-3.943671
 31
0.0
  0
LINE
  8
0
  6
CONTINUOUS
 62
     7
  5
350
 10
-0.465467
 20
-3.943671
 30
0.0
 11
-0.468317
 21
-3.944822
 31
0.0
  0
LINE
  8
0
  6
CONTINUOUS
 62
     7
  5
351
 10
-0.468317
 20
-3.944822
 30
0.0
 11
-0.471084
 21
-3.946054
 31
0.0
  0
LINE
  8
0
  6
CONTINUOUS
 62
     7
  5
352
 10
-0.471084
 20
-3.946054
 30
0.0
 11
-0.473762
 21
-3.947364
 31
0.0
  0
LINE
  8
0
  6
CONTINUOUS
 62
     7
  5
353
 10
-0.473762
 20
-3.947364
 30
0.0
 11
-0.476345
 21
-3.948751
 31
0.0
  0
LINE
  8
0
  6
CONTINUOUS
 62
     7
  5
354
 10
-0.476345
 20
-3.948751
 30
0.0
 11
-0.47883
 21
-3.95021
 31
0.0
  0
LINE
  8
0
  6
CONTINUOUS
 62
     7
  5
355
 10
-0.47883
 20
-3.95021
 30
0.0
 11
-0.48121
 21
-3.95174
 31
0.0
  0
LINE
  8
0
  6
CONTINUOUS
 62
     7
  5
356
 10
-0.48121
 20
-3.95174
 30
0.0
 11
-0.48348
 21
-3.953337
 31
0.0
  0
LINE
  8
0
  6
CONTINUOUS
 62
     7
  5
357
 10
-0.48348
 20
-3.953337
 30
0.0
 11
-0.485637
 21
-3.954998
 31
0.0
  0
LINE
  8
0
  6
CONTINUOUS
 62
     7
  5
358
 10
-0.485637
 20
-3.954998
 30
0.0
 11
-0.487676
 21
-3.956719
 31
0.0
  0
LINE
  8
0
  6
CONTINUOUS
 62
     7
  5
359
 10
-0.487676
 20
-3.956719
 30
0.0
 11
-0.489593
 21
-3.958497
 31
0.0
  0
LINE
  8
0
  6
CONTINUOUS
 62
     7
  5
35A
 10
-0.489593
 20
-3.958497
 30
0.0
 11
-0.491384
 21
-3.960329
 31
0.0
  0
LINE
  8
0
  6
CONTINUOUS
 62
     7
  5
35B
 10
-0.491384
 20
-3.960329
 30
0.0
 11
-0.493045
 21
-3.962211
 31
0.0
  0
LINE
  8
0
  6
CONTINUOUS
 62
     7
  5
35C
 10
-0.493045
 20
-3.962211
 30
0.0
 11
-0.494573
 21
-3.964138
 31
0.0
  0
LINE
  8
0
  6
CONTINUOUS
 62
     7
  5
35D
 10
-0.494573
 20
-3.964138
 30
0.0
 11
-0.495965
 21
-3.966108
 31
0.0
  0
LINE
  8
0
  6
CONTINUOUS
 62
     7
  5
35E
 10
-0.495965
 20
-3.966108
 30
0.0
 11
-0.497218
 21
-3.968116
 31
0.0
  0
LINE
  8
0
  6
CONTINUOUS
 62
     7
  5
35F
 10
-0.497218
 20
-3.968116
 30
0.0
 11
-0.498329
 21
-3.970158
 31
0.0
  0
LINE
  8
0
  6
CONTINUOUS
 62
     7
  5
360
 10
-0.498329
 20
-3.970158
 30
0.0
 11
-0.499297
 21
-3.97223
 31
0.0
  0
LINE
  8
0
  6
CONTINUOUS
 62
     7
  5
361
 10
-0.499297
 20
-3.97223
 30
0.0
 11
-0.50012
 21
-3.974328
 31
0.0
  0
LINE
  8
0
  6
CONTINUOUS
 62
     7
  5
362
 10
-0.50012
 20
-3.974328
 30
0.0
 11
-0.500795
 21
-3.976448
 31
0.0
  0
LINE
  8
0
  6
CONTINUOUS
 62
     7
  5
363
 10
-0.500795
 20
-3.976448
 30
0.0
 11
-0.501321
 21
-3.978584
 31
0.0
  0
LINE
  8
0
  6
CONTINUOUS
 62
     7
  5
364
 10
-0.501321
 20
-3.978584
 30
0.0
 11
-0.501698
 21
-3.980734
 31
0.0
  0
LINE
  8
0
  6
CONTINUOUS
 62
     7
  5
365
 10
-0.501698
 20
-3.980734
 30
0.0
 11
-0.501924
 21
-3.982893
 31
0.0
  0
LINE
  8
0
  6
CONTINUOUS
 62
     7
  5
366
 10
-0.501924
 20
-3.982893
 30
0.0
 11
-0.502
 21
-3.985056
 31
0.0
  0
LINE
  8
0
  6
CONTINUOUS
 62
     7
  5
367
 10
-0.234
 20
-3.8385
 30
0.0
 11
-0.234154
 21
-3.842912
 31
0.0
  0
LINE
  8
0
  6
CONTINUOUS
 62
     7
  5
368
 10
-0.234154
 20
-3.842912
 30
0.0
 11
-0.234616
 21
-3.847316
 31
0.0
  0
LINE
  8
0
  6
CONTINUOUS
 62
     7
  5
369
 10
-0.234616
 20
-3.847316
 30
0.0
 11
-0.235385
 21
-3.851701
 31
0.0
  0
LINE
  8
0
  6
CONTINUOUS
 62
     7
  5
36A
 10
-0.235385
 20
-3.851701
 30
0.0
 11
-0.236459
 21
-3.85606
 31
0.0
  0
LINE
  8
0
  6
CONTINUOUS
 62
     7
  5
36B
 10
-0.236459
 20
-3.85606
 30
0.0
 11
-0.237836
 21
-3.860384
 31
0.0
  0
LINE
  8
0
  6
CONTINUOUS
 62
     7
  5
36C
 10
-0.237836
 20
-3.860384
 30
0.0
 11
-0.239514
 21
-3.864664
 31
0.0
  0
LINE
  8
0
  6
CONTINUOUS
 62
     7
  5
36D
 10
-0.239514
 20
-3.864664
 30
0.0
 11
-0.241488
 21
-3.868891
 31
0.0
  0
LINE
  8
0
  6
CONTINUOUS
 62
     7
  5
36E
 10
-0.241488
 20
-3.868891
 30
0.0
 11
-0.243756
 21
-3.873056
 31
0.0
  0
LINE
  8
0
  6
CONTINUOUS
 62
     7
  5
36F
 10
-0.243756
 20
-3.873056
 30
0.0
 11
-0.246312
 21
-3.877153
 31
0.0
  0
LINE
  8
0
  6
CONTINUOUS
 62
     7
  5
370
 10
-0.246312
 20
-3.877153
 30
0.0
 11
-0.249152
 21
-3.881171
 31
0.0
  0
LINE
  8
0
  6
CONTINUOUS
 62
     7
  5
371
 10
-0.249152
 20
-3.881171
 30
0.0
 11
-0.252269
 21
-3.885103
 31
0.0
  0
LINE
  8
0
  6
CONTINUOUS
 62
     7
  5
372
 10
-0.252269
 20
-3.885103
 30
0.0
 11
-0.255657
 21
-3.888942
 31
0.0
  0
LINE
  8
0
  6
CONTINUOUS
 62
     7
  5
373
 10
-0.255657
 20
-3.888942
 30
0.0
 11
-0.25931
 21
-3.892679
 31
0.0
  0
LINE
  8
0
  6
CONTINUOUS
 62
     7
  5
374
 10
-0.25931
 20
-3.892679
 30
0.0
 11
-0.26322
 21
-3.896307
 31
0.0
  0
LINE
  8
0
  6
CONTINUOUS
 62
     7
  5
375
 10
-0.26322
 20
-3.896307
 30
0.0
 11
-0.26738
 21
-3.899818
 31
0.0
  0
LINE
  8
0
  6
CONTINUOUS
 62
     7
  5
376
 10
-0.26738
 20
-3.899818
 30
0.0
 11
-0.27178
 21
-3.903206
 31
0.0
  0
LINE
  8
0
  6
CONTINUOUS
 62
     7
  5
377
 10
-0.27178
 20
-3.903206
 30
0.0
 11
-0.276412
 21
-3.906464
 31
0.0
  0
LINE
  8
0
  6
CONTINUOUS
 62
     7
  5
378
 10
-0.276412
 20
-3.906464
 30
0.0
 11
-0.281267
 21
-3.909584
 31
0.0
  0
LINE
  8
0
  6
CONTINUOUS
 62
     7
  5
379
 10
-0.281267
 20
-3.909584
 30
0.0
 11
-0.286335
 21
-3.912562
 31
0.0
  0
LINE
  8
0
  6
CONTINUOUS
 62
     7
  5
37A
 10
-0.286335
 20
-3.912562
 30
0.0
 11
-0.291606
 21
-3.91539
 31
0.0
  0
LINE
  8
0
  6
CONTINUOUS
 62
     7
  5
37B
 10
-0.291606
 20
-3.91539
 30
0.0
 11
-0.297069
 21
-3.918064
 31
0.0
  0
LINE
  8
0
  6
CONTINUOUS
 62
     7
  5
37C
 10
-0.297069
 20
-3.918064
 30
0.0
 11
-0.302713
 21
-3.920577
 31
0.0
  0
LINE
  8
0
  6
CONTINUOUS
 62
     7
  5
37D
 10
-0.302713
 20
-3.920577
 30
0.0
 11
-0.308526
 21
-3.922925
 31
0.0
  0
LINE
  8
0
  6
CONTINUOUS
 62
     7
  5
37E
 10
-0.308526
 20
-3.922925
 30
0.0
 11
-0.314498
 21
-3.925103
 31
0.0
  0
LINE
  8
0
  6
CONTINUOUS
 62
     7
  5
37F
 10
-0.314498
 20
-3.925103
 30
0.0
 11
-0.320616
 21
-3.927107
 31
0.0
  0
LINE
  8
0
  6
CONTINUOUS
 62
     7
  5
380
 10
-0.320616
 20
-3.927107
 30
0.0
 11
-0.326867
 21
-3.928932
 31
0.0
  0
LINE
  8
0
  6
CONTINUOUS
 62
     7
  5
381
 10
-0.326867
 20
-3.928932
 30
0.0
 11
-0.33324
 21
-3.930575
 31
0.0
  0
LINE
  8
0
  6
CONTINUOUS
 62
     7
  5
382
 10
-0.33324
 20
-3.930575
 30
0.0
 11
-0.33972
 21
-3.932033
 31
0.0
  0
LINE
  8
0
  6
CONTINUOUS
 62
     7
  5
383
 10
-0.33972
 20
-3.932033
 30
0.0
 11
-0.346296
 21
-3.933302
 31
0.0
  0
LINE
  8
0
  6
CONTINUOUS
 62
     7
  5
384
 10
-0.346296
 20
-3.933302
 30
0.0
 11
-0.352954
 21
-3.934381
 31
0.0
  0
LINE
  8
0
  6
CONTINUOUS
 62
     7
  5
385
 10
-0.352954
 20
-3.934381
 30
0.0
 11
-0.359681
 21
-3.935266
 31
0.0
  0
LINE
  8
0
  6
CONTINUOUS
 62
     7
  5
386
 10
-0.359681
 20
-3.935266
 30
0.0
 11
-0.366462
 21
-3.935956
 31
0.0
  0
LINE
  8
0
  6
CONTINUOUS
 62
     7
  5
387
 10
-0.366462
 20
-3.935956
 30
0.0
 11
-0.373285
 21
-3.936451
 31
0.0
  0
LINE
  8
0
  6
CONTINUOUS
 62
     7
  5
388
 10
-0.373285
 20
-3.936451
 30
0.0
 11
-0.380136
 21
-3.936747
 31
0.0
  0
LINE
  8
0
  6
CONTINUOUS
 62
     7
  5
389
 10
-0.380136
 20
-3.936747
 30
0.0
 11
-0.387
 21
-3.936847
 31
0.0
  0
LINE
  8
0
  6
CONTINUOUS
 62
     7
  5
38A
 10
-0.387
 20
-3.936847
 30
0.0
 11
-0.427
 21
-3.936847
 31
0.0
  0
LINE
  8
0
  6
CONTINUOUS
 62
     7
  5
38B
 10
-0.427
 20
-3.886709
 30
0.0
 11
-0.387
 21
-3.886709
 31
0.0
  0
LINE
  8
0
  6
CONTINUOUS
 62
     7
  5
38C
 10
-0.387
 20
-3.411762
 30
0.0
 11
-0.427
 21
-3.411762
 31
0.0
  0
LINE
  8
0
  6
CONTINUOUS
 62
     7
  5
38D
 10
-0.387
 20
-3.886709
 30
0.0
 11
-0.383635
 21
-3.886661
 31
0.0
  0
LINE
  8
0
  6
CONTINUOUS
 62
     7
  5
38E
 10
-0.383635
 20
-3.886661
 30
0.0
 11
-0.380277
 21
-3.886515
 31
0.0
  0
LINE
  8
0
  6
CONTINUOUS
 62
     7
  5
38F
 10
-0.380277
 20
-3.886515
 30
0.0
 11
-0.376933
 21
-3.886273
 31
0.0
  0
LINE
  8
0
  6
CONTINUOUS
 62
     7
  5
390
 10
-0.376933
 20
-3.886273
 30
0.0
 11
-0.373608
 21
-3.885934
 31
0.0
  0
LINE
  8
0
  6
CONTINUOUS
 62
     7
  5
391
 10
-0.373608
 20
-3.885934
 30
0.0
 11
-0.370311
 21
-3.8855
 31
0.0
  0
LINE
  8
0
  6
CONTINUOUS
 62
     7
  5
392
 10
-0.370311
 20
-3.8855
 30
0.0
 11
-0.367047
 21
-3.884972
 31
0.0
  0
LINE
  8
0
  6
CONTINUOUS
 62
     7
  5
393
 10
-0.367047
 20
-3.884972
 30
0.0
 11
-0.363824
 21
-3.88435
 31
0.0
  0
LINE
  8
0
  6
CONTINUOUS
 62
     7
  5
394
 10
-0.363824
 20
-3.88435
 30
0.0
 11
-0.360647
 21
-3.883635
 31
0.0
  0
LINE
  8
0
  6
CONTINUOUS
 62
     7
  5
395
 10
-0.360647
 20
-3.883635
 30
0.0
 11
-0.357523
 21
-3.88283
 31
0.0
  0
LINE
  8
0
  6
CONTINUOUS
 62
     7
  5
396
 10
-0.357523
 20
-3.88283
 30
0.0
 11
-0.354459
 21
-3.881935
 31
0.0
  0
LINE
  8
0
  6
CONTINUOUS
 62
     7
  5
397
 10
-0.354459
 20
-3.881935
 30
0.0
 11
-0.35146
 21
-3.880953
 31
0.0
  0
LINE
  8
0
  6
CONTINUOUS
 62
     7
  5
398
 10
-0.35146
 20
-3.880953
 30
0.0
 11
-0.348533
 21
-3.879885
 31
0.0
  0
LINE
  8
0
  6
CONTINUOUS
 62
     7
  5
399
 10
-0.348533
 20
-3.879885
 30
0.0
 11
-0.345683
 21
-3.878734
 31
0.0
  0
LINE
  8
0
  6
CONTINUOUS
 62
     7
  5
39A
 10
-0.345683
 20
-3.878734
 30
0.0
 11
-0.342916
 21
-3.877502
 31
0.0
  0
LINE
  8
0
  6
CONTINUOUS
 62
     7
  5
39B
 10
-0.342916
 20
-3.877502
 30
0.0
 11
-0.340238
 21
-3.876191
 31
0.0
  0
LINE
  8
0
  6
CONTINUOUS
 62
     7
  5
39C
 10
-0.340238
 20
-3.876191
 30
0.0
 11
-0.337655
 21
-3.874805
 31
0.0
  0
LINE
  8
0
  6
CONTINUOUS
 62
     7
  5
39D
 10
-0.337655
 20
-3.874805
 30
0.0
 11
-0.33517
 21
-3.873345
 31
0.0
  0
LINE
  8
0
  6
CONTINUOUS
 62
     7
  5
39E
 10
-0.33517
 20
-3.873345
 30
0.0
 11
-0.33279
 21
-3.871815
 31
0.0
  0
LINE
  8
0
  6
CONTINUOUS
 62
     7
  5
39F
 10
-0.33279
 20
-3.871815
 30
0.0
 11
-0.33052
 21
-3.870219
 31
0.0
  0
LINE
  8
0
  6
CONTINUOUS
 62
     7
  5
3A0
 10
-0.33052
 20
-3.870219
 30
0.0
 11
-0.328363
 21
-3.868558
 31
0.0
  0
LINE
  8
0
  6
CONTINUOUS
 62
     7
  5
3A1
 10
-0.328363
 20
-3.868558
 30
0.0
 11
-0.326324
 21
-3.866837
 31
0.0
  0
LINE
  8
0
  6
CONTINUOUS
 62
     7
  5
3A2
 10
-0.326324
 20
-3.866837
 30
0.0
 11
-0.324407
 21
-3.865058
 31
0.0
  0
LINE
  8
0
  6
CONTINUOUS
 62
     7
  5
3A3
 10
-0.324407
 20
-3.865058
 30
0.0
 11
-0.322616
 21
-3.863226
 31
0.0
  0
LINE
  8
0
  6
CONTINUOUS
 62
     7
  5
3A4
 10
-0.322616
 20
-3.863226
 30
0.0
 11
-0.320955
 21
-3.861345
 31
0.0
  0
LINE
  8
0
  6
CONTINUOUS
 62
     7
  5
3A5
 10
-0.320955
 20
-3.861345
 30
0.0
 11
-0.319427
 21
-3.859417
 31
0.0
  0
LINE
  8
0
  6
CONTINUOUS
 62
     7
  5
3A6
 10
-0.319427
 20
-3.859417
 30
0.0
 11
-0.318035
 21
-3.857447
 31
0.0
  0
LINE
  8
0
  6
CONTINUOUS
 62
     7
  5
3A7
 10
-0.318035
 20
-3.857447
 30
0.0
 11
-0.316782
 21
-3.855439
 31
0.0
  0
LINE
  8
0
  6
CONTINUOUS
 62
     7
  5
3A8
 10
-0.316782
 20
-3.855439
 30
0.0
 11
-0.315671
 21
-3.853397
 31
0.0
  0
LINE
  8
0
  6
CONTINUOUS
 62
     7
  5
3A9
 10
-0.315671
 20
-3.853397
 30
0.0
 11
-0.314703
 21
-3.851325
 31
0.0
  0
LINE
  8
0
  6
CONTINUOUS
 62
     7
  5
3AA
 10
-0.314703
 20
-3.851325
 30
0.0
 11
-0.31388
 21
-3.849228
 31
0.0
  0
LINE
  8
0
  6
CONTINUOUS
 62
     7
  5
3AB
 10
-0.31388
 20
-3.849228
 30
0.0
 11
-0.313205
 21
-3.847108
 31
0.0
  0
LINE
  8
0
  6
CONTINUOUS
 62
     7
  5
3AC
 10
-0.313205
 20
-3.847108
 30
0.0
 11
-0.312679
 21
-3.844971
 31
0.0
  0
LINE
  8
0
  6
CONTINUOUS
 62
     7
  5
3AD
 10
-0.312679
 20
-3.844971
 30
0.0
 11
-0.312302
 21
-3.842821
 31
0.0
  0
LINE
  8
0
  6
CONTINUOUS
 62
     7
  5
3AE
 10
-0.312302
 20
-3.842821
 30
0.0
 11
-0.312076
 21
-3.840663
 31
0.0
  0
LINE
  8
0
  6
CONTINUOUS
 62
     7
  5
3AF
 10
-0.312076
 20
-3.840663
 30
0.0
 11
-0.312
 21
-3.8385
 31
0.0
  0
LINE
  8
0
  6
CONTINUOUS
 62
     7
  5
3B0
 10
-0.312
 20
-3.363552
 30
0.0
 11
-0.312076
 21
-3.365715
 31
0.0
  0
LINE
  8
0
  6
CONTINUOUS
 62
     7
  5
3B1
 10
-0.312076
 20
-3.365715
 30
0.0
 11
-0.312302
 21
-3.367874
 31
0.0
  0
LINE
  8
0
  6
CONTINUOUS
 62
     7
  5
3B2
 10
-0.312302
 20
-3.367874
 30
0.0
 11
-0.312679
 21
-3.370024
 31
0.0
  0
LINE
  8
0
  6
CONTINUOUS
 62
     7
  5
3B3
 10
-0.312679
 20
-3.370024
 30
0.0
 11
-0.313205
 21
-3.372161
 31
0.0
  0
LINE
  8
0
  6
CONTINUOUS
 62
     7
  5
3B4
 10
-0.313205
 20
-3.372161
 30
0.0
 11
-0.31388
 21
-3.37428
 31
0.0
  0
LINE
  8
0
  6
CONTINUOUS
 62
     7
  5
3B5
 10
-0.31388
 20
-3.37428
 30
0.0
 11
-0.314703
 21
-3.376378
 31
0.0
  0
LINE
  8
0
  6
CONTINUOUS
 62
     7
  5
3B6
 10
-0.314703
 20
-3.376378
 30
0.0
 11
-0.315671
 21
-3.37845
 31
0.0
  0
LINE
  8
0
  6
CONTINUOUS
 62
     7
  5
3B7
 10
-0.315671
 20
-3.37845
 30
0.0
 11
-0.316782
 21
-3.380492
 31
0.0
  0
LINE
  8
0
  6
CONTINUOUS
 62
     7
  5
3B8
 10
-0.316782
 20
-3.380492
 30
0.0
 11
-0.318035
 21
-3.3825
 31
0.0
  0
LINE
  8
0
  6
CONTINUOUS
 62
     7
  5
3B9
 10
-0.318035
 20
-3.3825
 30
0.0
 11
-0.319427
 21
-3.38447
 31
0.0
  0
LINE
  8
0
  6
CONTINUOUS
 62
     7
  5
3BA
 10
-0.319427
 20
-3.38447
 30
0.0
 11
-0.320955
 21
-3.386397
 31
0.0
  0
LINE
  8
0
  6
CONTINUOUS
 62
     7
  5
3BB
 10
-0.320955
 20
-3.386397
 30
0.0
 11
-0.322616
 21
-3.388279
 31
0.0
  0
LINE
  8
0
  6
CONTINUOUS
 62
     7
  5
3BC
 10
-0.322616
 20
-3.388279
 30
0.0
 11
-0.324407
 21
-3.390111
 31
0.0
  0
LINE
  8
0
  6
CONTINUOUS
 62
     7
  5
3BD
 10
-0.324407
 20
-3.390111
 30
0.0
 11
-0.326324
 21
-3.391889
 31
0.0
  0
LINE
  8
0
  6
CONTINUOUS
 62
     7
  5
3BE
 10
-0.326324
 20
-3.391889
 30
0.0
 11
-0.328363
 21
-3.39361
 31
0.0
  0
LINE
  8
0
  6
CONTINUOUS
 62
     7
  5
3BF
 10
-0.328363
 20
-3.39361
 30
0.0
 11
-0.33052
 21
-3.395271
 31
0.0
  0
LINE
  8
0
  6
CONTINUOUS
 62
     7
  5
3C0
 10
-0.33052
 20
-3.395271
 30
0.0
 11
-0.33279
 21
-3.396868
 31
0.0
  0
LINE
  8
0
  6
CONTINUOUS
 62
     7
  5
3C1
 10
-0.33279
 20
-3.396868
 30
0.0
 11
-0.33517
 21
-3.398398
 31
0.0
  0
LINE
  8
0
  6
CONTINUOUS
 62
     7
  5
3C2
 10
-0.33517
 20
-3.398398
 30
0.0
 11
-0.337655
 21
-3.399857
 31
0.0
  0
LINE
  8
0
  6
CONTINUOUS
 62
     7
  5
3C3
 10
-0.337655
 20
-3.399857
 30
0.0
 11
-0.340238
 21
-3.401244
 31
0.0
  0
LINE
  8
0
  6
CONTINUOUS
 62
     7
  5
3C4
 10
-0.340238
 20
-3.401244
 30
0.0
 11
-0.342916
 21
-3.402554
 31
0.0
  0
LINE
  8
0
  6
CONTINUOUS
 62
     7
  5
3C5
 10
-0.342916
 20
-3.402554
 30
0.0
 11
-0.345683
 21
-3.403786
 31
0.0
  0
LINE
  8
0
  6
CONTINUOUS
 62
     7
  5
3C6
 10
-0.345683
 20
-3.403786
 30
0.0
 11
-0.348533
 21
-3.404937
 31
0.0
  0
LINE
  8
0
  6
CONTINUOUS
 62
     7
  5
3C7
 10
-0.348533
 20
-3.404937
 30
0.0
 11
-0.35146
 21
-3.406005
 31
0.0
  0
LINE
  8
0
  6
CONTINUOUS
 62
     7
  5
3C8
 10
-0.35146
 20
-3.406005
 30
0.0
 11
-0.354459
 21
-3.406987
 31
0.0
  0
LINE
  8
0
  6
CONTINUOUS
 62
     7
  5
3C9
 10
-0.354459
 20
-3.406987
 30
0.0
 11
-0.357523
 21
-3.407882
 31
0.0
  0
LINE
  8
0
  6
CONTINUOUS
 62
     7
  5
3CA
 10
-0.357523
 20
-3.407882
 30
0.0
 11
-0.360647
 21
-3.408687
 31
0.0
  0
LINE
  8
0
  6
CONTINUOUS
 62
     7
  5
3CB
 10
-0.360647
 20
-3.408687
 30
0.0
 11
-0.363824
 21
-3.409402
 31
0.0
  0
LINE
  8
0
  6
CONTINUOUS
 62
     7
  5
3CC
 10
-0.363824
 20
-3.409402
 30
0.0
 11
-0.367047
 21
-3.410024
 31
0.0
  0
LINE
  8
0
  6
CONTINUOUS
 62
     7
  5
3CD
 10
-0.367047
 20
-3.410024
 30
0.0
 11
-0.370311
 21
-3.410553
 31
0.0
  0
LINE
  8
0
  6
CONTINUOUS
 62
     7
  5
3CE
 10
-0.370311
 20
-3.410553
 30
0.0
 11
-0.373608
 21
-3.410987
 31
0.0
  0
LINE
  8
0
  6
CONTINUOUS
 62
     7
  5
3CF
 10
-0.373608
 20
-3.410987
 30
0.0
 11
-0.376933
 21
-3.411325
 31
0.0
  0
LINE
  8
0
  6
CONTINUOUS
 62
     7
  5
3D0
 10
-0.376933
 20
-3.411325
 30
0.0
 11
-0.380277
 21
-3.411567
 31
0.0
  0
LINE
  8
0
  6
CONTINUOUS
 62
     7
  5
3D1
 10
-0.380277
 20
-3.411567
 30
0.0
 11
-0.383635
 21
-3.411713
 31
0.0
  0
LINE
  8
0
  6
CONTINUOUS
 62
     7
  5
3D2
 10
-0.383635
 20
-3.411713
 30
0.0
 11
-0.387
 21
-3.411762
 31
0.0
  0
LINE
  8
0
  6
CONTINUOUS
 62
     7
  5
3D3
 10
-0.625
 20
-3.725
 30
0.0
 11
-0.625
 21
-3.85
 31
0.0
  0
LINE
  8
0
  6
CONTINUOUS
 62
     7
  5
3D4
 10
-0.625
 20
-3.85
 30
0.0
 11
-0.625
 21
-3.975
 31
0.0
  0
LINE
  8
0
  6
CONTINUOUS
 62
     7
  5
3D5
 10
-0.137
 20
-3.609
 30
0.0
 11
-0.137
 21
-3.85
 31
0.0
  0
LINE
  8
0
  6
CONTINUOUS
 62
     7
  5
3D6
 10
-0.137
 20
-3.85
 30
0.0
 11
-0.137
 21
-4.091
 31
0.0
  0
LINE
  8
0
  6
CONTINUOUS
 62
     7
  5
3D7
 10
0.0
 20
-3.609
 30
0.0
 11
0.0
 21
-3.85
 31
0.0
  0
LINE
  8
0
  6
CONTINUOUS
 62
     7
  5
3D8
 10
0.0
 20
-3.85
 30
0.0
 11
0.0
 21
-4.091
 31
0.0
  0
LINE
  8
0
  6
CONTINUOUS
 62
     7
  5
3D9
 10
-0.75
 20
-3.758494
 30
0.0
 11
-0.75
 21
-3.85
 31
0.0
  0
LINE
  8
0
  6
CONTINUOUS
 62
     7
  5
3DA
 10
-0.75
 20
-3.85
 30
0.0
 11
-0.75
 21
-3.941506
 31
0.0
  0
LINE
  8
0
  6
CONTINUOUS
 62
     7
  5
3DB
 10
-1.011872
 20
-2.38
 30
0.0
 11
-1.187205
 21
-2.38
 31
0.0
  0
LINE
  8
0
  6
CONTINUOUS
 62
     7
  5
3DC
 10
-0.982
 20
-2.95
 30
0.0
 11
-1.011872
 21
-2.38
 31
0.0
  0
LINE
  8
0
  6
CONTINUOUS
 62
     7
  5
3DD
 10
-1.187205
 20
-2.38
 30
0.0
 11
-1.24
 21
-3.135
 31
0.0
  0
LINE
  8
0
  6
CONTINUOUS
 62
     7
  5
3DE
 10
-1.24
 20
-3.21
 30
0.0
 11
-1.24
 21
-3.135
 31
0.0
  0
LINE
  8
0
  6
CONTINUOUS
 62
     7
  5
3DF
 10
-0.433945
 20
-3.21
 30
0.0
 11
-1.24
 21
-3.21
 31
0.0
  0
LINE
  8
0
  6
CONTINUOUS
 62
     7
  5
3E0
 10
-0.433945
 20
-3.21
 30
0.0
 11
-0.3
 21
-2.978
 31
0.0
  0
LINE
  8
0
  6
CONTINUOUS
 62
     7
  5
3E1
 10
-0.3
 20
-2.978
 30
0.0
 11
-0.156
 21
-2.978
 31
0.0
  0
LINE
  8
0
  6
CONTINUOUS
 62
     7
  5
3E2
 10
-0.156
 20
-2.135
 30
0.0
 11
-0.872
 21
-2.135
 31
0.0
  0
LINE
  8
0
  6
CONTINUOUS
 62
     7
  5
3E3
 10
-0.872
 20
-2.135
 30
0.0
 11
-0.872
 21
-2.95
 31
0.0
  0
LINE
  8
0
  6
CONTINUOUS
 62
     7
  5
3E4
 10
-0.872
 20
-2.95
 30
0.0
 11
-0.982
 21
-2.95
 31
0.0
  0
LINE
  8
0
  6
CONTINUOUS
 62
     7
  5
3E5
 10
-0.312
 20
-3.8385
 30
0.0
 11
-0.312
 21
-3.5885
 31
0.0
  0
LINE
  8
0
  6
CONTINUOUS
 62
     7
  5
3E6
 10
-0.312
 20
-3.234
 30
0.0
 11
-0.312
 21
-3.5885
 31
0.0
  0
LINE
  8
0
  6
CONTINUOUS
 62
     7
  5
3E7
 10
0.0
 20
-2.135
 30
0.0
 11
-0.156
 21
-2.135
 31
0.0
  0
LINE
  8
0
  6
CONTINUOUS
 62
     7
  5
3E8
 10
-0.312
 20
-3.8385
 30
0.0
 11
-0.234
 21
-3.8385
 31
0.0
  0
LINE
  8
0
  6
CONTINUOUS
 62
     7
  5
3E9
 10
-0.234
 20
-3.5885
 30
0.0
 11
-0.234
 21
-3.8385
 31
0.0
  0
LINE
  8
0
  6
CONTINUOUS
 62
     7
  5
3EA
 10
-0.234
 20
-3.5885
 30
0.0
 11
-0.234
 21
-3.234
 31
0.0
  0
LINE
  8
0
  6
CONTINUOUS
 62
     7
  5
3EB
 10
-0.078
 20
-1.385
 30
0.0
 11
-0.078
 21
-1.135
 31
0.0
  0
LINE
  8
0
  6
CONTINUOUS
 62
     7
  5
3EC
 10
-0.078
 20
-1.135
 30
0.0
 11
0.0
 21
-1.135
 31
0.0
  0
LINE
  8
0
  6
CONTINUOUS
 62
     7
  5
3ED
 10
-0.078
 20
-2.978
 30
0.0
 11
-0.078
 21
-3.0
 31
0.0
  0
LINE
  8
0
  6
CONTINUOUS
 62
     7
  5
3EE
 10
-0.078
 20
-2.135
 30
0.0
 11
-0.078
 21
-1.385
 31
0.0
  0
ARC
  8
0
  6
CONTINUOUS
 62
     7
  5
3EF
 10
-0.156
 20
-3.234
 30
0.0
 40
0.078
 50
90.0
 51
180.0
  0
ARC
  8
0
  6
CONTINUOUS
 62
     7
  5
3F0
 10
-0.156
 20
-3.234
 30
0.0
 40
0.156
 50
90.0
 51
180.0
  0
ARC
  8
0
  6
CONTINUOUS
 62
     7
  5
3F1
 10
-0.156
 20
-3.0
 30
0.0
 40
0.078
 50
270.0
 51
0.0
  0
ARC
  8
0
  6
CONTINUOUS
 62
     7
  5
3F2
 10
-0.156
 20
-3.0
 30
0.0
 40
0.156
 50
270.0
 51
0.0
  0
LINE
  8
0
  6
CONTINUOUS
 62
     7
  5
3F3
 10
-0.156
 20
-2.978
 30
0.0
 11
0.0
 21
-2.978
 31
0.0
  0
LINE
  8
0
  6
CONTINUOUS
 62
     7
  5
3F4
 10
-0.58
 20
-4.212449
 30
0.0
 11
-0.502
 21
-4.212449
 31
0.0
  0
LINE
  8
0
  6
CONTINUOUS
 62
     7
  5
3F5
 10
-0.58
 20
-3.725
 30
0.0
 11
-0.625
 21
-3.725
 31
0.0
  0
LINE
  8
0
  6
CONTINUOUS
 62
     7
  5
3F6
 10
-0.625
 20
-3.975
 30
0.0
 11
-0.58
 21
-3.975
 31
0.0
  0
LINE
  8
0
  6
CONTINUOUS
 62
     7
  5
3F7
 10
0.0
 20
-3.609
 30
0.0
 11
-0.137
 21
-3.609
 31
0.0
  0
LINE
  8
0
  6
CONTINUOUS
 62
     7
  5
3F8
 10
-0.137
 20
-4.091
 30
0.0
 11
0.0
 21
-4.091
 31
0.0
  0
LINE
  8
0
  6
CONTINUOUS
 62
     7
  5
3F9
 10
-0.625
 20
-3.725
 30
0.0
 11
-0.75
 21
-3.758494
 31
0.0
  0
LINE
  8
0
  6
CONTINUOUS
 62
     7
  5
3FA
 10
-0.75
 20
-3.941506
 30
0.0
 11
-0.625
 21
-3.975
 31
0.0
  0
LINE
  8
0
  6
CONTINUOUS
 62
     7
  5
3FB
 10
-0.137
 20
-3.725
 30
0.0
 11
-0.234
 21
-3.725
 31
0.0
  0
LINE
  8
0
  6
CONTINUOUS
 62
     7
  5
3FC
 10
-0.500348
 20
-3.975
 30
0.0
 11
-0.137
 21
-3.975
 31
0.0
  0
LINE
  8
0
  6
CONTINUOUS
 62
     3
  5
3FD
 10
0.0
 20
-2.46
 30
0.0
 11
3.24
 21
-2.46
 31
0.0
  0
LINE
  8
0
  6
CONTINUOUS
 62
     3
  5
3FE
 10
0.0
 20
2.46
 30
0.0
 11
2.87
 21
2.46
 31
0.0
  0
LINE
  8
0
  6
CONTINUOUS
 62
     3
  5
3FF
 10
1.785
 20
0.49
 30
0.0
 11
4.37
 21
0.49
 31
0.0
  0
LINE
  8
0
  6
CONTINUOUS
 62
     3
  5
400
 10
4.249599
 20
-0.270182
 30
0.0
 11
1.91
 21
0.49
 31
0.0
  0
LINE
  8
0
  6
CONTINUOUS
 62
     3
  5
401
 10
4.221644
 20
1.33137
 30
0.0
 11
1.91
 21
0.49
 31
0.0
  0
LINE
  8
0
  6
CONTINUOUS
 62
     3
  5
402
 10
4.364008
 20
0.661601
 30
0.0
 11
1.91
 21
0.49
 31
0.0
  0
LINE
  8
0
  6
CONTINUOUS
 62
     3
  5
403
 10
1.91
 20
0.615
 30
0.0
 11
1.91
 21
0.365
 31
0.0
  0
ENDSEC
  0
EOF
