999
DXF file: C:\Users\sesa63760\Dev\_Creo\CAD\MCADID0000088_3D-CAD\drw0001_7.dxf
999
Pro/ENGINEER 2019471 by Parametric Technology Corporation
  0
SECTION
  2
HEADER
  9
$ACADVER
  1
AC1024
  9
$DWGCODEPAGE
  3
ANSI_1252
  9
$EXTMAX
 10
200.227571116
 20
283.1789934355
 30
0.0
  9
$EXTMIN
 10
0.0
 20
0.0
 30
0.0
  9
$LIMMIN
 10
0.0
 20
0.0
  9
$LIMMAX
 10
200.227571116
 20
283.1789934355
  9
$VIEWCTR
 10
100.113785558
 20
141.5894967177
  9
$VIEWSIZE
 40
283.1789934355
  9
$CLAYER
  8
0
  9
$LTSCALE
 40
18.4590751276
  9
$CELTYPE
  6
BYLAYER
  9
$DIMSCALE
 40
1.0
  9
$DIMASZ
 40
2.3836615609
  9
$DIMEXO
 40
1.0
  9
$DIMDLI
 40
12.7535428155
  9
$DIMEXE
 40
1.0
  9
$DIMCEN
 40
3.02057593
  9
$DIMLFAC
 40
1.0
  9
$DIMBLK
  1
_FILLED
  9
$DIMALT
 70
0
  9
$DIMALTF
 40
0.0393700787
  9
$DIMTXT
 40
3.3371261853
  9
$DIMTOL
 70
1
  9
$DIMLIM
 70
0
  9
$DIMTFAC
 40
1.0
  9
$DIMTP
 40
0.01
  9
$DIMTM
 40
0.01
  9
$DIMGAP
 40
0.625
  9
$DIMDSEP
 70
46
  9
$AUNITS
 70
0
  9
$PDMODE
 70
3
  9
$PDSIZE
 40
0.3125
  9
$HANDSEED
  5
37B
  9
$TILEMODE
 70
1
  9
$MEASUREMENT
 70
1
  9
$INSUNITS
 70
4
  0
ENDSEC
  0
SECTION
  2
CLASSES
  0
CLASS
  1
ACDBDICTIONARYWDFLT
  2
AcDbDictionaryWithDefault
  3
AutoCAD 2000
 90
0
 91
1
280
0
281
0
  0
CLASS
  1
ACDBPLACEHOLDER
  2
AcDbPlaceHolder
  3
AutoCAD 2000
 90
0
 91
1
280
0
281
0
  0
CLASS
  1
LAYOUT
  2
AcDbLayout
  3
AutoCAD 2000
 90
0
 91
0
280
0
281
0
  0
ENDSEC
  0
SECTION
  2
TABLES
  0
TABLE
  2
VPORT
  5
8
100
AcDbSymbolTable
 70
2
  0
VPORT
  5
1F4
100
AcDbSymbolTableRecord
100
AcDbViewportTableRecord
  2
*ACTIVE
 70
0
 10
0.0
 20
0.0
 11
1.0
 21
1.0
 12
100.113785558
 22
141.5894967177
 13
0.0
 23
0.0
 14
1.0
 24
1.0
 15
0.0
 25
0.0
 16
0.0
 26
0.0
 36
1.0
 17
0.0
 27
0.0
 37
0.0
 40
283.1789934355
 41
0.7070707071
 42
50.0
 43
0.0
 44
0.0
 50
0.0
 51
0.0
 71
0
 72
100
 73
1
 74
1
 75
0
 76
0
 77
0
 78
0
  0
ENDTAB
  0
TABLE
  2
LTYPE
  5
5
100
AcDbSymbolTable
 70
6
  0
LTYPE
  5
14
100
AcDbSymbolTableRecord
100
AcDbLinetypeTableRecord
  2
BYBLOCK
 70
0
  3

 72
65
 73
0
 40
0.0
  0
LTYPE
  5
15
100
AcDbSymbolTableRecord
100
AcDbLinetypeTableRecord
  2
BYLAYER
 70
0
  3

 72
65
 73
0
 40
0.0
  0
LTYPE
  5
16
100
AcDbSymbolTableRecord
100
AcDbLinetypeTableRecord
  2
CONTINUOUS
 70
64
  3
Solid line
 72
65
 73
0
 40
0.0
  0
LTYPE
  5
1F5
100
AcDbSymbolTableRecord
100
AcDbLinetypeTableRecord
  2
CENTER
 70
64
  3
____ _ ____ _ ____ _ ____ _ ____ _ ____ _ ____
 72
65
 73
4
 40
0.6
 49
0.375
 74
0
 49
-0.075
 74
0
 49
0.075
 74
0
 49
-0.075
 74
0
  0
LTYPE
  5
1F6
100
AcDbSymbolTableRecord
100
AcDbLinetypeTableRecord
  2
HIDDEN
 70
64
  3
- - - - - - - - - - - - - - - - - - - -
 72
65
 73
2
 40
0.2
 49
0.1
 74
0
 49
-0.1
 74
0
  0
LTYPE
  5
1F7
100
AcDbSymbolTableRecord
100
AcDbLinetypeTableRecord
  2
PHANTOM
 70
64
  3
_____ _ _ _____ _ _ _____ _ _ _____
 72
65
 73
6
 40
0.8
 49
0.45
 74
0
 49
-0.05
 74
0
 49
0.1
 74
0
 49
-0.05
 74
0
 49
0.1
 74
0
 49
-0.05
 74
0
  0
LTYPE
  5
1F8
100
AcDbSymbolTableRecord
100
AcDbLinetypeTableRecord
  2
DOT
 70
64
  3
. . . . . . . . . . . . . . . . . . . .
 72
65
 73
2
 40
0.2
 49
0.1
 74
0
 49
-0.1
 74
0
  0
LTYPE
  5
1F9
100
AcDbSymbolTableRecord
100
AcDbLinetypeTableRecord
  2
DASHED
 70
64
  3
- - - - - - - - - - - - - - - - - - - -
 72
65
 73
2
 40
0.2
 49
0.1
 74
0
 49
-0.1
 74
0
  0
ENDTAB
  0
TABLE
  2
LAYER
  5
2
100
AcDbSymbolTable
 70
36
  0
LAYER
  5
10
100
AcDbSymbolTableRecord
100
AcDbLayerTableRecord
  2
0
 70
0
 62
7
  6
CONTINUOUS
370
-3
390
F
  0
LAYER
  5
1FA
100
AcDbSymbolTableRecord
100
AcDbLayerTableRecord
  2
DEFAULT_1
 70
0
 62
7
  6
CENTER
370
-3
390
F
  0
LAYER
  5
1FB
100
AcDbSymbolTableRecord
100
AcDbLayerTableRecord
  2
DEFAULT_2
 70
0
 62
8
  6
HIDDEN
370
-3
390
F
  0
LAYER
  5
1FC
100
AcDbSymbolTableRecord
100
AcDbLayerTableRecord
  2
DEFAULT_3
 70
0
 62
7
  6
PHANTOM
370
-3
390
F
  0
LAYER
  5
1FD
100
AcDbSymbolTableRecord
100
AcDbLayerTableRecord
  2
00_COMPONENTS
 70
0
 62
7
  6
CONTINUOUS
370
-3
390
F
  0
LAYER
  5
1FE
100
AcDbSymbolTableRecord
100
AcDbLayerTableRecord
  2
01_1_DEFAULT_DATUMS
 70
0
 62
7
  6
CONTINUOUS
370
-3
390
F
  0
LAYER
  5
1FF
100
AcDbSymbolTableRecord
100
AcDbLayerTableRecord
  2
01_PLANES
 70
0
 62
7
  6
CONTINUOUS
370
-3
390
F
  0
LAYER
  5
200
100
AcDbSymbolTableRecord
100
AcDbLayerTableRecord
  2
02_COORD_SYS
 70
0
 62
7
  6
CONTINUOUS
370
-3
390
F
  0
LAYER
  5
201
100
AcDbSymbolTableRecord
100
AcDbLayerTableRecord
  2
03_AXES
 70
0
 62
7
  6
CONTINUOUS
370
-3
390
F
  0
LAYER
  5
202
100
AcDbSymbolTableRecord
100
AcDbLayerTableRecord
  2
04_POINTS
 70
0
 62
7
  6
CONTINUOUS
370
-3
390
F
  0
LAYER
  5
203
100
AcDbSymbolTableRecord
100
AcDbLayerTableRecord
  2
05_CURVES
 70
0
 62
7
  6
CONTINUOUS
370
-3
390
F
  0
LAYER
  5
204
100
AcDbSymbolTableRecord
100
AcDbLayerTableRecord
  2
06_SURFS
 70
0
 62
7
  6
CONTINUOUS
370
-3
390
F
  0
LAYER
  5
205
100
AcDbSymbolTableRecord
100
AcDbLayerTableRecord
  2
07_COSMETICS
 70
0
 62
7
  6
CONTINUOUS
370
-3
390
F
  0
LAYER
  5
206
100
AcDbSymbolTableRecord
100
AcDbLayerTableRecord
  2
10_NOTES
 70
0
 62
7
  6
CONTINUOUS
370
-3
390
F
  0
LAYER
  5
207
100
AcDbSymbolTableRecord
100
AcDbLayerTableRecord
  2
11_NOTES_PUB
 70
0
 62
7
  6
CONTINUOUS
370
-3
390
F
  0
LAYER
  5
208
100
AcDbSymbolTableRecord
100
AcDbLayerTableRecord
  2
13_REF_GTOL
 70
0
 62
7
  6
CONTINUOUS
370
-3
390
F
  0
LAYER
  5
209
100
AcDbSymbolTableRecord
100
AcDbLayerTableRecord
  2
16_MISC
 70
0
 62
7
  6
CONTINUOUS
370
-3
390
F
  0
LAYER
  5
20A
100
AcDbSymbolTableRecord
100
AcDbLayerTableRecord
  2
17_NO_PRINT
 70
0
 62
7
  6
CONTINUOUS
370
-3
390
F
  0
LAYER
  5
20B
100
AcDbSymbolTableRecord
100
AcDbLayerTableRecord
  2
18_DATUM_CAMS_JOINTS
 70
0
 62
7
  6
CONTINUOUS
370
-3
390
F
  0
LAYER
  5
20C
100
AcDbSymbolTableRecord
100
AcDbLayerTableRecord
  2
19_DATUM_FUNCTIONAL
 70
0
 62
7
  6
CONTINUOUS
370
-3
390
F
  0
LAYER
  5
20D
100
AcDbSymbolTableRecord
100
AcDbLayerTableRecord
  2
20_DATUM_KINEMATIC_SCHEME
 70
0
 62
7
  6
CONTINUOUS
370
-3
390
F
  0
ENDTAB
  0
TABLE
  2
STYLE
  5
3
100
AcDbSymbolTable
 70
1
  0
STYLE
  5
11
100
AcDbSymbolTableRecord
100
AcDbTextStyleTableRecord
  2
STANDARD
 70
0
 40
0.0
 41
0.8
 50
0.0
 71
0
 42
0.2
  3
txt
  4

  0
STYLE
  5
20E
100
AcDbSymbolTableRecord
100
AcDbTextStyleTableRecord
  2
TEXTSTYLE_1
 70
0
 40
0.0
 41
0.8
 50
0.0
 71
0
 42
0.2
  3
gdt
  4

  0
ENDTAB
  0
TABLE
  2
VIEW
  5
6
100
AcDbSymbolTable
 70
0
  0
ENDTAB
  0
TABLE
  2
UCS
  5
7
100
AcDbSymbolTable
 70
0
  0
ENDTAB
  0
TABLE
  2
APPID
  5
9
100
AcDbSymbolTable
 70
1
  0
APPID
  5
20F
100
AcDbSymbolTableRecord
100
AcDbRegAppTableRecord
  2
ACAD
 70
0
  0
ENDTAB
  0
TABLE
  2
BLOCK_RECORD
  5
1
100
AcDbSymbolTable
 70
0
  0
BLOCK_RECORD
  5
210
100
AcDbSymbolTableRecord
100
AcDbBlockTableRecord
  2
*Model_Space
  0
BLOCK_RECORD
  5
211
100
AcDbSymbolTableRecord
100
AcDbBlockTableRecord
  2
*Paper_Space
  0
BLOCK_RECORD
  5
212
100
AcDbSymbolTableRecord
100
AcDbBlockTableRecord
  2
_FILLED
  0
ENDTAB
  0
TABLE
  2
DIMSTYLE
  5
A
100
AcDbSymbolTable
 70
1
100
AcDbDimStyleTable
 71
0
  0
DIMSTYLE
105
213
100
AcDbSymbolTableRecord
100
AcDbDimStyleTableRecord
  2
STANDARD
 70
0
  3

  4

 40
1.0
 41
2.3836615609
 42
1.0
 43
0.38
 44
1.0
 45
0.0
 46
0.0
 47
0.01
 48
0.01
140
3.3371261853
141
0.09
142
0.0
143
25.4
144
1.0
145
0.0
146
1.0
147
0.625
 71
1
 72
0
 73
0
 74
0
 75
0
 76
0
 77
1
 78
8
 79
2
170
0
171
1
172
0
173
0
174
0
175
0
176
0
177
0
178
0
270
2
179
2
271
2
272
2
273
2
274
2
275
0
280
0
281
0
282
0
283
1
284
8
285
0
286
0
287
3
288
0
340
11
278
46
341
212
342
212
343
212
344
212
  0
ENDTAB
  0
ENDSEC
  0
SECTION
  2
BLOCKS
  0
BLOCK
  5
20
100
AcDbEntity
  8
0
100
AcDbBlockBegin
  2
*Model_Space
 70
0
 10
0.0
 20
0.0
 30
0.0
  3
*Model_Space
  1

  0
ENDBLK
  5
21
100
AcDbEntity
  8
0
100
AcDbBlockEnd
  0
BLOCK
  5
1C
100
AcDbEntity
  8
0
100
AcDbBlockBegin
  2
*Paper_Space
 70
0
 10
0.0
 20
0.0
 30
0.0
  3
*Paper_Space
  1

  0
ENDBLK
  5
1D
100
AcDbEntity
  8
0
100
AcDbBlockEnd
  0
BLOCK
  5
214
100
AcDbEntity
  8
0
100
AcDbBlockBegin
  2
_FILLED
 70
64
 10
0.0
 20
0.0
  3
_FILLED
  1

  0
SOLID
  5
215
100
AcDbEntity
  8
0
  6
BYBLOCK
 62
0
100
AcDbTrace
 10
0.0
 20
0.0
 11
-1.0
 21
0.25
 12
-1.0
 22
-0.25
 13
-1.0
 23
-0.25
  0
ENDBLK
  5
216
100
AcDbEntity
  8
0
  6
BYBLOCK
 62
0
100
AcDbBlockEnd
  0
ENDSEC
  0
SECTION
  2
ENTITIES
  0
LINE
  5
217
100
AcDbEntity
  8
0
100
AcDbLine
 62
7
  6
CONTINUOUS
 10
21.2603938731
 20
185.6777133479
 11
21.4603938731
 21
185.8777133479
  0
LINE
  5
218
100
AcDbEntity
  8
0
100
AcDbLine
 62
7
  6
CONTINUOUS
 10
21.2603938731
 20
176.8477133444
 11
21.2603938731
 21
185.6771057578
  0
LINE
  5
219
100
AcDbEntity
  8
0
100
AcDbLine
 62
7
  6
CONTINUOUS
 10
21.4203938695
 20
176.6877133479
 11
21.4203938695
 21
178.2232017724
  0
LINE
  5
21A
100
AcDbEntity
  8
0
100
AcDbLine
 62
7
  6
CONTINUOUS
 10
21.4603938731
 20
178.1800082557
 11
21.4603938731
 21
185.8777133479
  0
LINE
  5
21B
100
AcDbEntity
  8
0
100
AcDbLine
 62
7
  6
CONTINUOUS
 10
43.7603938731
 20
196.6327133479
 11
44.0103938731
 21
196.8827133479
  0
LINE
  5
21C
100
AcDbEntity
  8
0
100
AcDbLine
 62
7
  6
CONTINUOUS
 10
37.1003938767
 20
176.6877133479
 11
37.2603938731
 21
176.8477133444
  0
LINE
  5
21D
100
AcDbEntity
  8
0
100
AcDbLine
 62
7
  6
CONTINUOUS
 10
57.5926748883
 20
194.3961693152
 11
58.4353938731
 21
194.8827133479
  0
LINE
  5
21E
100
AcDbEntity
  8
0
100
AcDbLine
 62
7
  6
CONTINUOUS
 10
35.7603938731
 20
178.1800082557
 11
35.7603938731
 21
176.6877133479
  0
LINE
  5
21F
100
AcDbEntity
  8
0
100
AcDbLine
 62
7
  6
CONTINUOUS
 10
37.2603938731
 20
176.8477133444
 11
37.2603938731
 21
177.8877133479
  0
LINE
  5
220
100
AcDbEntity
  8
0
100
AcDbLine
 62
7
  6
CONTINUOUS
 10
162.8953938731
 20
82.6827133479
 11
166.3453938731
 21
82.6827133479
  0
LINE
  5
221
100
AcDbEntity
  8
0
100
AcDbLine
 62
7
  6
CONTINUOUS
 10
167.0353938731
 20
82.6827133479
 11
170.4853938731
 21
82.6827133479
  0
LINE
  5
222
100
AcDbEntity
  8
0
100
AcDbLine
 62
7
  6
CONTINUOUS
 10
171.1753938731
 20
82.6827133479
 11
174.6253938731
 21
82.6827133479
  0
LINE
  5
223
100
AcDbEntity
  8
0
100
AcDbLine
 62
7
  6
CONTINUOUS
 10
43.2603938731
 20
170.8831009024
 11
43.2603938731
 21
195.982134287
  0
LINE
  5
224
100
AcDbEntity
  8
0
100
AcDbLine
 62
7
  6
CONTINUOUS
 10
43.5103938731
 20
173.5327134433
 11
43.5103938731
 21
178.2327132526
  0
LINE
  5
225
100
AcDbEntity
  8
0
100
AcDbLine
 62
7
  6
CONTINUOUS
 10
43.5103938731
 20
192.6942758666
 11
43.5103938731
 21
196.2327132526
  0
LINE
  5
226
100
AcDbEntity
  8
0
100
AcDbLine
 62
7
  6
CONTINUOUS
 10
43.7603938731
 20
167.1327133479
 11
43.7603938731
 21
196.6327133479
  0
LINE
  5
227
100
AcDbEntity
  8
0
100
AcDbLine
 62
7
  6
CONTINUOUS
 10
44.0103938731
 20
166.8827133479
 11
44.0103938731
 21
196.8827133479
  0
LINE
  5
228
100
AcDbEntity
  8
0
100
AcDbLine
 62
7
  6
CONTINUOUS
 10
46.2603938731
 20
161.8827133479
 11
46.2603938731
 21
201.8827133479
  0
LINE
  5
229
100
AcDbEntity
  8
0
100
AcDbLine
 62
7
  6
CONTINUOUS
 10
177.1603938731
 20
86.6827133479
 11
178.1603938731
 21
86.6827133479
  0
LINE
  5
22A
100
AcDbEntity
  8
0
100
AcDbLine
 62
7
  6
CONTINUOUS
 10
179.1603938731
 20
89.0327133479
 11
175.8603938731
 21
89.0327133479
  0
LINE
  5
22B
100
AcDbEntity
  8
0
100
AcDbLine
 62
7
  6
CONTINUOUS
 10
72.2103938731
 20
89.0327133479
 11
68.8103938731
 21
89.0327133479
  0
LINE
  5
22C
100
AcDbEntity
  8
0
100
AcDbLine
 62
7
  6
CONTINUOUS
 10
68.0103938731
 20
89.0327133479
 11
64.6103938731
 21
89.0327133479
  0
LINE
  5
22D
100
AcDbEntity
  8
0
100
AcDbLine
 62
7
  6
CONTINUOUS
 10
73.3103938731
 20
93.1327133479
 11
74.8103938731
 21
91.6327133479
  0
LINE
  5
22E
100
AcDbEntity
  8
0
100
AcDbLine
 62
7
  6
CONTINUOUS
 10
51.4353938731
 20
201.8827133479
 11
51.4353938731
 21
192.8827133479
  0
LINE
  5
22F
100
AcDbEntity
  8
0
100
AcDbLine
 62
7
  6
CONTINUOUS
 10
51.4353938731
 20
170.8827133479
 11
51.4353938731
 21
161.8827133479
  0
LINE
  5
230
100
AcDbEntity
  8
0
100
AcDbLine
 62
7
  6
CONTINUOUS
 10
76.1103938731
 20
91.6327133479
 11
74.8103938731
 21
91.6327133479
  0
LINE
  5
231
100
AcDbEntity
  8
0
100
AcDbLine
 62
7
  6
CONTINUOUS
 10
161.7603938731
 20
91.9827133479
 11
175.7603938731
 21
91.9827133479
  0
LINE
  5
232
100
AcDbEntity
  8
0
100
AcDbLine
 62
7
  6
CONTINUOUS
 10
176.4603938731
 20
92.6827133479
 11
179.1603938731
 21
92.6827133479
  0
LINE
  5
233
100
AcDbEntity
  8
0
100
AcDbLine
 62
7
  6
CONTINUOUS
 10
74.8103938731
 20
94.5014803526
 11
73.3103938731
 21
94.6327133479
  0
LINE
  5
234
100
AcDbEntity
  8
0
100
AcDbLine
 62
7
  6
CONTINUOUS
 10
57.4353938731
 20
165.81481777
 11
57.4353938731
 21
169.3641547269
  0
LINE
  5
235
100
AcDbEntity
  8
0
100
AcDbLine
 62
7
  6
CONTINUOUS
 10
57.4353938731
 20
194.4012719689
 11
57.4353938731
 21
197.9506089259
  0
LINE
  5
236
100
AcDbEntity
  8
0
100
AcDbLine
 62
7
  6
CONTINUOUS
 10
57.5926748883
 20
162.5752535837
 11
57.5926748883
 21
164.8827133479
  0
LINE
  5
237
100
AcDbEntity
  8
0
100
AcDbLine
 62
7
  6
CONTINUOUS
 10
57.5926748883
 20
198.8827133479
 11
57.5926748883
 21
201.1901731122
  0
LINE
  5
238
100
AcDbEntity
  8
0
100
AcDbLine
 62
7
  6
CONTINUOUS
 10
58.4353938731
 20
163.8827133479
 11
58.4353938731
 21
168.8827133479
  0
LINE
  5
239
100
AcDbEntity
  8
0
100
AcDbLine
 62
7
  6
CONTINUOUS
 10
58.4353938731
 20
194.8827133479
 11
58.4353938731
 21
199.8827133479
  0
LINE
  5
23A
100
AcDbEntity
  8
0
100
AcDbLine
 62
7
  6
CONTINUOUS
 10
73.3103938731
 20
97.9327133479
 11
63.4604140286
 21
97.9327133479
  0
LINE
  5
23B
100
AcDbEntity
  8
0
100
AcDbLine
 62
7
  6
CONTINUOUS
 10
76.1103938731
 20
99.1827133479
 11
73.6103938731
 21
99.1827133479
  0
LINE
  5
23C
100
AcDbEntity
  8
0
100
AcDbLine
 62
7
  6
CONTINUOUS
 10
179.1603938731
 20
99.1827133479
 11
179.6603938731
 21
99.1827133479
  0
LINE
  5
23D
100
AcDbEntity
  8
0
100
AcDbLine
 62
7
  6
CONTINUOUS
 10
179.6603938731
 20
100.1827133479
 11
178.1603938731
 21
100.1827133479
  0
LINE
  5
23E
100
AcDbEntity
  8
0
100
AcDbLine
 62
7
  6
CONTINUOUS
 10
73.6103938731
 20
100.6827133479
 11
74.5103938731
 21
100.6827133479
  0
LINE
  5
23F
100
AcDbEntity
  8
0
100
AcDbLine
 62
7
  6
CONTINUOUS
 10
160.7603938731
 20
102.3827133479
 11
176.7603938731
 21
102.3827133479
  0
LINE
  5
240
100
AcDbEntity
  8
0
100
AcDbLine
 62
7
  6
CONTINUOUS
 10
62.3603938731
 20
108.6327150848
 11
62.3603938731
 21
106.1327133479
  0
LINE
  5
241
100
AcDbEntity
  8
0
100
AcDbLine
 62
7
  6
CONTINUOUS
 10
63.0103939138
 20
108.6327154441
 11
63.0103938731
 21
106.1327133479
  0
LINE
  5
242
100
AcDbEntity
  8
0
100
AcDbLine
 62
7
  6
CONTINUOUS
 10
63.4603938731
 20
97.9327133479
 11
63.4603938731
 21
106.1327133479
  0
LINE
  5
243
100
AcDbEntity
  8
0
100
AcDbLine
 62
7
  6
CONTINUOUS
 10
63.7103938731
 20
97.9327133479
 11
63.7103938731
 21
106.1327133479
  0
LINE
  5
244
100
AcDbEntity
  8
0
100
AcDbLine
 62
7
  6
CONTINUOUS
 10
63.9553938731
 20
128.6327133479
 11
63.9553938731
 21
123.6327196151
  0
LINE
  5
245
100
AcDbEntity
  8
0
100
AcDbLine
 62
7
  6
CONTINUOUS
 10
64.2603938731
 20
145.6327133479
 11
64.2603938731
 21
128.6327133479
  0
LINE
  5
246
100
AcDbEntity
  8
0
100
AcDbLine
 62
7
  6
CONTINUOUS
 10
64.6103938731
 20
97.9327133479
 11
64.6103938731
 21
89.0327133479
  0
LINE
  5
247
100
AcDbEntity
  8
0
100
AcDbLine
 62
7
  6
CONTINUOUS
 10
68.0103938731
 20
97.9327133479
 11
68.0103938731
 21
89.0327133479
  0
LINE
  5
248
100
AcDbEntity
  8
0
100
AcDbLine
 62
7
  6
CONTINUOUS
 10
63.9553938731
 20
123.6327196151
 11
62.3603938731
 21
108.6332486738
  0
LINE
  5
249
100
AcDbEntity
  8
0
100
AcDbLine
 62
7
  6
CONTINUOUS
 10
77.1103938731
 20
104.9327133479
 11
76.8103938731
 21
104.9327133479
  0
LINE
  5
24A
100
AcDbEntity
  8
0
100
AcDbLine
 62
7
  6
CONTINUOUS
 10
62.3603938731
 20
106.1327133479
 11
74.6603938731
 21
106.1327133479
  0
LINE
  5
24B
100
AcDbEntity
  8
0
100
AcDbLine
 62
7
  6
CONTINUOUS
 10
75.1967199232
 20
106.4327133479
 11
77.1103938731
 21
106.4327133479
  0
LINE
  5
24C
100
AcDbEntity
  8
0
100
AcDbLine
 62
7
  6
CONTINUOUS
 10
74.0103938727
 20
108.6327142961
 11
63.0103939138
 21
108.6327154441
  0
LINE
  5
24D
100
AcDbEntity
  8
0
100
AcDbLine
 62
7
  6
CONTINUOUS
 10
74.0103937184
 20
108.6327171407
 11
71.186168672
 21
123.6327160928
  0
LINE
  5
24E
100
AcDbEntity
  8
0
100
AcDbLine
 62
7
  6
CONTINUOUS
 10
74.6603938731
 20
108.6332483639
 11
73.065393873
 21
123.6322539284
  0
LINE
  5
24F
100
AcDbEntity
  8
0
100
AcDbLine
 62
7
  6
CONTINUOUS
 10
68.8103938731
 20
97.9327133479
 11
68.8103938731
 21
89.0327133479
  0
LINE
  5
250
100
AcDbEntity
  8
0
100
AcDbLine
 62
7
  6
CONTINUOUS
 10
69.5603938731
 20
97.9327133479
 11
69.5603938731
 21
89.0327133479
  0
LINE
  5
251
100
AcDbEntity
  8
0
100
AcDbLine
 62
7
  6
CONTINUOUS
 10
72.2103938731
 20
97.9327133479
 11
72.2103938731
 21
89.0327133479
  0
LINE
  5
252
100
AcDbEntity
  8
0
100
AcDbLine
 62
7
  6
CONTINUOUS
 10
72.7603938731
 20
145.6327133479
 11
72.7603938731
 21
128.6327133479
  0
LINE
  5
253
100
AcDbEntity
  8
0
100
AcDbLine
 62
7
  6
CONTINUOUS
 10
73.0653938731
 20
128.6327133479
 11
73.0653938731
 21
123.6322539275
  0
LINE
  5
254
100
AcDbEntity
  8
0
100
AcDbLine
 62
7
  6
CONTINUOUS
 10
73.3103938731
 20
106.1327133479
 11
73.3103938731
 21
97.9327133479
  0
LINE
  5
255
100
AcDbEntity
  8
0
100
AcDbLine
 62
7
  6
CONTINUOUS
 10
73.3103938731
 20
93.1327133479
 11
73.3103938731
 21
94.6327133479
  0
LINE
  5
256
100
AcDbEntity
  8
0
100
AcDbLine
 62
7
  6
CONTINUOUS
 10
74.0103938727
 20
108.6327142961
 11
74.0103938731
 21
106.1327133479
  0
LINE
  5
257
100
AcDbEntity
  8
0
100
AcDbLine
 62
7
  6
CONTINUOUS
 10
74.6603938731
 20
108.6327168304
 11
74.6603938731
 21
106.1327133479
  0
LINE
  5
258
100
AcDbEntity
  8
0
100
AcDbLine
 62
7
  6
CONTINUOUS
 10
74.8103938731
 20
94.5014803526
 11
74.8103938731
 21
99.1827133479
  0
LINE
  5
259
100
AcDbEntity
  8
0
100
AcDbLine
 62
7
  6
CONTINUOUS
 10
63.0104166278
 20
108.6327133274
 11
65.6145350909
 21
123.6327133447
  0
LINE
  5
25A
100
AcDbEntity
  8
0
100
AcDbLine
 62
7
  6
CONTINUOUS
 10
62.3603572617
 20
108.6327202953
 11
65.2073964384
 21
123.6325597605
  0
LINE
  5
25B
100
AcDbEntity
  8
0
100
AcDbLine
 62
7
  6
CONTINUOUS
 10
21.2603938731
 20
176.8477133444
 11
21.4203938695
 21
176.6877133479
  0
LINE
  5
25C
100
AcDbEntity
  8
0
100
AcDbLine
 62
7
  6
CONTINUOUS
 10
71.615654029
 20
123.6326821416
 11
74.6604653307
 21
108.632712223
  0
LINE
  5
25D
100
AcDbEntity
  8
0
100
AcDbLine
 62
7
  6
CONTINUOUS
 10
79.8782446659
 20
147.8783500837
 11
79.7603938731
 21
161.3827133479
  0
LINE
  5
25E
100
AcDbEntity
  8
0
100
AcDbLine
 62
7
  6
CONTINUOUS
 10
80.7603557962
 20
161.3827133479
 11
80.878206589
 21
147.8783500837
  0
LINE
  5
25F
100
AcDbEntity
  8
0
100
AcDbLine
 62
7
  6
CONTINUOUS
 10
76.1103938731
 20
104.4327133479
 11
76.1103938731
 21
99.1827133479
  0
LINE
  5
260
100
AcDbEntity
  8
0
100
AcDbLine
 62
7
  6
CONTINUOUS
 10
76.8103938731
 20
104.9327133479
 11
76.8103938731
 21
92.3327133479
  0
LINE
  5
261
100
AcDbEntity
  8
0
100
AcDbLine
 62
7
  6
CONTINUOUS
 10
77.1103938731
 20
106.4327133479
 11
77.1103938731
 21
104.9327133479
  0
LINE
  5
262
100
AcDbEntity
  8
0
100
AcDbLine
 62
7
  6
CONTINUOUS
 10
78.5103938731
 20
151.3827133479
 11
78.5103938731
 21
159.8827133479
  0
LINE
  5
263
100
AcDbEntity
  8
0
100
AcDbLine
 62
7
  6
CONTINUOUS
 10
80.0103938731
 20
161.8827133479
 11
80.0103938731
 21
161.3827133479
  0
LINE
  5
264
100
AcDbEntity
  8
0
100
AcDbLine
 62
7
  6
CONTINUOUS
 10
80.878206589
 20
147.3827133479
 11
80.878206589
 21
147.8783500845
  0
LINE
  5
265
100
AcDbEntity
  8
0
100
AcDbLine
 62
7
  6
CONTINUOUS
 10
81.0103938731
 20
161.3827133479
 11
81.0103938731
 21
161.8827133479
  0
LINE
  5
266
100
AcDbEntity
  8
0
100
AcDbLine
 62
7
  6
CONTINUOUS
 10
75.1967199232
 20
106.4327133479
 11
74.7096328127
 21
100.8652821994
  0
LINE
  5
267
100
AcDbEntity
  8
0
100
AcDbLine
 62
7
  6
CONTINUOUS
 10
43.7603938731
 20
167.1327133479
 11
44.0103938731
 21
166.8827133479
  0
LINE
  5
268
100
AcDbEntity
  8
0
100
AcDbLine
 62
7
  6
CONTINUOUS
 10
172.7603938731
 20
126.3827133479
 11
164.7603938731
 21
126.3827133479
  0
LINE
  5
269
100
AcDbEntity
  8
0
100
AcDbLine
 62
7
  6
CONTINUOUS
 10
63.9554199764
 20
128.6327133479
 11
73.0653677698
 21
128.6327133479
  0
LINE
  5
26A
100
AcDbEntity
  8
0
100
AcDbLine
 62
7
  6
CONTINUOUS
 10
71.6156539676
 20
123.6326821596
 11
63.9554053054
 21
123.6313911132
  0
LINE
  5
26B
100
AcDbEntity
  8
0
100
AcDbLine
 62
7
  6
CONTINUOUS
 10
91.2216800439
 20
147.8783500845
 11
91.2216800439
 21
147.3827133479
  0
LINE
  5
26C
100
AcDbEntity
  8
0
100
AcDbLine
 62
7
  6
CONTINUOUS
 10
92.4103939685
 20
150.3827133479
 11
92.4103939685
 21
148.1327133479
  0
LINE
  5
26D
100
AcDbEntity
  8
0
100
AcDbLine
 62
7
  6
CONTINUOUS
 10
91.2216800439
 20
147.8783500854
 11
91.2653938673
 21
150.3827133479
  0
LINE
  5
26E
100
AcDbEntity
  8
0
100
AcDbLine
 62
7
  6
CONTINUOUS
 10
92.2653938731
 20
150.3827133479
 11
92.2216038944
 21
147.8739871499
  0
LINE
  5
26F
100
AcDbEntity
  8
0
100
AcDbLine
 62
7
  6
CONTINUOUS
 10
97.2991838518
 20
147.8739871499
 11
97.2553938731
 21
150.3827133479
  0
LINE
  5
270
100
AcDbEntity
  8
0
100
AcDbLine
 62
7
  6
CONTINUOUS
 10
98.2553938789
 20
150.3827133479
 11
98.2991077023
 21
147.8783500854
  0
LINE
  5
271
100
AcDbEntity
  8
0
100
AcDbLine
 62
7
  6
CONTINUOUS
 10
97.1103937777
 20
150.3827133479
 11
97.1103937777
 21
148.1327133479
  0
LINE
  5
272
100
AcDbEntity
  8
0
100
AcDbLine
 62
7
  6
CONTINUOUS
 10
98.2991077023
 20
147.3827133479
 11
98.2991077023
 21
147.8783500845
  0
LINE
  5
273
100
AcDbEntity
  8
0
100
AcDbLine
 62
7
  6
CONTINUOUS
 10
175.8603938731
 20
87.5327133479
 11
177.1603938731
 21
86.6827133479
  0
LINE
  5
274
100
AcDbEntity
  8
0
100
AcDbLine
 62
7
  6
CONTINUOUS
 10
106.5103938731
 20
161.8827133479
 11
106.5103938731
 21
161.3827133479
  0
LINE
  5
275
100
AcDbEntity
  8
0
100
AcDbLine
 62
7
  6
CONTINUOUS
 10
106.6425811572
 20
147.8783500845
 11
106.6425811572
 21
147.3827133479
  0
LINE
  5
276
100
AcDbEntity
  8
0
100
AcDbLine
 62
7
  6
CONTINUOUS
 10
107.5103938731
 20
161.3827133479
 11
107.5103938731
 21
161.8827133479
  0
LINE
  5
277
100
AcDbEntity
  8
0
100
AcDbLine
 62
7
  6
CONTINUOUS
 10
106.6425811572
 20
147.8783500837
 11
106.76043195
 21
161.3827133479
  0
LINE
  5
278
100
AcDbEntity
  8
0
100
AcDbLine
 62
7
  6
CONTINUOUS
 10
107.7603938731
 20
161.3827133479
 11
107.6425430803
 21
147.8783500837
  0
LINE
  5
279
100
AcDbEntity
  8
0
100
AcDbLine
 62
7
  6
CONTINUOUS
 10
64.2603938731
 20
145.6327133479
 11
72.7603938731
 21
145.6327133479
  0
LINE
  5
27A
100
AcDbEntity
  8
0
100
AcDbLine
 62
7
  6
CONTINUOUS
 10
174.1103632139
 20
146.3827133479
 11
163.4103938731
 21
146.3827133479
  0
LINE
  5
27B
100
AcDbEntity
  8
0
100
AcDbLine
 62
7
  6
CONTINUOUS
 10
175.1103938731
 20
147.3827133479
 11
162.4103938731
 21
147.3827133479
  0
LINE
  5
27C
100
AcDbEntity
  8
0
100
AcDbLine
 62
7
  6
CONTINUOUS
 10
80.3782256275
 20
147.3827133479
 11
107.1425621187
 21
147.3827133479
  0
LINE
  5
27D
100
AcDbEntity
  8
0
100
AcDbLine
 62
7
  6
CONTINUOUS
 10
97.2991838519
 20
147.8739871447
 11
92.2216038943
 21
147.8739871447
  0
LINE
  5
27E
100
AcDbEntity
  8
0
100
AcDbLine
 62
7
  6
CONTINUOUS
 10
106.6425811572
 20
147.8783500837
 11
98.2991077023
 21
147.8783500854
  0
LINE
  5
27F
100
AcDbEntity
  8
0
100
AcDbLine
 62
7
  6
CONTINUOUS
 10
91.2216800439
 20
147.8783500854
 11
80.878206589
 21
147.8783500837
  0
LINE
  5
280
100
AcDbEntity
  8
0
100
AcDbLine
 62
7
  6
CONTINUOUS
 10
96.860090913
 20
147.8827133479
 11
92.6606968332
 21
147.8827133479
  0
LINE
  5
281
100
AcDbEntity
  8
0
100
AcDbLine
 62
7
  6
CONTINUOUS
 10
97.1103937777
 20
148.1327133479
 11
92.4103939685
 21
148.1327133479
  0
LINE
  5
282
100
AcDbEntity
  8
0
100
AcDbLine
 62
7
  6
CONTINUOUS
 10
162.4103938731
 20
148.3827133479
 11
175.1103938731
 21
148.3827133479
  0
LINE
  5
283
100
AcDbEntity
  8
0
100
AcDbLine
 62
7
  6
CONTINUOUS
 10
176.0103938731
 20
148.9023285902
 11
175.99521307
 21
148.9023285902
  0
LINE
  5
284
100
AcDbEntity
  8
0
100
AcDbLine
 62
7
  6
CONTINUOUS
 10
172.7839049254
 20
148.9023285902
 11
171.9717020178
 21
148.9023285902
  0
LINE
  5
285
100
AcDbEntity
  8
0
100
AcDbLine
 62
7
  6
CONTINUOUS
 10
165.5490857284
 20
148.9023285902
 11
164.7368828208
 21
148.9023285902
  0
LINE
  5
286
100
AcDbEntity
  8
0
100
AcDbLine
 62
7
  6
CONTINUOUS
 10
161.5255746762
 20
148.9023285902
 11
161.5103938731
 21
148.9023285902
  0
LINE
  5
287
100
AcDbEntity
  8
0
100
AcDbLine
 62
7
  6
CONTINUOUS
 10
58.4353938731
 20
168.8827133479
 11
57.5926748883
 21
169.3692573806
  0
LINE
  5
288
100
AcDbEntity
  8
0
100
AcDbLine
 62
7
  6
CONTINUOUS
 10
91.2653938673
 20
150.3827133479
 11
98.2553938789
 21
150.3827133479
  0
LINE
  5
289
100
AcDbEntity
  8
0
100
AcDbLine
 62
7
  6
CONTINUOUS
 10
161.5103944935
 20
150.8827133479
 11
176.0103932527
 21
150.8827133479
  0
LINE
  5
28A
100
AcDbEntity
  8
0
100
AcDbLine
 62
7
  6
CONTINUOUS
 10
78.5103938731
 20
151.3827133479
 11
79.847662551
 21
151.3827133479
  0
LINE
  5
28B
100
AcDbEntity
  8
0
100
AcDbLine
 62
7
  6
CONTINUOUS
 10
161.7560494784
 20
151.8827133479
 11
175.7603938731
 21
151.8827133479
  0
LINE
  5
28C
100
AcDbEntity
  8
0
100
AcDbLine
 62
7
  6
CONTINUOUS
 10
162.7560114015
 20
152.3783500876
 11
174.7603938731
 21
152.3783500828
  0
LINE
  5
28D
100
AcDbEntity
  8
0
100
AcDbLine
 62
7
  6
CONTINUOUS
 10
142.8980386945
 20
197.5327658546
 11
143.1300898802
 21
198.1327133479
  0
LINE
  5
28E
100
AcDbEntity
  8
0
100
AcDbLine
 62
7
  6
CONTINUOUS
 10
76.1103938731
 20
91.6327133479
 11
76.8103938731
 21
92.3327133479
  0
LINE
  5
28F
100
AcDbEntity
  8
0
100
AcDbLine
 62
7
  6
CONTINUOUS
 10
76.1103938731
 20
104.4327133479
 11
76.8103938731
 21
104.9327133479
  0
LINE
  5
290
100
AcDbEntity
  8
0
100
AcDbLine
 62
7
  6
CONTINUOUS
 10
174.7603938728
 20
161.653227077
 11
162.675991103
 21
161.5477680603
  0
LINE
  5
291
100
AcDbEntity
  8
0
100
AcDbLine
 62
7
  6
CONTINUOUS
 10
175.7647573008
 20
162.1576477624
 11
144.2603938731
 21
161.8827133479
  0
LINE
  5
292
100
AcDbEntity
  8
0
100
AcDbLine
 62
7
  6
CONTINUOUS
 10
78.5103938731
 20
159.8827133479
 11
79.7734841748
 21
159.8827133479
  0
LINE
  5
293
100
AcDbEntity
  8
0
100
AcDbLine
 62
7
  6
CONTINUOUS
 10
79.7603938731
 20
161.3827133479
 11
107.7603938731
 21
161.3827133479
  0
LINE
  5
294
100
AcDbEntity
  8
0
100
AcDbLine
 62
7
  6
CONTINUOUS
 10
144.2603938731
 20
161.8827133479
 11
132.7353938731
 21
161.8827133479
  0
LINE
  5
295
100
AcDbEntity
  8
0
100
AcDbLine
 62
7
  6
CONTINUOUS
 10
46.2603938731
 20
161.8827133479
 11
131.9853938731
 21
161.8827133479
  0
LINE
  5
296
100
AcDbEntity
  8
0
100
AcDbLine
 62
7
  6
CONTINUOUS
 10
57.5926748883
 20
162.5752535837
 11
51.4353938731
 21
162.5752535837
  0
LINE
  5
297
100
AcDbEntity
  8
0
100
AcDbLine
 62
7
  6
CONTINUOUS
 10
144.2603938731
 20
163.882675271
 11
175.7647573008
 21
164.1575716071
  0
LINE
  5
298
100
AcDbEntity
  8
0
100
AcDbLine
 62
7
  6
CONTINUOUS
 10
175.7647573008
 20
169.1576477624
 11
144.2603938731
 21
168.8827133479
  0
LINE
  5
299
100
AcDbEntity
  8
0
100
AcDbLine
 62
7
  6
CONTINUOUS
 10
144.2603938731
 20
163.882675271
 11
58.4353938731
 21
163.8827133479
  0
LINE
  5
29A
100
AcDbEntity
  8
0
100
AcDbLine
 62
7
  6
CONTINUOUS
 10
176.2603938731
 20
164.1575716071
 11
175.7647572208
 21
164.1575716071
  0
LINE
  5
29B
100
AcDbEntity
  8
0
100
AcDbLine
 62
7
  6
CONTINUOUS
 10
51.4353938731
 20
164.8827133479
 11
46.2603938731
 21
164.8827133479
  0
LINE
  5
29C
100
AcDbEntity
  8
0
100
AcDbLine
 62
7
  6
CONTINUOUS
 10
57.5926748883
 20
164.8827133479
 11
176.2603938731
 21
164.8827133479
  0
LINE
  5
29D
100
AcDbEntity
  8
0
100
AcDbLine
 62
7
  6
CONTINUOUS
 10
51.4353938731
 20
165.6192573806
 11
57.4886543475
 21
165.6192573806
  0
LINE
  5
29E
100
AcDbEntity
  8
0
100
AcDbLine
 62
7
  6
CONTINUOUS
 10
44.0103938731
 20
166.8827133479
 11
46.2603938731
 21
166.8827133479
  0
LINE
  5
29F
100
AcDbEntity
  8
0
100
AcDbLine
 62
7
  6
CONTINUOUS
 10
144.2603938731
 20
168.4795869904
 11
141.2603938731
 21
168.4795869904
  0
LINE
  5
2A0
100
AcDbEntity
  8
0
100
AcDbLine
 62
7
  6
CONTINUOUS
 10
141.2603938731
 20
168.8827133479
 11
58.4353938731
 21
168.8827133479
  0
LINE
  5
2A1
100
AcDbEntity
  8
0
100
AcDbLine
 62
7
  6
CONTINUOUS
 10
142.8980143949
 20
169.0327133479
 11
141.2603938731
 21
169.0327133479
  0
LINE
  5
2A2
100
AcDbEntity
  8
0
100
AcDbLine
 62
7
  6
CONTINUOUS
 10
51.4353938731
 20
169.3692573806
 11
57.5926748883
 21
169.3692573806
  0
LINE
  5
2A3
100
AcDbEntity
  8
0
100
AcDbLine
 62
7
  6
CONTINUOUS
 10
131.9853938731
 20
159.4240655514
 11
131.9853938731
 21
162.2733932665
  0
LINE
  5
2A4
100
AcDbEntity
  8
0
100
AcDbLine
 62
7
  6
CONTINUOUS
 10
132.7353938731
 20
159.4240655514
 11
132.7353938731
 21
162.2733932665
  0
LINE
  5
2A5
100
AcDbEntity
  8
0
100
AcDbLine
 62
7
  6
CONTINUOUS
 10
175.1103938731
 20
148.3827133479
 11
176.0103938731
 21
148.9023285902
  0
LINE
  5
2A6
100
AcDbEntity
  8
0
100
AcDbLine
 62
7
  6
CONTINUOUS
 10
144.2603938731
 20
170.8826371941
 11
175.7647573008
 21
171.1575716071
  0
LINE
  5
2A7
100
AcDbEntity
  8
0
100
AcDbLine
 62
7
  6
CONTINUOUS
 10
143.1172310576
 20
169.6327133479
 11
143.1300898802
 21
169.6327133479
  0
LINE
  5
2A8
100
AcDbEntity
  8
0
100
AcDbLine
 62
7
  6
CONTINUOUS
 10
143.1172310576
 20
170.7827133479
 11
143.3358335522
 21
170.7827133479
  0
LINE
  5
2A9
100
AcDbEntity
  8
0
100
AcDbLine
 62
7
  6
CONTINUOUS
 10
141.2603938731
 20
170.8827133479
 11
51.4353938731
 21
170.8827133479
  0
LINE
  5
2AA
100
AcDbEntity
  8
0
100
AcDbLine
 62
7
  6
CONTINUOUS
 10
43.7603938731
 20
170.8827133479
 11
43.2603938731
 21
170.8827133479
  0
LINE
  5
2AB
100
AcDbEntity
  8
0
100
AcDbLine
 62
7
  6
CONTINUOUS
 10
143.1286605206
 20
171.1327133479
 11
144.2603938731
 21
171.1327133479
  0
LINE
  5
2AC
100
AcDbEntity
  8
0
100
AcDbLine
 62
7
  6
CONTINUOUS
 10
176.2603938731
 20
171.1575716071
 11
175.7647573011
 21
171.1575716071
  0
LINE
  5
2AD
100
AcDbEntity
  8
0
100
AcDbLine
 62
7
  6
CONTINUOUS
 10
143.3358335522
 20
171.4827133479
 11
143.1172310576
 21
171.4827133479
  0
LINE
  5
2AE
100
AcDbEntity
  8
0
100
AcDbLine
 62
7
  6
CONTINUOUS
 10
143.1300898802
 20
172.6327133479
 11
143.1172310576
 21
172.6327133479
  0
LINE
  5
2AF
100
AcDbEntity
  8
0
100
AcDbLine
 62
7
  6
CONTINUOUS
 10
142.8980143949
 20
173.2327133479
 11
141.2603938731
 21
173.2327133479
  0
LINE
  5
2B0
100
AcDbEntity
  8
0
100
AcDbLine
 62
7
  6
CONTINUOUS
 10
43.7603938731
 20
173.5327134433
 11
43.5103938731
 21
173.5327134433
  0
LINE
  5
2B1
100
AcDbEntity
  8
0
100
AcDbLine
 62
7
  6
CONTINUOUS
 10
144.2603938731
 20
173.6327133479
 11
141.2603938731
 21
173.6327133479
  0
LINE
  5
2B2
100
AcDbEntity
  8
0
100
AcDbLine
 62
7
  6
CONTINUOUS
 10
37.0999304757
 20
176.6877133479
 11
21.4203938695
 21
176.6877133479
  0
LINE
  5
2B3
100
AcDbEntity
  8
0
100
AcDbLine
 62
7
  6
CONTINUOUS
 10
21.2603938731
 20
176.8477133444
 11
37.2603938731
 21
176.8477133444
  0
LINE
  5
2B4
100
AcDbEntity
  8
0
100
AcDbLine
 62
7
  6
CONTINUOUS
 10
43.2603938731
 20
177.8877133479
 11
37.2603938731
 21
177.8877133479
  0
LINE
  5
2B5
100
AcDbEntity
  8
0
100
AcDbLine
 62
7
  6
CONTINUOUS
 10
21.4603938731
 20
178.1800082557
 11
35.7603938731
 21
178.1800082557
  0
LINE
  5
2B6
100
AcDbEntity
  8
0
100
AcDbLine
 62
7
  6
CONTINUOUS
 10
43.7603938731
 20
178.2326618311
 11
43.5103938731
 21
178.2326618311
  0
LINE
  5
2B7
100
AcDbEntity
  8
0
100
AcDbLine
 62
7
  6
CONTINUOUS
 10
162.4103938731
 20
148.3827133479
 11
161.5103938731
 21
148.9023285902
  0
LINE
  5
2B8
100
AcDbEntity
  8
0
100
AcDbLine
 62
7
  6
CONTINUOUS
 10
141.2603938731
 20
201.8827133479
 11
141.2603938731
 21
197.1327133479
  0
LINE
  5
2B9
100
AcDbEntity
  8
0
100
AcDbLine
 62
7
  6
CONTINUOUS
 10
141.2603938731
 20
168.8372354366
 11
141.2603938731
 21
168.4795869904
  0
LINE
  5
2BA
100
AcDbEntity
  8
0
100
AcDbLine
 62
7
  6
CONTINUOUS
 10
141.2603938731
 20
168.8827133479
 11
141.2603938731
 21
173.6327133479
  0
LINE
  5
2BB
100
AcDbEntity
  8
0
100
AcDbLine
 62
7
  6
CONTINUOUS
 10
142.8980143949
 20
201.7327133479
 11
142.8980143949
 21
197.5327133479
  0
LINE
  5
2BC
100
AcDbEntity
  8
0
100
AcDbLine
 62
7
  6
CONTINUOUS
 10
142.8980143949
 20
173.2327133479
 11
142.8980143949
 21
169.0327133479
  0
LINE
  5
2BD
100
AcDbEntity
  8
0
100
AcDbLine
 62
7
  6
CONTINUOUS
 10
144.2603938731
 20
201.8827133479
 11
144.2603942888
 21
161.8827133516
  0
LINE
  5
2BE
100
AcDbEntity
  8
0
100
AcDbLine
 62
7
  6
CONTINUOUS
 10
43.2603938731
 20
185.8777133479
 11
21.4603938731
 21
185.8777133479
  0
LINE
  5
2BF
100
AcDbEntity
  8
0
100
AcDbLine
 62
7
  6
CONTINUOUS
 10
175.7647573011
 20
188.6102786501
 11
176.2603938731
 21
188.6102786501
  0
LINE
  5
2C0
100
AcDbEntity
  8
0
100
AcDbLine
 62
7
  6
CONTINUOUS
 10
175.7647573014
 20
188.6102786501
 11
173.7603938731
 21
188.6277704633
  0
LINE
  5
2C1
100
AcDbEntity
  8
0
100
AcDbLine
 62
7
  6
CONTINUOUS
 10
173.7603938731
 20
190.5327133479
 11
175.3980143949
 21
190.5327133479
  0
LINE
  5
2C2
100
AcDbEntity
  8
0
100
AcDbLine
 62
7
  6
CONTINUOUS
 10
175.6445707553
 20
192.1473403331
 11
175.8358335522
 21
192.1473403331
  0
LINE
  5
2C3
100
AcDbEntity
  8
0
100
AcDbLine
 62
7
  6
CONTINUOUS
 10
175.7974039616
 20
192.5356925435
 11
175.8358335522
 21
192.5356925435
  0
LINE
  5
2C4
100
AcDbEntity
  8
0
100
AcDbLine
 62
7
  6
CONTINUOUS
 10
176.2603938731
 20
192.6327133479
 11
175.8358335522
 21
192.6327133479
  0
LINE
  5
2C5
100
AcDbEntity
  8
0
100
AcDbLine
 62
7
  6
CONTINUOUS
 10
43.7603938731
 20
192.6942758666
 11
43.5103938731
 21
192.6942758666
  0
LINE
  5
2C6
100
AcDbEntity
  8
0
100
AcDbLine
 62
7
  6
CONTINUOUS
 10
144.2603938731
 20
192.8827514249
 11
51.4353938731
 21
192.8827133479
  0
LINE
  5
2C7
100
AcDbEntity
  8
0
100
AcDbLine
 62
7
  6
CONTINUOUS
 10
175.7782806251
 20
193.1180863627
 11
175.8358335522
 21
193.1180863627
  0
LINE
  5
2C8
100
AcDbEntity
  8
0
100
AcDbLine
 62
7
  6
CONTINUOUS
 10
175.7647572249
 20
194.1245226255
 11
176.2603938731
 21
194.1245226255
  0
LINE
  5
2C9
100
AcDbEntity
  8
0
100
AcDbLine
 62
7
  6
CONTINUOUS
 10
57.5926748883
 20
194.3961693152
 11
51.4353938731
 21
194.3961693152
  0
LINE
  5
2CA
100
AcDbEntity
  8
0
100
AcDbLine
 62
7
  6
CONTINUOUS
 10
173.7603938731
 20
194.7327133479
 11
175.3980143949
 21
194.7327133479
  0
LINE
  5
2CB
100
AcDbEntity
  8
0
100
AcDbLine
 62
7
  6
CONTINUOUS
 10
58.4353938731
 20
194.8827133479
 11
144.2603938731
 21
194.8827133479
  0
LINE
  5
2CC
100
AcDbEntity
  8
0
100
AcDbLine
 62
7
  6
CONTINUOUS
 10
175.764757309
 20
194.1245226239
 11
175.6174621718
 21
194.1251990953
  0
LINE
  5
2CD
100
AcDbEntity
  8
0
100
AcDbLine
 62
7
  6
CONTINUOUS
 10
173.760393882
 20
195.370960406
 11
175.7647573429
 21
195.3603945387
  0
LINE
  5
2CE
100
AcDbEntity
  8
0
100
AcDbLine
 62
7
  6
CONTINUOUS
 10
173.7603938731
 20
190.1277133479
 11
175.7647573014
 21
190.1102215333
  0
LINE
  5
2CF
100
AcDbEntity
  8
0
100
AcDbLine
 62
7
  6
CONTINUOUS
 10
173.7603938731
 20
192.625346902
 11
144.2603938731
 21
192.8827514249
  0
LINE
  5
2D0
100
AcDbEntity
  8
0
100
AcDbLine
 62
7
  6
CONTINUOUS
 10
144.2603938731
 20
194.8827133479
 11
173.7603938731
 21
194.6252707481
  0
LINE
  5
2D1
100
AcDbEntity
  8
0
100
AcDbLine
 62
7
  6
CONTINUOUS
 10
160.7603938731
 20
102.3827133479
 11
160.7603938731
 21
112.3827133479
  0
LINE
  5
2D2
100
AcDbEntity
  8
0
100
AcDbLine
 62
7
  6
CONTINUOUS
 10
43.7603938731
 20
196.2327132526
 11
43.5103938731
 21
196.2327132526
  0
LINE
  5
2D3
100
AcDbEntity
  8
0
100
AcDbLine
 62
7
  6
CONTINUOUS
 10
44.0103938731
 20
196.8827133479
 11
46.2603938731
 21
196.8827133479
  0
LINE
  5
2D4
100
AcDbEntity
  8
0
100
AcDbLine
 62
7
  6
CONTINUOUS
 10
144.2603938731
 20
197.1327133479
 11
141.2603938731
 21
197.1327133479
  0
LINE
  5
2D5
100
AcDbEntity
  8
0
100
AcDbLine
 62
7
  6
CONTINUOUS
 10
141.2603938731
 20
197.5327133479
 11
142.8980143949
 21
197.5327133479
  0
LINE
  5
2D6
100
AcDbEntity
  8
0
100
AcDbLine
 62
7
  6
CONTINUOUS
 10
143.1172310576
 20
198.1327133479
 11
143.1300892035
 21
198.1327133479
  0
LINE
  5
2D7
100
AcDbEntity
  8
0
100
AcDbLine
 62
7
  6
CONTINUOUS
 10
57.4886543475
 20
198.1461693152
 11
51.4353938731
 21
198.1461693152
  0
LINE
  5
2D8
100
AcDbEntity
  8
0
100
AcDbLine
 62
7
  6
CONTINUOUS
 10
176.2603938731
 20
198.8827133479
 11
144.2603938731
 21
198.8827133479
  0
LINE
  5
2D9
100
AcDbEntity
  8
0
100
AcDbLine
 62
7
  6
CONTINUOUS
 10
141.2603938731
 20
198.8827133479
 11
57.5926748883
 21
198.8827133479
  0
LINE
  5
2DA
100
AcDbEntity
  8
0
100
AcDbLine
 62
7
  6
CONTINUOUS
 10
46.2603938731
 20
198.8827133479
 11
51.4353938731
 21
198.8827133479
  0
LINE
  5
2DB
100
AcDbEntity
  8
0
100
AcDbLine
 62
7
  6
CONTINUOUS
 10
143.1172310576
 20
199.2827133479
 11
143.3358335522
 21
199.2827133479
  0
LINE
  5
2DC
100
AcDbEntity
  8
0
100
AcDbLine
 62
7
  6
CONTINUOUS
 10
175.7647572208
 20
199.6078550887
 11
176.2603938731
 21
199.6078550887
  0
LINE
  5
2DD
100
AcDbEntity
  8
0
100
AcDbLine
 62
7
  6
CONTINUOUS
 10
144.2603938731
 20
199.6327133479
 11
143.1300898802
 21
199.6327133479
  0
LINE
  5
2DE
100
AcDbEntity
  8
0
100
AcDbLine
 62
7
  6
CONTINUOUS
 10
141.2603938731
 20
199.8827133479
 11
58.4353938731
 21
199.8827133479
  0
LINE
  5
2DF
100
AcDbEntity
  8
0
100
AcDbLine
 62
7
  6
CONTINUOUS
 10
143.3358335522
 20
199.9827133479
 11
143.1172310576
 21
199.9827133479
  0
LINE
  5
2E0
100
AcDbEntity
  8
0
100
AcDbLine
 62
7
  6
CONTINUOUS
 10
143.1300892035
 20
201.1327133479
 11
143.1172310576
 21
201.1327133479
  0
LINE
  5
2E1
100
AcDbEntity
  8
0
100
AcDbLine
 62
7
  6
CONTINUOUS
 10
51.4353938731
 20
201.1901731122
 11
57.5926748883
 21
201.1901731122
  0
LINE
  5
2E2
100
AcDbEntity
  8
0
100
AcDbLine
 62
7
  6
CONTINUOUS
 10
141.2603938731
 20
201.7327133479
 11
142.8980143949
 21
201.7327133479
  0
LINE
  5
2E3
100
AcDbEntity
  8
0
100
AcDbLine
 62
7
  6
CONTINUOUS
 10
144.2603938731
 20
201.8827133479
 11
46.2603938731
 21
201.8827133479
  0
LINE
  5
2E4
100
AcDbEntity
  8
0
100
AcDbLine
 62
7
  6
CONTINUOUS
 10
175.7647573008
 20
199.6078550887
 11
144.2603938731
 21
199.8827895018
  0
LINE
  5
2E5
100
AcDbEntity
  8
0
100
AcDbLine
 62
7
  6
CONTINUOUS
 10
144.2603938731
 20
201.8827133479
 11
175.7647573008
 21
201.6077789335
  0
LINE
  5
2E6
100
AcDbEntity
  8
0
100
AcDbLine
 62
7
  6
CONTINUOUS
 10
176.7603938731
 20
112.3827133479
 11
172.7603938731
 21
121.3827133479
  0
LINE
  5
2E7
100
AcDbEntity
  8
0
100
AcDbLine
 62
7
  6
CONTINUOUS
 10
161.2560685168
 20
152.3783500877
 11
161.1762005175
 21
161.5303163185
  0
LINE
  5
2E8
100
AcDbEntity
  8
0
100
AcDbLine
 62
7
  6
CONTINUOUS
 10
162.7560114015
 20
152.3783500876
 11
162.6716278353
 21
162.0433857526
  0
LINE
  5
2E9
100
AcDbEntity
  8
0
100
AcDbLine
 62
7
  6
CONTINUOUS
 10
161.5103938731
 20
150.8827133479
 11
161.5103938731
 21
148.9023285902
  0
LINE
  5
2EA
100
AcDbEntity
  8
0
100
AcDbLine
 62
7
  6
CONTINUOUS
 10
161.5255746762
 20
148.9023285902
 11
161.5255746762
 21
150.8827133479
  0
LINE
  5
2EB
100
AcDbEntity
  8
0
100
AcDbLine
 62
7
  6
CONTINUOUS
 10
161.7603938731
 20
102.3827133479
 11
161.7603938731
 21
91.9827133479
  0
LINE
  5
2EC
100
AcDbEntity
  8
0
100
AcDbLine
 62
7
  6
CONTINUOUS
 10
162.2603938731
 20
91.9827133479
 11
162.2603938731
 21
102.3827133479
  0
LINE
  5
2ED
100
AcDbEntity
  8
0
100
AcDbLine
 62
7
  6
CONTINUOUS
 10
162.4103938731
 20
148.3827133479
 11
162.4103938731
 21
147.3827133479
  0
LINE
  5
2EE
100
AcDbEntity
  8
0
100
AcDbLine
 62
7
  6
CONTINUOUS
 10
162.7560114015
 20
151.8827133479
 11
162.7560114015
 21
152.3783500852
  0
LINE
  5
2EF
100
AcDbEntity
  8
0
100
AcDbLine
 62
7
  6
CONTINUOUS
 10
162.8953938731
 20
82.6827133479
 11
162.8953938731
 21
91.9827133479
  0
LINE
  5
2F0
100
AcDbEntity
  8
0
100
AcDbLine
 62
7
  6
CONTINUOUS
 10
163.6103938731
 20
151.8827133479
 11
163.6103938731
 21
150.8827133479
  0
LINE
  5
2F1
100
AcDbEntity
  8
0
100
AcDbLine
 62
7
  6
CONTINUOUS
 10
164.7368828208
 20
150.8827133479
 11
164.7368828208
 21
148.9023285902
  0
LINE
  5
2F2
100
AcDbEntity
  8
0
100
AcDbLine
 62
7
  6
CONTINUOUS
 10
164.7603938731
 20
126.3827133479
 11
164.7603938731
 21
121.3827133479
  0
LINE
  5
2F3
100
AcDbEntity
  8
0
100
AcDbLine
 62
7
  6
CONTINUOUS
 10
165.5490857284
 20
148.9023285902
 11
165.5490857284
 21
150.8827133479
  0
LINE
  5
2F4
100
AcDbEntity
  8
0
100
AcDbLine
 62
7
  6
CONTINUOUS
 10
166.2603938731
 20
146.3827133479
 11
166.2603938731
 21
126.3827133479
  0
LINE
  5
2F5
100
AcDbEntity
  8
0
100
AcDbLine
 62
7
  6
CONTINUOUS
 10
166.3453938731
 20
82.6827133479
 11
166.3453938731
 21
91.9827133479
  0
LINE
  5
2F6
100
AcDbEntity
  8
0
100
AcDbLine
 62
7
  6
CONTINUOUS
 10
167.0353938731
 20
82.6827133479
 11
167.0353938731
 21
91.9827133479
  0
LINE
  5
2F7
100
AcDbEntity
  8
0
100
AcDbLine
 62
7
  6
CONTINUOUS
 10
143.1300898802
 20
201.1327133479
 11
142.8980386945
 21
201.7326608413
  0
LINE
  5
2F8
100
AcDbEntity
  8
0
100
AcDbLine
 62
7
  6
CONTINUOUS
 10
170.4853938731
 20
82.6827133479
 11
170.4853938731
 21
91.9827133479
  0
LINE
  5
2F9
100
AcDbEntity
  8
0
100
AcDbLine
 62
7
  6
CONTINUOUS
 10
171.1753938731
 20
82.6827133479
 11
171.1753938731
 21
91.9827133479
  0
LINE
  5
2FA
100
AcDbEntity
  8
0
100
AcDbLine
 62
7
  6
CONTINUOUS
 10
171.2603938731
 20
146.3827133479
 11
171.2603938731
 21
126.3827133479
  0
LINE
  5
2FB
100
AcDbEntity
  8
0
100
AcDbLine
 62
7
  6
CONTINUOUS
 10
171.9717020178
 20
150.8827133479
 11
171.9717020178
 21
148.9023285902
  0
LINE
  5
2FC
100
AcDbEntity
  8
0
100
AcDbLine
 62
7
  6
CONTINUOUS
 10
172.7603938731
 20
126.3827133479
 11
172.7603938731
 21
121.3827133479
  0
LINE
  5
2FD
100
AcDbEntity
  8
0
100
AcDbLine
 62
7
  6
CONTINUOUS
 10
172.7839049254
 20
148.9023285902
 11
172.7839049254
 21
150.8827133479
  0
LINE
  5
2FE
100
AcDbEntity
  8
0
100
AcDbLine
 62
7
  6
CONTINUOUS
 10
173.7603938731
 20
188.6277704633
 11
173.7603938731
 21
195.3709595443
  0
LINE
  5
2FF
100
AcDbEntity
  8
0
100
AcDbLine
 62
7
  6
CONTINUOUS
 10
173.9103938731
 20
151.8827133479
 11
173.9103938731
 21
150.8827133479
  0
LINE
  5
300
100
AcDbEntity
  8
0
100
AcDbLine
 62
7
  6
CONTINUOUS
 10
164.7603938731
 20
121.3827133479
 11
160.7603938731
 21
112.3827133479
  0
LINE
  5
301
100
AcDbEntity
  8
0
100
AcDbLine
 62
7
  6
CONTINUOUS
 10
174.7560306053
 20
162.1488447379
 11
174.7603938729
 21
161.6532270613
  0
LINE
  5
302
100
AcDbEntity
  8
0
100
AcDbLine
 62
7
  6
CONTINUOUS
 10
174.2603938731
 20
102.3827133479
 11
174.2603938731
 21
91.9827133479
  0
LINE
  5
303
100
AcDbEntity
  8
0
100
AcDbLine
 62
7
  6
CONTINUOUS
 10
174.6253938731
 20
82.6827133479
 11
174.6253938731
 21
91.9827133479
  0
LINE
  5
304
100
AcDbEntity
  8
0
100
AcDbLine
 62
7
  6
CONTINUOUS
 10
174.7603938728
 20
161.653227077
 11
174.7603938731
 21
151.8827133479
  0
LINE
  5
305
100
AcDbEntity
  8
0
100
AcDbLine
 62
7
  6
CONTINUOUS
 10
174.7603938731
 20
91.9827133479
 11
174.7603938731
 21
102.3827133479
  0
LINE
  5
306
100
AcDbEntity
  8
0
100
AcDbLine
 62
7
  6
CONTINUOUS
 10
175.1103938731
 20
148.3827133479
 11
175.1103938731
 21
147.3827133479
  0
LINE
  5
307
100
AcDbEntity
  8
0
100
AcDbLine
 62
7
  6
CONTINUOUS
 10
175.2603938731
 20
102.3827133479
 11
175.2603938731
 21
91.9827133479
  0
LINE
  5
308
100
AcDbEntity
  8
0
100
AcDbLine
 62
7
  6
CONTINUOUS
 10
175.3980143949
 20
194.7327113885
 11
175.3980143949
 21
190.5327133479
  0
LINE
  5
309
100
AcDbEntity
  8
0
100
AcDbLine
 62
7
  6
CONTINUOUS
 10
175.7603938731
 20
91.9827133479
 11
175.7603938731
 21
102.3827133479
  0
LINE
  5
30A
100
AcDbEntity
  8
0
100
AcDbLine
 62
7
  6
CONTINUOUS
 10
175.7647572597
 20
193.6865239816
 11
175.764757309
 21
194.1245226239
  0
LINE
  5
30B
100
AcDbEntity
  8
0
100
AcDbLine
 62
7
  6
CONTINUOUS
 10
175.7647573008
 20
199.6078550887
 11
175.7647571408
 21
195.3603955183
  0
LINE
  5
30C
100
AcDbEntity
  8
0
100
AcDbLine
 62
7
  6
CONTINUOUS
 10
175.7647571408
 20
191.5093331303
 11
175.7647571408
 21
190.1102215347
  0
LINE
  5
30D
100
AcDbEntity
  8
0
100
AcDbLine
 62
7
  6
CONTINUOUS
 10
175.7647573014
 20
188.6102786501
 11
175.7647573008
 21
171.1575716071
  0
LINE
  5
30E
100
AcDbEntity
  8
0
100
AcDbLine
 62
7
  6
CONTINUOUS
 10
175.7647573008
 20
164.1575716071
 11
175.7647571408
 21
169.157647761
  0
LINE
  5
30F
100
AcDbEntity
  8
0
100
AcDbLine
 62
7
  6
CONTINUOUS
 10
175.8603938731
 20
89.0327133479
 11
175.8603938731
 21
87.5327133479
  0
LINE
  5
310
100
AcDbEntity
  8
0
100
AcDbLine
 62
7
  6
CONTINUOUS
 10
175.99521307
 20
150.8827133479
 11
175.99521307
 21
148.9023285902
  0
LINE
  5
311
100
AcDbEntity
  8
0
100
AcDbLine
 62
7
  6
CONTINUOUS
 10
176.0103938731
 20
150.8827133479
 11
176.0103938731
 21
148.9023285902
  0
LINE
  5
312
100
AcDbEntity
  8
0
100
AcDbLine
 62
7
  6
CONTINUOUS
 10
176.2603938731
 20
152.3827133505
 11
176.2603938731
 21
201.1077979733
  0
LINE
  5
313
100
AcDbEntity
  8
0
100
AcDbLine
 62
7
  6
CONTINUOUS
 10
176.7603938731
 20
102.3827133479
 11
176.7603938731
 21
112.3827133479
  0
LINE
  5
314
100
AcDbEntity
  8
0
100
AcDbLine
 62
7
  6
CONTINUOUS
 10
176.9603938731
 20
89.0327133479
 11
176.9603938731
 21
92.6827133479
  0
LINE
  5
315
100
AcDbEntity
  8
0
100
AcDbLine
 62
7
  6
CONTINUOUS
 10
179.1603938731
 20
87.5327133479
 11
179.1603938731
 21
99.1827133479
  0
LINE
  5
316
100
AcDbEntity
  8
0
100
AcDbLine
 62
7
  6
CONTINUOUS
 10
179.6603938731
 20
89.8987387517
 11
179.6603938731
 21
100.1827133479
  0
LINE
  5
317
100
AcDbEntity
  8
0
100
AcDbLine
 62
7
  6
CONTINUOUS
 10
175.8358335522
 20
193.1180863627
 11
175.8204218776
 21
193.2636435193
  0
LINE
  5
318
100
AcDbEntity
  8
0
100
AcDbLine
 62
7
  6
CONTINUOUS
 10
178.1603938731
 20
100.1827133479
 11
177.1485405979
 21
94.7544398702
  0
LINE
  5
319
100
AcDbEntity
  8
0
100
AcDbLine
 62
7
  6
CONTINUOUS
 10
179.1603938731
 20
89.0327133479
 11
179.6603938731
 21
89.8987387517
  0
LINE
  5
31A
100
AcDbEntity
  8
0
100
AcDbLine
 62
7
  6
CONTINUOUS
 10
178.1603938731
 20
86.6827133479
 11
179.1603938731
 21
87.5327133479
  0
ARC
  5
31B
100
AcDbEntity
  8
0
100
AcDbCircle
 62
7
  6
CONTINUOUS
 10
-196.7987886232
 20
194.7424588615
 40
372.5640587689
100
AcDbArc
 50
359.9049691612
 51
0.0950310361
  0
ARC
  5
31C
100
AcDbEntity
  8
0
100
AcDbCircle
 62
7
  6
CONTINUOUS
 10
78.5103938731
 20
145.6327133479
 40
14.25
100
AcDbArc
 50
90.0
 51
180.0
  0
ARC
  5
31D
100
AcDbEntity
  8
0
100
AcDbCircle
 62
7
  6
CONTINUOUS
 10
78.5103938731
 20
145.6327133479
 40
5.75
100
AcDbArc
 50
90.0
 51
180.0
  0
ARC
  5
31E
100
AcDbEntity
  8
0
100
AcDbCircle
 62
7
  6
CONTINUOUS
 10
174.1103938731
 20
147.3827133479
 40
1.0
100
AcDbArc
 50
270.0
 51
360.0
  0
ARC
  5
31F
100
AcDbEntity
  8
0
100
AcDbCircle
 62
7
  6
CONTINUOUS
 10
163.4103938731
 20
147.3827133479
 40
1.0
100
AcDbArc
 50
180.0
 51
270.0
  0
ARC
  5
320
100
AcDbEntity
  8
0
100
AcDbCircle
 62
7
  6
CONTINUOUS
 10
176.4603938731
 20
94.8827133479
 40
0.7
100
AcDbArc
 50
180.0
 51
349.4410060844
  0
ARC
  5
321
100
AcDbEntity
  8
0
100
AcDbCircle
 62
7
  6
CONTINUOUS
 10
176.4603938731
 20
91.9827133479
 40
0.7
100
AcDbArc
 50
90.0
 51
180.0
  0
ARC
  5
322
100
AcDbEntity
  8
0
100
AcDbCircle
 62
7
  6
CONTINUOUS
 10
80.3782256275
 20
147.8827133479
 40
0.5
100
AcDbArc
 50
180.4999996002
 51
270.0
  0
ARC
  5
323
100
AcDbEntity
  8
0
100
AcDbCircle
 62
7
  6
CONTINUOUS
 10
107.1425621187
 20
147.8827133479
 40
0.5
100
AcDbArc
 50
270.0
 51
359.5000003998
  0
ARC
  5
324
100
AcDbEntity
  8
0
100
AcDbCircle
 62
7
  6
CONTINUOUS
 10
97.7991076994
 20
147.8827133479
 40
0.5
100
AcDbArc
 50
180.9999997028
 51
269.9999999998
  0
ARC
  5
325
100
AcDbEntity
  8
0
100
AcDbCircle
 62
7
  6
CONTINUOUS
 10
91.7216800468
 20
147.8827133479
 40
0.5
100
AcDbArc
 50
270.0000000002
 51
359.0000002973
  0
ARC
  5
326
100
AcDbEntity
  8
0
100
AcDbCircle
 62
7
  6
CONTINUOUS
 10
161.7560494784
 20
152.3827133479
 40
0.5
100
AcDbArc
 50
180.4999991441
 51
270.0
  0
ARC
  5
327
100
AcDbEntity
  8
0
100
AcDbCircle
 62
7
  6
CONTINUOUS
 10
175.7603938731
 20
152.3827133479
 40
0.5
100
AcDbArc
 50
270.0
 51
0.0000002956
  0
ARC
  5
328
100
AcDbEntity
  8
0
100
AcDbCircle
 62
7
  6
CONTINUOUS
 10
73.6103938731
 20
98.8827133479
 40
0.3
100
AcDbArc
 50
90.0
 51
180.0
  0
ARC
  5
329
100
AcDbEntity
  8
0
100
AcDbCircle
 62
7
  6
CONTINUOUS
 10
73.6103938731
 20
100.9827133479
 40
0.3
100
AcDbArc
 50
180.0
 51
270.0
  0
ARC
  5
32A
100
AcDbEntity
  8
0
100
AcDbCircle
 62
7
  6
CONTINUOUS
 10
96.8603937777
 20
148.1327133479
 40
0.25
100
AcDbArc
 50
270.0
 51
360.0
  0
ARC
  5
32B
100
AcDbEntity
  8
0
100
AcDbCircle
 62
7
  6
CONTINUOUS
 10
92.6603939685
 20
148.1327133479
 40
0.25
100
AcDbArc
 50
180.0
 51
270.0
  0
ARC
  5
32C
100
AcDbEntity
  8
0
100
AcDbCircle
 62
7
  6
CONTINUOUS
 10
74.5103938731
 20
100.8827133479
 40
0.2
100
AcDbArc
 50
270.0
 51
355.0000000021
  0
ARC
  5
32D
100
AcDbEntity
  8
0
100
AcDbCircle
 62
7
  6
CONTINUOUS
 10
70.2424708211
 20
169.1977504382
 40
13.2463375141
100
AcDbArc
 50
194.7964771321
 51
195.6731703568
  0
ARC
  5
32E
100
AcDbEntity
  8
0
100
AcDbCircle
 62
7
  6
CONTINUOUS
 10
43.5103938731
 20
173.7827134433
 40
0.25
100
AcDbArc
 50
180.0
 51
270.0
  0
ARC
  5
32F
100
AcDbEntity
  8
0
100
AcDbCircle
 62
7
  6
CONTINUOUS
 10
43.5103938731
 20
177.9827132526
 40
0.25
100
AcDbArc
 50
90.0
 51
180.0
  0
ARC
  5
330
100
AcDbEntity
  8
0
100
AcDbCircle
 62
7
  6
CONTINUOUS
 10
69.1370831419
 20
222.3785844338
 40
65.0121547881
100
AcDbArc
 50
222.5720882765
 51
222.7801119329
  0
ARC
  5
331
100
AcDbEntity
  8
0
100
AcDbCircle
 62
7
  6
CONTINUOUS
 10
70.2384400631
 20
194.5687741519
 40
13.2421594898
100
AcDbArc
 50
164.3266912437
 51
165.2036705908
  0
ARC
  5
332
100
AcDbEntity
  8
0
100
AcDbCircle
 62
7
  6
CONTINUOUS
 10
43.5103938731
 20
195.9827132526
 40
0.25
100
AcDbArc
 50
90.0
 51
180.0
  0
ARC
  5
333
100
AcDbEntity
  8
0
100
AcDbCircle
 62
7
  6
CONTINUOUS
 10
138.3603938731
 20
171.1327133479
 40
5.0
100
AcDbArc
 50
335.1654125103
 51
342.5423968763
  0
ARC
  5
334
100
AcDbEntity
  8
0
100
AcDbCircle
 62
7
  6
CONTINUOUS
 10
138.3603938731
 20
171.1327133479
 40
5.0
100
AcDbArc
 50
17.4576031237
 51
24.8345874897
  0
ARC
  5
335
100
AcDbEntity
  8
0
100
AcDbCircle
 62
7
  6
CONTINUOUS
 10
138.3603938731
 20
171.1327133479
 40
4.9877349569
100
AcDbArc
 50
342.4980827933
 51
355.9761259841
  0
ARC
  5
336
100
AcDbEntity
  8
0
100
AcDbCircle
 62
7
  6
CONTINUOUS
 10
138.3603938731
 20
171.1327133479
 40
4.9877349569
100
AcDbArc
 50
4.0238740159
 51
17.5019172067
  0
ARC
  5
337
100
AcDbEntity
  8
0
100
AcDbCircle
 62
7
  6
CONTINUOUS
 10
138.3603938731
 20
171.1327133479
 40
4.7696960071
100
AcDbArc
 50
355.7918569027
 51
4.2081430973
  0
ARC
  5
338
100
AcDbEntity
  8
0
100
AcDbCircle
 62
7
  6
CONTINUOUS
 10
172.3180660316
 20
191.8005300399
 40
3.3119911699
100
AcDbArc
 50
354.9559271209
 51
5.0440728791
  0
ARC
  5
339
100
AcDbEntity
  8
0
100
AcDbCircle
 62
7
  6
CONTINUOUS
 10
160.676219556
 20
161.5259530492
 40
0.5
100
AcDbArc
 50
0.5000001777
 51
90.5000000001
  0
ARC
  5
33A
100
AcDbEntity
  8
0
100
AcDbCircle
 62
7
  6
CONTINUOUS
 10
175.7603938731
 20
162.6576287225
 40
0.5
100
AcDbArc
 50
270.5000090399
 51
360.0
  0
ARC
  5
33B
100
AcDbEntity
  8
0
100
AcDbCircle
 62
7
  6
CONTINUOUS
 10
175.7603938731
 20
189.6102405732
 40
0.5
100
AcDbArc
 50
0.0
 51
89.4999907985
  0
ARC
  5
33C
100
AcDbEntity
  8
0
100
AcDbCircle
 62
7
  6
CONTINUOUS
 10
175.7603938731
 20
169.6576287225
 40
0.5
100
AcDbArc
 50
270.5000091652
 51
359.9999999998
  0
ARC
  5
33D
100
AcDbEntity
  8
0
100
AcDbCircle
 62
7
  6
CONTINUOUS
 10
170.8603938731
 20
192.6327133479
 40
5.0
100
AcDbArc
 50
335.1654358403
 51
352.7538666971
  0
ARC
  5
33E
100
AcDbEntity
  8
0
100
AcDbCircle
 62
7
  6
CONTINUOUS
 10
170.8603938731
 20
192.6327133479
 40
5.0
100
AcDbArc
 50
15.2237953332
 51
24.8345671124
  0
ARC
  5
33F
100
AcDbEntity
  8
0
100
AcDbCircle
 62
7
  6
CONTINUOUS
 10
138.3603938731
 20
199.6327133479
 40
4.9877349569
100
AcDbArc
 50
4.0238740159
 51
17.5019172067
  0
ARC
  5
340
100
AcDbEntity
  8
0
100
AcDbCircle
 62
7
  6
CONTINUOUS
 10
138.3603938731
 20
199.6327133479
 40
4.9877349569
100
AcDbArc
 50
342.4980827933
 51
355.9761259841
  0
ARC
  5
341
100
AcDbEntity
  8
0
100
AcDbCircle
 62
7
  6
CONTINUOUS
 10
138.3603938731
 20
199.6327133479
 40
4.7696960071
100
AcDbArc
 50
355.7918569027
 51
4.2081430973
  0
ARC
  5
342
100
AcDbEntity
  8
0
100
AcDbCircle
 62
7
  6
CONTINUOUS
 10
172.2358011874
 20
192.7926227773
 40
3.6163851882
100
AcDbArc
 50
15.5324642415
 51
20.76695294
  0
ARC
  5
343
100
AcDbEntity
  8
0
100
AcDbCircle
 62
7
  6
CONTINUOUS
 10
172.3258791949
 20
192.8176748042
 40
3.5228883902
100
AcDbArc
 50
7.2726937185
 51
15.5322102077
  0
ARC
  5
344
100
AcDbEntity
  8
0
100
AcDbCircle
 62
7
  6
CONTINUOUS
 10
172.3409524242
 20
192.8336613807
 40
3.5076456221
100
AcDbArc
 50
348.7108272608
 51
349.7970519041
  0
ARC
  5
345
100
AcDbEntity
  8
0
100
AcDbCircle
 62
7
  6
CONTINUOUS
 10
172.36480604
 20
192.8295861036
 40
3.4834473464
100
AcDbArc
 50
349.7935240255
 51
355.1602823666
  0
ARC
  5
346
100
AcDbEntity
  8
0
100
AcDbCircle
 62
7
  6
CONTINUOUS
 10
173.921411329
 20
193.0566225714
 40
1.951109457
100
AcDbArc
 50
330.3607823841
 51
334.6922283471
  0
ARC
  5
347
100
AcDbEntity
  8
0
100
AcDbCircle
 62
7
  6
CONTINUOUS
 10
174.0199081698
 20
193.0093964897
 40
1.8418777577
100
AcDbArc
 50
334.7105213056
 51
337.3808558603
  0
ARC
  5
348
100
AcDbEntity
  8
0
100
AcDbCircle
 62
7
  6
CONTINUOUS
 10
174.2724483038
 20
192.3372650576
 40
1.575927315
100
AcDbArc
 50
7.2334009618
 51
10.8137169054
  0
ARC
  5
349
100
AcDbEntity
  8
0
100
AcDbCircle
 62
7
  6
CONTINUOUS
 10
174.2728032697
 20
192.3457148016
 40
1.5755684985
100
AcDbArc
 50
349.2541950988
 51
352.7668863636
  0
ARC
  5
34A
100
AcDbEntity
  8
0
100
AcDbCircle
 62
7
  6
CONTINUOUS
 10
174.1466829888
 20
193.8807001034
 40
1.4833125033
100
AcDbArc
 50
352.4779879987
 51
7.5220120014
  0
ARC
  5
34B
100
AcDbEntity
  8
0
100
AcDbCircle
 62
7
  6
CONTINUOUS
 10
175.7603938731
 20
201.1077979733
 40
0.5
100
AcDbArc
 50
0.0
 51
89.4999816699
  0
SPLINE
  5
34C
100
AcDbEntity
  8
0
100
AcDbSpline
 62
7
  6
CONTINUOUS
 70
0
 71
3
 72
11
 73
7
 74
0
 42
0.0000001
 43
0.0000001
 44
0.0000000001
 40
0.0
 40
0.0
 40
0.0
 40
0.0
 40
0.1711141794
 40
0.3959497261
 40
0.6804135398
 40
1.0
 40
1.0
 40
1.0
 40
1.0
 10
131.9854478882
 20
160.1740654303
 30
0.0
 10
131.9854464611
 20
160.1483310154
 30
0.0
 10
132.0134745794
 20
160.0895462863
 30
0.0
 10
132.1013639096
 20
160.0327824772
 30
0.0
 10
132.221109468
 20
159.9950334005
 30
0.0
 10
132.3123302315
 20
159.9865655514
 30
0.0
 10
132.3603938731
 20
159.9865655514
 30
0.0
  0
SPLINE
  5
34D
100
AcDbEntity
  8
0
100
AcDbSpline
 62
7
  6
CONTINUOUS
 70
0
 71
3
 72
11
 73
7
 74
0
 42
0.0000001
 43
0.0000001
 44
0.0000000001
 40
0.0
 40
0.0
 40
0.0
 40
0.0
 40
0.1711141794
 40
0.3959497261
 40
0.6804135398
 40
1.0
 40
1.0
 40
1.0
 40
1.0
 10
131.9854478882
 20
159.4240654303
 30
0.0
 10
131.9854464611
 20
159.3983310154
 30
0.0
 10
132.0134745794
 20
159.3395462863
 30
0.0
 10
132.1013639096
 20
159.2827824772
 30
0.0
 10
132.221109468
 20
159.2450334005
 30
0.0
 10
132.3123302315
 20
159.2365655514
 30
0.0
 10
132.3603938731
 20
159.2365655514
 30
0.0
  0
SPLINE
  5
34E
100
AcDbEntity
  8
0
100
AcDbSpline
 62
7
  6
CONTINUOUS
 70
0
 71
3
 72
11
 73
7
 74
0
 42
0.0000001
 43
0.0000001
 44
0.0000000001
 40
0.0
 40
0.0
 40
0.0
 40
0.0
 40
0.3195894163
 40
0.6040228235
 40
0.828870613
 40
1.0
 40
1.0
 40
1.0
 40
1.0
 10
132.3603938731
 20
159.9865655514
 30
0.0
 10
132.408458173
 20
159.9865655514
 30
0.0
 10
132.4996756684
 20
159.9950317321
 30
0.0
 10
132.6194185767
 20
160.0327787119
 30
0.0
 10
132.7073130875
 20
160.0895392554
 30
0.0
 10
132.7353384308
 20
160.148328856
 30
0.0
 10
132.735339858
 20
160.1740656725
 30
0.0
  0
SPLINE
  5
34F
100
AcDbEntity
  8
0
100
AcDbSpline
 62
7
  6
CONTINUOUS
 70
0
 71
3
 72
9
 73
5
 74
0
 42
0.0000001
 43
0.0000001
 44
0.0000000001
 40
0.0
 40
0.0
 40
0.0
 40
0.0
 40
0.2522312159
 40
1.0
 40
1.0
 40
1.0
 40
1.0
 10
175.6172310576
 20
193.6865239982
 30
0.0
 10
175.6465289332
 20
193.6092235745
 30
0.0
 10
175.7523251593
 20
193.2989409467
 30
0.0
 10
175.8151860199
 20
192.9739367569
 30
0.0
 10
175.8358335522
 20
192.7297341523
 30
0.0
  0
SPLINE
  5
350
100
AcDbEntity
  8
0
100
AcDbSpline
 62
7
  6
CONTINUOUS
 70
0
 71
3
 72
9
 73
5
 74
0
 42
0.0000001
 43
0.0000001
 44
0.0000000001
 40
0.0
 40
0.0
 40
0.0
 40
0.0
 40
0.2460470201
 40
1.0
 40
1.0
 40
1.0
 40
1.0
 10
175.8358335522
 20
192.7297341524
 30
0.0
 10
175.8312442778
 20
192.6935402685
 30
0.0
 10
175.8074539317
 20
192.5471144166
 30
0.0
 10
175.7630919508
 20
192.4042069261
 30
0.0
 10
175.7201119351
 20
192.3010033568
 30
0.0
  0
SPLINE
  5
351
100
AcDbEntity
  8
0
100
AcDbSpline
 62
7
  6
CONTINUOUS
 70
0
 71
3
 72
11
 73
7
 74
0
 42
0.0000001
 43
0.0000001
 44
0.0000000001
 40
0.0
 40
0.0
 40
0.0
 40
0.0
 40
0.3195894163
 40
0.6040228235
 40
0.828870613
 40
1.0
 40
1.0
 40
1.0
 40
1.0
 10
132.3603938731
 20
159.2365655514
 30
0.0
 10
132.408458173
 20
159.2365655514
 30
0.0
 10
132.4996756684
 20
159.2450317321
 30
0.0
 10
132.6194185767
 20
159.2827787119
 30
0.0
 10
132.7073130875
 20
159.3395392554
 30
0.0
 10
132.7353384308
 20
159.398328856
 30
0.0
 10
132.735339858
 20
159.4240656725
 30
0.0
  0
SPLINE
  5
352
100
AcDbEntity
  8
0
100
AcDbSpline
 62
7
  6
CONTINUOUS
 70
0
 71
3
 72
21
 73
17
 74
0
 42
0.0000001
 43
0.0000001
 44
0.0000000001
 40
0.0
 40
0.0
 40
0.0
 40
0.0
 40
0.0012272536
 40
0.0048474096
 40
0.0108588161
 40
0.0192513006
 40
0.0431043192
 40
0.076163396
 40
0.1181253497
 40
0.1685723395
 40
0.2270320864
 40
0.2929293187
 40
0.444456899
 40
0.6173334257
 40
0.8049168483
 40
1.0
 40
1.0
 40
1.0
 40
1.0
 10
97.2991838512
 20
147.8739871827
 30
0.0
 10
97.2991909905
 20
147.8735781736
 30
0.0
 10
97.301735061
 20
147.8740929977
 30
0.0
 10
97.3044595524
 20
147.8733186479
 30
0.0
 10
97.3109681866
 20
147.8735242576
 30
0.0
 10
97.3234147163
 20
147.8731153914
 30
0.0
 10
97.3454064181
 20
147.8731142787
 30
0.0
 10
97.3782562083
 20
147.8729382875
 30
0.0
 10
97.4201185874
 20
147.8729567656
 30
0.0
 10
97.4703920071
 20
147.87302544
 30
0.0
 10
97.528662711
 20
147.8731991703
 30
0.0
 10
97.6206186027
 20
147.8735623994
 30
0.0
 10
97.7507142736
 20
147.8742478176
 30
0.0
 10
97.9213673655
 20
147.8753477515
 30
0.0
 10
98.1065375158
 20
147.8767236486
 30
0.0
 10
98.2340845433
 20
147.8777827563
 30
0.0
 10
98.299107702
 20
147.8783501184
 30
0.0
  0
SPLINE
  5
353
100
AcDbEntity
  8
0
100
AcDbSpline
 62
7
  6
CONTINUOUS
 70
0
 71
3
 72
11
 73
7
 74
0
 42
0.0000001
 43
0.0000001
 44
0.0000000001
 40
0.0
 40
0.0
 40
0.0
 40
0.0
 40
0.3195894163
 40
0.6040228235
 40
0.828870613
 40
1.0
 40
1.0
 40
1.0
 40
1.0
 10
132.3603938731
 20
160.3615655514
 30
0.0
 10
132.3123295732
 20
160.3615655514
 30
0.0
 10
132.2211120778
 20
160.3530993708
 30
0.0
 10
132.1013691695
 20
160.315352391
 30
0.0
 10
132.0134746587
 20
160.2585918474
 30
0.0
 10
131.9854493154
 20
160.1998022469
 30
0.0
 10
131.9854478882
 20
160.1740654303
 30
0.0
  0
SPLINE
  5
354
100
AcDbEntity
  8
0
100
AcDbSpline
 62
7
  6
CONTINUOUS
 70
0
 71
3
 72
10
 73
6
 74
0
 42
0.0000001
 43
0.0000001
 44
0.0000000001
 40
0.0
 40
0.0
 40
0.0
 40
0.0
 40
0.4214065147
 40
0.6995212651
 40
1.0
 40
1.0
 40
1.0
 40
1.0
 10
132.7353427044
 20
162.273444879
 30
0.0
 10
132.7353214171
 20
162.3418139821
 30
0.0
 10
132.6496259166
 20
162.446480513
 30
0.0
 10
132.5042103961
 20
162.5142386574
 30
0.0
 10
132.409143624
 20
162.5294544121
 30
0.0
 10
132.3603938731
 20
162.5294544121
 30
0.0
  0
SPLINE
  5
355
100
AcDbEntity
  8
0
100
AcDbSpline
 62
7
  6
CONTINUOUS
 70
0
 71
3
 72
10
 73
6
 74
0
 42
0.0000001
 43
0.0000001
 44
0.0000000001
 40
0.0
 40
0.0
 40
0.0
 40
0.0
 40
0.3004571105
 40
0.5785815659
 40
1.0
 40
1.0
 40
1.0
 40
1.0
 10
132.3603938731
 20
162.5294544121
 30
0.0
 10
132.3116480116
 20
162.5294544121
 30
0.0
 10
132.2165853788
 20
162.5142261473
 30
0.0
 10
132.0711709085
 20
162.4464910604
 30
0.0
 10
131.9854417972
 20
162.3418171991
 30
0.0
 10
131.9854447194
 20
162.2734466933
 30
0.0
  0
SPLINE
  5
356
100
AcDbEntity
  8
0
100
AcDbSpline
 62
7
  6
CONTINUOUS
 70
0
 71
3
 72
21
 73
17
 74
0
 42
0.0000001
 43
0.0000001
 44
0.0000000001
 40
0.0
 40
0.0
 40
0.0
 40
0.0
 40
0.1950824372
 40
0.3826666427
 40
0.5555447231
 40
0.7070739263
 40
0.772971796
 40
0.8314319726
 40
0.8818791242
 40
0.9238409249
 40
0.9568994945
 40
0.980751628
 40
0.9891435228
 40
0.9951542411
 40
0.9987736124
 40
1.0
 40
1.0
 40
1.0
 40
1.0
 10
106.6425811573
 20
147.878350107
 30
0.0
 10
106.7076077929
 20
147.8780664
 30
0.0
 10
106.8351618955
 20
147.8775637106
 30
0.0
 10
107.0203421204
 20
147.8769956441
 30
0.0
 10
107.1910045827
 20
147.8766402415
 30
0.0
 10
107.3211070013
 20
147.8765224412
 30
0.0
 10
107.4130671182
 20
147.8765604475
 30
0.0
 10
107.4713401234
 20
147.8766409864
 30
0.0
 10
107.5216148789
 20
147.8767916949
 30
0.0
 10
107.5634781635
 20
147.8769559216
 30
0.0
 10
107.5963267942
 20
147.8772752717
 30
0.0
 10
107.6183192979
 20
147.8773724442
 30
0.0
 10
107.6307621503
 20
147.87783559
 30
0.0
 10
107.6372734063
 20
147.8776585714
 30
0.0
 10
107.6399898566
 20
147.8784444564
 30
0.0
 10
107.6425395131
 20
147.8779413281
 30
0.0
 10
107.6425430805
 20
147.878350107
 30
0.0
  0
SPLINE
  5
357
100
AcDbEntity
  8
0
100
AcDbSpline
 62
7
  6
CONTINUOUS
 70
0
 71
3
 72
11
 73
7
 74
0
 42
0.0000001
 43
0.0000001
 44
0.0000000001
 40
0.0
 40
0.0
 40
0.0
 40
0.0
 40
0.1711141794
 40
0.3959497261
 40
0.6804135398
 40
1.0
 40
1.0
 40
1.0
 40
1.0
 10
132.735339858
 20
160.1740656725
 30
0.0
 10
132.7353412851
 20
160.1998000875
 30
0.0
 10
132.7073131668
 20
160.2585848165
 30
0.0
 10
132.6194238366
 20
160.3153486257
 30
0.0
 10
132.4996782782
 20
160.3530977023
 30
0.0
 10
132.4084575147
 20
160.3615655514
 30
0.0
 10
132.3603938731
 20
160.3615655514
 30
0.0
  0
SPLINE
  5
358
100
AcDbEntity
  8
0
100
AcDbSpline
 62
7
  6
CONTINUOUS
 70
0
 71
3
 72
18
 73
14
 74
0
 42
0.0000001
 43
0.0000001
 44
0.0000000001
 40
0.0
 40
0.0
 40
0.0
 40
0.0
 40
0.0050870328
 40
0.019558353
 40
0.0433810541
 40
0.0764009688
 40
0.1183940132
 40
0.1688803564
 40
0.2931269883
 40
0.4445361298
 40
0.6174332676
 40
0.8053696165
 40
1.0
 40
1.0
 40
1.0
 40
1.0
 10
74.6603938731
 20
108.6327168304
 30
0.0
 10
74.6603938734
 20
108.6316142475
 30
0.0
 10
74.6539166498
 20
108.6319410165
 30
0.0
 10
74.6466617491
 20
108.6304057266
 30
0.0
 10
74.6300132626
 20
108.6305581884
 30
0.0
 10
74.6091099812
 20
108.6303676195
 30
0.0
 10
74.5817150621
 20
108.6309863162
 30
0.0
 10
74.5348453571
 20
108.6320187352
 30
0.0
 10
74.4640985566
 20
108.6330257556
 30
0.0
 10
74.3669047538
 20
108.631661671
 30
0.0
 10
74.255879747
 20
108.6302768478
 30
0.0
 10
74.1354844962
 20
108.6308630262
 30
0.0
 10
74.0525733601
 20
108.6320365498
 30
0.0
 10
74.0103938731
 20
108.6327142961
 30
0.0
  0
SPLINE
  5
359
100
AcDbEntity
  8
0
100
AcDbSpline
 62
7
  6
CONTINUOUS
 70
0
 71
3
 72
11
 73
7
 74
0
 42
0.0000001
 43
0.0000001
 44
0.0000000001
 40
0.0
 40
0.0
 40
0.0
 40
0.0
 40
0.1711141794
 40
0.3959497261
 40
0.6804135398
 40
1.0
 40
1.0
 40
1.0
 40
1.0
 10
132.735339858
 20
159.4240656725
 30
0.0
 10
132.7353412851
 20
159.4498000875
 30
0.0
 10
132.7073131668
 20
159.5085848165
 30
0.0
 10
132.6194238366
 20
159.5653486257
 30
0.0
 10
132.4996782782
 20
159.6030977023
 30
0.0
 10
132.4084575147
 20
159.6115655514
 30
0.0
 10
132.3603938731
 20
159.6115655514
 30
0.0
  0
SPLINE
  5
35A
100
AcDbEntity
  8
0
100
AcDbSpline
 62
7
  6
CONTINUOUS
 70
0
 71
3
 72
18
 73
14
 74
0
 42
0.0000001
 43
0.0000001
 44
0.0000000001
 40
0.0
 40
0.0
 40
0.0
 40
0.0
 40
0.1946326572
 40
0.3825812248
 40
0.5554863751
 40
0.7068938401
 40
0.8311287172
 40
0.8816074654
 40
0.9235957317
 40
0.9566121721
 40
0.9804309984
 40
0.9949010928
 40
1.0
 40
1.0
 40
1.0
 40
1.0
 10
63.0103938731
 20
108.6327154441
 30
0.0
 10
62.9682129415
 20
108.6320566281
 30
0.0
 10
62.8852970378
 20
108.6309106057
 30
0.0
 10
62.7648952947
 20
108.6303236363
 30
0.0
 10
62.6538641512
 20
108.6316681541
 30
0.0
 10
62.5566696752
 20
108.6330150195
 30
0.0
 10
62.4859268461
 20
108.6320019759
 30
0.0
 10
62.4390613061
 20
108.6309493076
 30
0.0
 10
62.411671317
 20
108.6303208554
 30
0.0
 10
62.3907659809
 20
108.6304948251
 30
0.0
 10
62.3741290148
 20
108.6303691389
 30
0.0
 10
62.3668560946
 20
108.6318783991
 30
0.0
 10
62.360393873
 20
108.6316099111
 30
0.0
 10
62.3603938731
 20
108.6327150848
 30
0.0
  0
SPLINE
  5
35B
100
AcDbEntity
  8
0
100
AcDbSpline
 62
7
  6
CONTINUOUS
 70
0
 71
3
 72
22
 73
18
 74
0
 42
0.0000001
 43
0.0000001
 44
0.0000000001
 40
0.0
 40
0.0
 40
0.0
 40
0.0
 40
0.195089712
 40
0.3826806195
 40
0.5555644474
 40
0.7070980624
 40
0.7729975061
 40
0.8314587602
 40
0.8819064168
 40
0.9238680437
 40
0.9569255802
 40
0.9700186577
 40
0.9807754604
 40
0.9891654527
 40
0.9951733476
 40
0.998787894
 40
1.0
 40
1.0
 40
1.0
 40
1.0
 10
175.7647576162
 20
199.6078550866
 30
0.0
 10
175.7650413216
 20
199.7379107227
 30
0.0
 10
175.7655440462
 20
199.9930230911
 30
0.0
 10
175.7661119472
 20
200.3633878908
 30
0.0
 10
175.7664678724
 20
200.704716731
 30
0.0
 10
175.7665842846
 20
200.964919603
 30
0.0
 10
175.7665486739
 20
201.1488448196
 30
0.0
 10
175.7664622848
 20
201.2653774674
 30
0.0
 10
175.7663291806
 20
201.3659630862
 30
0.0
 10
175.7661151329
 20
201.4495813491
 30
0.0
 10
175.7659464589
 20
201.5083756192
 30
0.0
 10
175.7656642889
 20
201.5462275909
 30
0.0
 10
175.7656578343
 20
201.5678984974
 30
0.0
 10
175.7651014683
 20
201.5842034223
 30
0.0
 10
175.76581478
 20
201.5972624345
 30
0.0
 10
175.7640910072
 20
201.6026317194
 30
0.0
 10
175.7655656321
 20
201.6077712513
 30
0.0
 10
175.7647576162
 20
201.6077783012
 30
0.0
  0
SPLINE
  5
35C
100
AcDbEntity
  8
0
100
AcDbSpline
 62
7
  6
CONTINUOUS
 70
0
 71
3
 72
9
 73
5
 74
0
 42
0.0000001
 43
0.0000001
 44
0.0000000001
 40
0.0
 40
0.0
 40
0.0
 40
0.0
 40
0.2537150264
 40
1.0
 40
1.0
 40
1.0
 40
1.0
 10
175.6172310576
 20
191.5093331303
 30
0.0
 10
175.6269799241
 20
191.5264848983
 30
0.0
 10
175.6644142134
 20
191.5946436538
 30
0.0
 10
175.6978019194
 20
191.6650387507
 30
0.0
 10
175.7201119351
 20
191.7186095375
 30
0.0
  0
SPLINE
  5
35D
100
AcDbEntity
  8
0
100
AcDbSpline
 62
7
  6
CONTINUOUS
 70
0
 71
3
 72
9
 73
5
 74
0
 42
0.0000001
 43
0.0000001
 44
0.0000000001
 40
0.0
 40
0.0
 40
0.0
 40
0.0
 40
0.2543261184
 40
1.0
 40
1.0
 40
1.0
 40
1.0
 10
175.7201119351
 20
191.7186095375
 30
0.0
 10
175.7314716803
 20
191.7458865459
 30
0.0
 10
175.7735036118
 20
191.8542098352
 30
0.0
 10
175.804598519
 20
191.9668309948
 30
0.0
 10
175.8207426811
 20
192.051946743
 30
0.0
  0
SPLINE
  5
35E
100
AcDbEntity
  8
0
100
AcDbSpline
 62
7
  6
CONTINUOUS
 70
0
 71
3
 72
11
 73
7
 74
0
 42
0.0000001
 43
0.0000001
 44
0.0000000001
 40
0.0
 40
0.0
 40
0.0
 40
0.0
 40
0.2184180824
 40
0.4686940542
 40
0.73868145
 40
1.0
 40
1.0
 40
1.0
 40
1.0
 10
176.2603938731
 20
194.948437888
 30
0.0
 10
176.2603938706
 20
195.0000589068
 30
0.0
 10
176.233815991
 20
195.1121557458
 30
0.0
 10
176.1194716178
 20
195.2511905767
 30
0.0
 10
175.9528041623
 20
195.3398305408
 30
0.0
 10
175.8265155659
 20
195.359936482
 30
0.0
 10
175.7647571351
 20
195.3603949949
 30
0.0
  0
SPLINE
  5
35F
100
AcDbEntity
  8
0
100
AcDbSpline
 62
7
  6
CONTINUOUS
 70
0
 71
3
 72
11
 73
7
 74
0
 42
0.0000001
 43
0.0000001
 44
0.0000000001
 40
0.0
 40
0.0
 40
0.0
 40
0.0
 40
0.2559051209
 40
0.5000006007
 40
0.7440953092
 40
1.0
 40
1.0
 40
1.0
 40
1.0
 10
175.99521307
 20
148.9023285902
 30
0.0
 10
175.740801243
 20
148.7722066173
 30
0.0
 10
175.2221141577
 20
148.5545281706
 30
0.0
 10
174.3895581396
 20
148.4279061985
 30
0.0
 10
173.5570097939
 20
148.554548565
 30
0.0
 10
173.0383163248
 20
148.772206836
 30
0.0
 10
172.7839049254
 20
148.9023285902
 30
0.0
  0
SPLINE
  5
360
100
AcDbEntity
  8
0
100
AcDbSpline
 62
7
  6
CONTINUOUS
 70
0
 71
3
 72
11
 73
7
 74
0
 42
0.0000001
 43
0.0000001
 44
0.0000000001
 40
0.0
 40
0.0
 40
0.0
 40
0.0
 40
0.2559051209
 40
0.5000006007
 40
0.7440953092
 40
1.0
 40
1.0
 40
1.0
 40
1.0
 10
164.7368828208
 20
148.9023285902
 30
0.0
 10
164.4824709938
 20
148.7722066173
 30
0.0
 10
163.9637839085
 20
148.5545281706
 30
0.0
 10
163.1312278904
 20
148.4279061985
 30
0.0
 10
162.2986795447
 20
148.554548565
 30
0.0
 10
161.7799860756
 20
148.772206836
 30
0.0
 10
161.5255746762
 20
148.9023285902
 30
0.0
  0
SPLINE
  5
361
100
AcDbEntity
  8
0
100
AcDbSpline
 62
7
  6
CONTINUOUS
 70
0
 71
3
 72
22
 73
18
 74
0
 42
0.0000001
 43
0.0000001
 44
0.0000000001
 40
0.0
 40
0.0
 40
0.0
 40
0.0
 40
0.1950875728
 40
0.3826765537
 40
0.5555587736
 40
0.7070912026
 40
0.7729902462
 40
0.8314512481
 40
0.8818988199
 40
0.9238605566
 40
0.9569184436
 40
0.9700118152
 40
0.9807690181
 40
0.9891595598
 40
0.9951682467
 40
0.9987841083
 40
1.0
 40
1.0
 40
1.0
 40
1.0
 10
175.7647576355
 20
188.6102786484
 30
0.0
 10
175.765041341
 20
188.7078197729
 30
0.0
 10
175.7655440612
 20
188.8991530028
 30
0.0
 10
175.7661119818
 20
189.1769253638
 30
0.0
 10
175.7664678439
 20
189.4329212316
 30
0.0
 10
175.766584423
 20
189.6280730876
 30
0.0
 10
175.7665485239
 20
189.7660169913
 30
0.0
 10
175.766462839
 20
189.8534166917
 30
0.0
 10
175.7663276156
 20
189.9288561918
 30
0.0
 10
175.766119565
 20
189.9915705129
 30
0.0
 10
175.7659369367
 20
190.0356663416
 30
0.0
 10
175.7656762808
 20
190.064056218
 30
0.0
 10
175.7656243481
 20
190.0803087033
 30
0.0
 10
175.7651858402
 20
190.0925407176
 30
0.0
 10
175.7656316842
 20
190.1023293448
 30
0.0
 10
175.7643779902
 20
190.106368736
 30
0.0
 10
175.7653655442
 20
190.1102155898
 30
0.0
 10
175.7647576355
 20
190.1102208937
 30
0.0
  0
SPLINE
  5
362
100
AcDbEntity
  8
0
100
AcDbSpline
 62
7
  6
CONTINUOUS
 70
0
 71
3
 72
22
 73
18
 74
0
 42
0.0000001
 43
0.0000001
 44
0.0000000001
 40
0.0
 40
0.0
 40
0.0
 40
0.0
 40
0.195090547
 40
0.3826817373
 40
0.555565317
 40
0.7070982041
 40
0.7729971317
 40
0.8314577886
 40
0.8819047894
 40
0.9238657349
 40
0.9569226179
 40
0.9700154107
 40
0.9807719854
 40
0.9891618511
 40
0.9951698159
 40
0.9987849114
 40
1.0
 40
1.0
 40
1.0
 40
1.0
 10
162.6759911029
 20
161.5477680807
 30
0.0
 10
162.578455052
 20
161.5469168749
 30
0.0
 10
162.3871327253
 20
161.5451933986
 30
0.0
 10
162.1093785686
 20
161.5425293996
 30
0.0
 10
161.8534024273
 20
161.539906731
 30
0.0
 10
161.6582680971
 20
161.5377527168
 30
0.0
 10
161.5203385537
 20
161.5361118494
 30
0.0
 10
161.4329492152
 20
161.535009283
 30
0.0
 10
161.3575197313
 20
161.5339963384
 30
0.0
 10
161.2948154615
 20
161.5330586338
 30
0.0
 10
161.2507271549
 20
161.5323629643
 30
0.0
 10
161.2223446686
 20
161.5317720274
 30
0.0
 10
161.2060945694
 20
161.5315309794
 30
0.0
 10
161.193871977
 20
161.5309502692
 30
0.0
 10
161.1840755821
 20
161.5312819845
 30
0.0
 10
161.180060339
 20
161.5299819177
 30
0.0
 10
161.1761952158
 20
161.5309238257
 30
0.0
 10
161.1762005173
 20
161.5303163389
 30
0.0
  0
SPLINE
  5
363
100
AcDbEntity
  8
0
100
AcDbSpline
 62
7
  6
CONTINUOUS
 70
0
 71
3
 72
22
 73
18
 74
0
 42
0.0000001
 43
0.0000001
 44
0.0000000001
 40
0.0
 40
0.0
 40
0.0
 40
0.0
 40
0.001215892
 40
0.0048317539
 40
0.0108404411
 40
0.019230983
 40
0.029988186
 40
0.0430815578
 40
0.0761394451
 40
0.118101182
 40
0.1685487539
 40
0.2270097557
 40
0.2929087992
 40
0.4444412277
 40
0.6173234471
 40
0.8049124275
 40
1.0
 40
1.0
 40
1.0
 40
1.0
 10
161.2560685164
 20
152.378350135
 30
0.0
 10
161.2560738215
 20
152.3777422259
 30
0.0
 10
161.2599206744
 20
152.3787297784
 30
0.0
 10
161.2639600705
 20
152.3774760844
 30
0.0
 10
161.2737487007
 20
152.3779219269
 30
0.0
 10
161.2859807212
 20
152.3774834185
 30
0.0
 10
161.3022332134
 20
152.3774314848
 30
0.0
 10
161.3306231024
 20
152.3771708279
 30
0.0
 10
161.37471895
 20
152.3769881985
 30
0.0
 10
161.4374332982
 20
152.3767801469
 30
0.0
 10
161.5128728305
 20
152.3766449228
 30
0.0
 10
161.6002725682
 20
152.3765592375
 30
0.0
 10
161.7382165305
 20
152.3765233382
 30
0.0
 10
161.9333684692
 20
152.3766399179
 30
0.0
 10
162.1893644454
 20
152.3769957818
 30
0.0
 10
162.4671369242
 20
152.3775637053
 30
0.0
 10
162.6584702353
 20
152.3780664281
 30
0.0
 10
162.7560114013
 20
152.378350135
 30
0.0
  0
SPLINE
  5
364
100
AcDbEntity
  8
0
100
AcDbSpline
 62
7
  6
CONTINUOUS
 70
0
 71
3
 72
11
 73
7
 74
0
 42
0.0000001
 43
0.0000001
 44
0.0000000001
 40
0.0
 40
0.0
 40
0.0
 40
0.0
 40
0.3195894163
 40
0.6040228235
 40
0.828870613
 40
1.0
 40
1.0
 40
1.0
 40
1.0
 10
132.3603938731
 20
159.6115655514
 30
0.0
 10
132.3123295732
 20
159.6115655514
 30
0.0
 10
132.2211120778
 20
159.6030993708
 30
0.0
 10
132.1013691695
 20
159.565352391
 30
0.0
 10
132.0134746587
 20
159.5085918474
 30
0.0
 10
131.9854493154
 20
159.4498022469
 30
0.0
 10
131.9854478882
 20
159.4240654303
 30
0.0
  0
SPLINE
  5
365
100
AcDbEntity
  8
0
100
AcDbSpline
 62
7
  6
CONTINUOUS
 70
0
 71
3
 72
22
 73
18
 74
0
 42
0.0000001
 43
0.0000001
 44
0.0000000001
 40
0.0
 40
0.0
 40
0.0
 40
0.0
 40
0.0012121091
 40
0.0048266648
 40
0.010834575
 40
0.0192245888
 40
0.0299814184
 40
0.0430745279
 40
0.0761321423
 40
0.1180938613
 40
0.1685416186
 40
0.227002975
 40
0.2929025149
 40
0.4444362686
 40
0.6173200998
 40
0.8049107949
 40
1.0
 40
1.0
 40
1.0
 40
1.0
 10
175.7647576162
 20
162.1576483947
 30
0.0
 10
175.7655656418
 20
162.1576554447
 30
0.0
 10
175.7640909962
 20
162.1627950389
 30
0.0
 10
175.7658147907
 20
162.1681643884
 30
0.0
 10
175.765101468
 20
162.1812235586
 30
0.0
 10
175.7656578399
 20
162.1975286799
 30
0.0
 10
175.7656642931
 20
162.2191998467
 30
0.0
 10
175.7659464648
 20
162.2570522698
 30
0.0
 10
175.7661151385
 20
162.3158472343
 30
0.0
 10
175.7663291861
 20
162.3994664736
 30
0.0
 10
175.766462289
 20
162.5000532466
 30
0.0
 10
175.7665486764
 20
162.6165872032
 30
0.0
 10
175.7665842835
 20
162.8005143954
 30
0.0
 10
175.7664678652
 20
163.0607199032
 30
0.0
 10
175.7661119305
 20
163.4020519456
 30
0.0
 10
175.7655440181
 20
163.7724197936
 30
0.0
 10
175.7650412847
 20
164.027534111
 30
0.0
 10
175.7647575746
 20
164.1575906472
 30
0.0
  0
SPLINE
  5
366
100
AcDbEntity
  8
0
100
AcDbSpline
 62
7
  6
CONTINUOUS
 70
0
 71
3
 72
8
 73
4
 74
0
 42
0.0000001
 43
0.0000001
 44
0.0000000001
 40
0.0
 40
0.0
 40
0.0
 40
0.0
 40
1.0
 40
1.0
 40
1.0
 40
1.0
 10
57.4886543475
 20
198.1461693152
 30
0.0
 10
57.5556406449
 20
198.3849004305
 30
0.0
 10
57.5926748883
 20
198.6347623257
 30
0.0
 10
57.5926748883
 20
198.8827133479
 30
0.0
  0
SPLINE
  5
367
100
AcDbEntity
  8
0
100
AcDbSpline
 62
7
  6
CONTINUOUS
 70
0
 71
3
 72
14
 73
10
 74
0
 42
0.0000001
 43
0.0000001
 44
0.0000000001
 40
0.0
 40
0.0
 40
0.0
 40
0.0
 40
0.0165444501
 40
0.0659469409
 40
0.1476197133
 40
0.2608066469
 40
0.4042954449
 40
0.5767580897
 40
1.0
 40
1.0
 40
1.0
 40
1.0
 10
73.0653824334
 20
123.6313909029
 30
0.0
 10
73.0733150168
 20
123.630393911
 30
0.0
 10
73.0027685281
 20
123.6328632938
 30
0.0
 10
72.9685932548
 20
123.6305897589
 30
0.0
 10
72.8295714249
 20
123.6319782407
 30
0.0
 10
72.6752136877
 20
123.6314669391
 30
0.0
 10
72.4643547976
 20
123.6318649829
 30
0.0
 10
72.1087776205
 20
123.6324178384
 30
0.0
 10
71.8201825754
 20
123.6328857155
 30
0.0
 10
71.6156539676
 20
123.6326821596
 30
0.0
  0
SPLINE
  5
368
100
AcDbEntity
  8
0
100
AcDbSpline
 62
7
  6
CONTINUOUS
 70
0
 71
3
 72
11
 73
7
 74
0
 42
0.0000001
 43
0.0000001
 44
0.0000000001
 40
0.0
 40
0.0
 40
0.0
 40
0.0
 40
0.1649316633
 40
0.3973797191
 40
0.6929793221
 40
1.0
 40
1.0
 40
1.0
 40
1.0
 10
175.764756202
 20
162.1576477528
 30
0.0
 10
175.7319270465
 20
162.1573610056
 30
0.0
 10
175.6537656551
 20
162.1217716163
 30
0.0
 10
175.5763053438
 20
162.0030105194
 30
0.0
 10
175.5272269198
 20
161.8429993281
 30
0.0
 10
175.5167812338
 20
161.7225483281
 30
0.0
 10
175.5169390167
 20
161.6614346507
 30
0.0
  0
SPLINE
  5
369
100
AcDbEntity
  8
0
100
AcDbSpline
 62
7
  6
CONTINUOUS
 70
0
 71
3
 72
9
 73
5
 74
0
 42
0.0000001
 43
0.0000001
 44
0.0000000001
 40
0.0
 40
0.0
 40
0.0
 40
0.0
 40
0.5000551817
 40
1.0
 40
1.0
 40
1.0
 40
1.0
 10
165.5490857284
 20
148.9023285902
 30
0.0
 10
166.0734132281
 20
148.7682418037
 30
0.0
 10
167.1358424584
 20
148.5496957245
 30
0.0
 10
168.2193122521
 20
148.4693158883
 30
0.0
 10
168.7603938731
 20
148.4693158883
 30
0.0
  0
SPLINE
  5
36A
100
AcDbEntity
  8
0
100
AcDbSpline
 62
7
  6
CONTINUOUS
 70
0
 71
3
 72
9
 73
5
 74
0
 42
0.0000001
 43
0.0000001
 44
0.0000000001
 40
0.0
 40
0.0
 40
0.0
 40
0.0
 40
0.2524334959
 40
1.0
 40
1.0
 40
1.0
 40
1.0
 10
176.2603938731
 20
162.6576287225
 30
0.0
 10
176.2603938731
 20
162.607157294
 30
0.0
 10
176.249087004
 20
162.4075314921
 30
0.0
 10
176.1912850268
 20
162.209319935
 30
0.0
 10
176.1204424074
 20
162.0777067534
 30
0.0
  0
SPLINE
  5
36B
100
AcDbEntity
  8
0
100
AcDbSpline
 62
7
  6
CONTINUOUS
 70
0
 71
3
 72
8
 73
4
 74
0
 42
0.0000001
 43
0.0000001
 44
0.0000000001
 40
0.0
 40
0.0
 40
0.0
 40
0.0
 40
1.0
 40
1.0
 40
1.0
 40
1.0
 10
176.1204424074
 20
162.0777067534
 30
0.0
 10
176.0700281523
 20
161.9840458953
 30
0.0
 10
176.0039752262
 20
161.8963848149
 30
0.0
 10
175.9240496893
 20
161.8262003293
 30
0.0
  0
SPLINE
  5
36C
100
AcDbEntity
  8
0
100
AcDbSpline
 62
7
  6
CONTINUOUS
 70
0
 71
3
 72
9
 73
5
 74
0
 42
0.0000001
 43
0.0000001
 44
0.0000000001
 40
0.0
 40
0.0
 40
0.0
 40
0.0
 40
0.48877583
 40
1.0
 40
1.0
 40
1.0
 40
1.0
 10
175.9240496893
 20
161.8262003293
 30
0.0
 10
175.8694103506
 20
161.7782202464
 30
0.0
 10
175.7427892839
 20
161.6950892892
 30
0.0
 10
175.5929905565
 20
161.6621516279
 30
0.0
 10
175.5169391543
 20
161.661394916
 30
0.0
  0
SPLINE
  5
36D
100
AcDbEntity
  8
0
100
AcDbSpline
 62
7
  6
CONTINUOUS
 70
0
 71
3
 72
9
 73
5
 74
0
 42
0.0000001
 43
0.0000001
 44
0.0000000001
 40
0.0
 40
0.0
 40
0.0
 40
0.0
 40
0.2343263036
 40
1.0
 40
1.0
 40
1.0
 40
1.0
 10
175.5169388055
 20
161.6614346005
 30
0.0
 10
175.4578454491
 20
161.6608474032
 30
0.0
 10
175.2056620704
 20
161.6582740628
 30
0.0
 10
174.953481028
 20
161.6554739289
 30
0.0
 10
174.7603938719
 20
161.6532272013
 30
0.0
  0
SPLINE
  5
36E
100
AcDbEntity
  8
0
100
AcDbSpline
 62
7
  6
CONTINUOUS
 70
0
 71
3
 72
22
 73
18
 74
0
 42
0.0000001
 43
0.0000001
 44
0.0000000001
 40
0.0
 40
0.0
 40
0.0
 40
0.0
 40
0.19508649
 40
0.382675981
 40
0.5555595877
 40
0.7070935849
 40
0.7729932816
 40
0.8314547572
 40
0.881902563
 40
0.9238642461
 40
0.9569217517
 40
0.9700148015
 40
0.9807715916
 40
0.9891616275
 40
0.9951697156
 40
0.9987848862
 40
1.0
 40
1.0
 40
1.0
 40
1.0
 10
174.760393873
 20
152.3783500991
 30
0.0
 10
174.857939038
 20
152.3783500991
 30
0.0
 10
175.0492808128
 20
152.3784038946
 30
0.0
 10
175.3270659305
 20
152.3786439318
 30
0.0
 10
175.5830744265
 20
152.3790327103
 30
0.0
 10
175.7782359386
 20
152.3794838098
 30
0.0
 10
175.9161864033
 20
152.3799209904
 30
0.0
 10
176.0035898882
 20
152.3802609302
 30
0.0
 10
176.0790322654
 20
152.380615623
 30
0.0
 10
176.1417481887
 20
152.3810061307
 30
0.0
 10
176.1858450547
 20
152.3813170599
 30
0.0
 10
176.2142343253
 20
152.3816603227
 30
0.0
 10
176.2304874709
 20
152.3817595612
 30
0.0
 10
176.2427158441
 20
152.3822336326
 30
0.0
 10
176.2525099177
 20
152.381816397
 30
0.0
 10
176.2565367423
 20
152.3830814991
 30
0.0
 10
176.2603938731
 20
152.382105798
 30
0.0
 10
176.2603938731
 20
152.3827133669
 30
0.0
  0
SPLINE
  5
36F
100
AcDbEntity
  8
0
100
AcDbSpline
 62
7
  6
CONTINUOUS
 70
0
 71
3
 72
9
 73
5
 74
0
 42
0.0000001
 43
0.0000001
 44
0.0000000001
 40
0.0
 40
0.0
 40
0.0
 40
0.0
 40
0.4999467089
 40
1.0
 40
1.0
 40
1.0
 40
1.0
 10
168.7603938731
 20
148.4693158883
 30
0.0
 10
169.3014808762
 20
148.4693158883
 30
0.0
 10
170.3849896297
 20
148.5493824282
 30
0.0
 10
171.4473732679
 20
148.7682414839
 30
0.0
 10
171.9717020178
 20
148.9023285902
 30
0.0
  0
SPLINE
  5
370
100
AcDbEntity
  8
0
100
AcDbSpline
 62
7
  6
CONTINUOUS
 70
0
 71
3
 72
19
 73
15
 74
0
 42
0.0000001
 43
0.0000001
 44
0.0000000001
 40
0.0
 40
0.0
 40
0.0
 40
0.0
 40
0.1919707689
 40
0.3771640589
 40
0.5479861172
 40
0.6989978913
 40
0.7653902804
 40
0.8248107209
 40
0.8765685686
 40
0.9200121708
 40
0.9545839487
 40
0.9797313322
 40
0.9949323643
 40
1.0
 40
1.0
 40
1.0
 40
1.0
 10
35.7603938731
 20
178.1800082557
 30
0.0
 10
35.8586996662
 20
178.1800082557
 30
0.0
 10
36.0519091161
 20
178.1719814385
 30
0.0
 10
36.3308956956
 20
178.1396171728
 30
0.0
 10
36.5862077813
 20
178.091440967
 30
0.0
 10
36.7792626724
 20
178.0434793478
 30
0.0
 10
36.9154825023
 20
178.0043835569
 30
0.0
 10
37.0024681355
 20
177.9774588089
 30
0.0
 10
37.0773969795
 20
177.9530152427
 30
0.0
 10
37.1411832244
 20
177.9308862251
 30
0.0
 10
37.1885424808
 20
177.9147708873
 30
0.0
 10
37.2301529268
 20
177.8978851423
 30
0.0
 10
37.2420395409
 20
177.8963064606
 30
0.0
 10
37.2620687828
 20
177.8859425659
 30
0.0
 10
37.2602741968
 20
177.887817095
 30
0.0
  0
SPLINE
  5
371
100
AcDbEntity
  8
0
100
AcDbSpline
 62
7
  6
CONTINUOUS
 70
0
 71
3
 72
11
 73
7
 74
0
 42
0.0000001
 43
0.0000001
 44
0.0000000001
 40
0.0
 40
0.0
 40
0.0
 40
0.0
 40
0.3811635754
 40
0.6980608964
 40
0.90698622
 40
1.0
 40
1.0
 40
1.0
 40
1.0
 10
43.5103940527
 20
192.6942758666
 30
0.0
 10
43.4774374399
 20
192.6942758666
 30
0.0
 10
43.4177624683
 20
192.6962725884
 30
0.0
 10
43.3373338449
 20
192.7067377861
 30
0.0
 10
43.2900996562
 20
192.7173843338
 30
0.0
 10
43.2603938731
 20
192.7325270532
 30
0.0
 10
43.2603938731
 20
192.7405693199
 30
0.0
  0
SPLINE
  5
372
100
AcDbEntity
  8
0
100
AcDbSpline
 62
7
  6
CONTINUOUS
 70
0
 71
3
 72
21
 73
17
 74
0
 42
0.0000001
 43
0.0000001
 44
0.0000000001
 40
0.0
 40
0.0
 40
0.0
 40
0.0
 40
0.1950831517
 40
0.3826665743
 40
0.555543101
 40
0.7070706813
 40
0.7729679136
 40
0.8314276604
 40
0.8818746503
 40
0.923836604
 40
0.9568956808
 40
0.9807486994
 40
0.9891411839
 40
0.9951525904
 40
0.9987727464
 40
1.0
 40
1.0
 40
1.0
 40
1.0
 10
91.2216800441
 20
147.878350118
 30
0.0
 10
91.2867032029
 20
147.8777827559
 30
0.0
 10
91.4142502304
 20
147.8767236483
 30
0.0
 10
91.5994203807
 20
147.8753477512
 30
0.0
 10
91.7700734726
 20
147.8742478172
 30
0.0
 10
91.9001691435
 20
147.8735623991
 30
0.0
 10
91.9921250351
 20
147.8731991699
 30
0.0
 10
92.0503957391
 20
147.8730254397
 30
0.0
 10
92.1006691588
 20
147.8729567653
 30
0.0
 10
92.1425315378
 20
147.8729382871
 30
0.0
 10
92.1753813281
 20
147.8731142784
 30
0.0
 10
92.1973730299
 20
147.8731153911
 30
0.0
 10
92.2098195596
 20
147.8735242572
 30
0.0
 10
92.2163281938
 20
147.8733186476
 30
0.0
 10
92.2190526852
 20
147.8740929973
 30
0.0
 10
92.2215967557
 20
147.8735781732
 30
0.0
 10
92.221603895
 20
147.8739871824
 30
0.0
  0
LINE
  5
373
100
AcDbEntity
  8
0
100
AcDbLine
 62
7
  6
CONTINUOUS
 10
21.4203938695
 20
178.2232017724
 11
21.4603938731
 21
178.1800082557
  0
SPLINE
  5
374
100
AcDbEntity
  8
0
100
AcDbSpline
 62
7
  6
CONTINUOUS
 70
0
 71
3
 72
8
 73
4
 74
0
 42
0.0000001
 43
0.0000001
 44
0.0000000001
 40
0.0
 40
0.0
 40
0.0
 40
0.0
 40
1.0
 40
1.0
 40
1.0
 40
1.0
 10
57.5926748883
 20
164.8827133479
 30
0.0
 10
57.5926748883
 20
165.1306643702
 30
0.0
 10
57.5556394619
 20
165.3805259334
 30
0.0
 10
57.4886543475
 20
165.6192573806
 30
0.0
  0
SPLINE
  5
375
100
AcDbEntity
  8
0
100
AcDbSpline
 62
7
  6
CONTINUOUS
 70
0
 71
3
 72
21
 73
17
 74
0
 42
0.0000001
 43
0.0000001
 44
0.0000000001
 40
0.0
 40
0.0
 40
0.0
 40
0.0
 40
0.0012263876
 40
0.0048457589
 40
0.0108564772
 40
0.019248372
 40
0.0431005055
 40
0.0761590751
 40
0.1181208758
 40
0.1685680274
 40
0.227028204
 40
0.2929260737
 40
0.4444552769
 40
0.6173333573
 40
0.8049175628
 40
1.0
 40
1.0
 40
1.0
 40
1.0
 10
79.8782446657
 20
147.878350107
 30
0.0
 10
79.8782482331
 20
147.8779413281
 30
0.0
 10
79.8807978896
 20
147.8784444564
 30
0.0
 10
79.8835143399
 20
147.8776585714
 30
0.0
 10
79.8900255959
 20
147.87783559
 30
0.0
 10
79.9024684483
 20
147.8773724442
 30
0.0
 10
79.924460952
 20
147.8772752717
 30
0.0
 10
79.9573095827
 20
147.8769559216
 30
0.0
 10
79.9991728673
 20
147.8767916949
 30
0.0
 10
80.0494476228
 20
147.8766409864
 30
0.0
 10
80.107720628
 20
147.8765604475
 30
0.0
 10
80.1996807449
 20
147.8765224412
 30
0.0
 10
80.3297831635
 20
147.8766402415
 30
0.0
 10
80.5004456257
 20
147.8769956441
 30
0.0
 10
80.6856258507
 20
147.8775637106
 30
0.0
 10
80.8131799533
 20
147.8780664
 30
0.0
 10
80.8782065889
 20
147.878350107
 30
0.0
  0
SPLINE
  5
376
100
AcDbEntity
  8
0
100
AcDbSpline
 62
7
  6
CONTINUOUS
 70
0
 71
3
 72
22
 73
18
 74
0
 42
0.0000001
 43
0.0000001
 44
0.0000000001
 40
0.0
 40
0.0
 40
0.0
 40
0.0
 40
0.001212106
 40
0.0048266524
 40
0.0108345473
 40
0.0192245397
 40
0.0299813424
 40
0.0430744199
 40
0.0761319564
 40
0.1180935833
 40
0.1685412399
 40
0.227002494
 40
0.2929019378
 40
0.4444355527
 40
0.6173193805
 40
0.8049102881
 40
1.0
 40
1.0
 40
1.0
 40
1.0
 10
175.7647576162
 20
169.1576483947
 30
0.0
 10
175.7655656321
 20
169.1576554447
 30
0.0
 10
175.7640910072
 20
169.1627949763
 30
0.0
 10
175.76581478
 20
169.1681642615
 30
0.0
 10
175.7651014683
 20
169.1812232736
 30
0.0
 10
175.7656578343
 20
169.1975281986
 30
0.0
 10
175.7656642889
 20
169.2191991051
 30
0.0
 10
175.7659464589
 20
169.2570510769
 30
0.0
 10
175.7661151329
 20
169.315845347
 30
0.0
 10
175.7663291806
 20
169.3994636099
 30
0.0
 10
175.7664622848
 20
169.5000492287
 30
0.0
 10
175.7665486739
 20
169.6165818765
 30
0.0
 10
175.7665842846
 20
169.8005070931
 30
0.0
 10
175.7664678724
 20
170.0607099651
 30
0.0
 10
175.7661119472
 20
170.4020388052
 30
0.0
 10
175.7655440462
 20
170.7724036048
 30
0.0
 10
175.7650413216
 20
171.0275159732
 30
0.0
 10
175.7647576162
 20
171.1575716092
 30
0.0
  0
ELLIPSE
  5
377
100
AcDbEntity
  8
0
100
AcDbEllipse
 62
7
  6
CONTINUOUS
 10
54.971292258
 20
199.8827133479
 30
0.0
 11
3.4641016151
 21
0.0
 31
0.0
 40
0.5773502692
 41
0.0
 42
0.7125029672
  0
ELLIPSE
  5
378
100
AcDbEntity
  8
0
100
AcDbEllipse
 62
7
  6
CONTINUOUS
 10
54.971292258
 20
163.8827133479
 30
0.0
 11
3.4641016151
 21
-0.0
 31
0.0
 40
0.5773502692
 41
-0.7125029672
 42
0.0
  0
ENDSEC
  0
SECTION
  2
OBJECTS
  0
DICTIONARY
  5
C
100
AcDbDictionary
280
0
281
1
  3
ACAD_GROUP
350
D
  3
ACAD_MLINESTYLE
350
17
  3
ACAD_LAYOUT
350
1A
  3
ACAD_PLOTSETTINGS
350
19
  3
ACAD_PLOTSTYLENAME
350
E
  0
DICTIONARY
  5
D
102
{ACAD_REACTORS
330
C
102
}
100
AcDbDictionary
280
0
281
1
  0
ACDBDICTIONARYWDFLT
  5
E
102
{ACAD_REACTORS
330
C
102
}
100
AcDbDictionary
281
1
  3
Normal
350
F
100
AcDbDictionaryWithDefault
340
F
  0
DICTIONARY
  5
17
102
{ACAD_REACTORS
330
C
102
}
100
AcDbDictionary
280
0
281
1
  3
Standard
350
18
  0
DICTIONARY
  5
19
102
{ACAD_REACTORS
330
C
102
}
100
AcDbDictionary
281
1
  0
DICTIONARY
  5
1A
102
{ACAD_REACTORS
330
C
102
}
100
AcDbDictionary
281
1
  3
Model
350
379
  3
Layout1
350
37A
  0
ACDBPLACEHOLDER
  5
F
102
{ACAD_REACTORS
330
E
102
}
  0
MLINESTYLE
  5
18
102
{ACAD_REACTORS
330
17
102
}
100
AcDbMlineStyle
  2
STANDARD
 70
0
  3

 62
256
 51
90.0
 52
90.0
 71
2
 49
0.5
 62
256
  6
BYLAYER
 49
-0.5
 62
256
  6
BYLAYER
  0
LAYOUT
  5
379
102
{ACAD_REACTORS
330
1A
102
}
100
AcDbPlotSettings
  1

  2
none_device
  4

  6

 40
0.0
 41
0.0
 42
0.0
 43
0.0
 44
210.0
 45
297.0
 46
0.0
 47
0.0
 48
0.0
 49
0.0
140
0.0
141
0.0
142
1.0
143
1.0
 70
1024
 72
1
 73
0
 74
0
  7

 75
0
147
1.0
148
0.0
149
0.0
100
AcDbLayout
  1
Model
 70
0
 71
0
 10
0.0
 20
0.0
 11
210.0
 21
297.0
 12
0.0
 22
0.0
 32
0.0
 14
0.0
 24
0.0
 34
0.0
 15
0.0
 25
0.0
 35
0.0
146
0.0
 13
0.0
 23
0.0
 33
0.0
 16
1.0
 26
0.0
 36
0.0
 17
0.0
 27
1.0
 37
0.0
 76
0
330
210
345
0
346
0
  0
LAYOUT
  5
37A
102
{ACAD_REACTORS
330
1A
102
}
100
AcDbPlotSettings
  1

  2
none_device
  4

  6

 40
0.0
 41
0.0
 42
0.0
 43
0.0
 44
210.0
 45
297.0
 46
0.0
 47
0.0
 48
0.0
 49
0.0
140
0.0
141
0.0
142
1.0
143
1.0
 70
0
 72
1
 73
0
 74
0
  7

 75
0
147
1.0
148
0.0
149
0.0
100
AcDbLayout
  1
Layout1
 70
0
 71
1
 10
0.0
 20
0.0
 11
210.0
 21
297.0
 12
0.0
 22
0.0
 32
0.0
 14
0.0
 24
0.0
 34
0.0
 15
0.0
 25
0.0
 35
0.0
146
0.0
 13
0.0
 23
0.0
 33
0.0
 16
1.0
 26
0.0
 36
0.0
 17
0.0
 27
1.0
 37
0.0
 76
0
330
211
345
0
346
0
  0
ENDSEC
  0
EOF
