999
DXF file: Y:\001_SCHNEIDER_PARIS\78_2020_429_Grey Project M580\TRAVAIL LUCAS SANTANA G3\CAD3D\2D-Views\BMXP3420102_2D-Views\BMXP3420102_2D-LEFT.dxf
999
Pro/ENGINEER 2018260 by Parametric Technology Corporation
  0
SECTION
  2
HEADER
  9
$ACADVER
  1
AC1027
  9
$DWGCODEPAGE
  3
ANSI_1252
  9
$EXTMAX
 10
558.8
 20
431.8
 30
0.0
  9
$EXTMIN
 10
0.0
 20
0.0
 30
0.0
  9
$LIMMIN
 10
0.0
 20
0.0
  9
$LIMMAX
 10
558.8
 20
431.8
  9
$VIEWCTR
 10
279.4
 20
215.9
  9
$VIEWSIZE
 40
431.8
  9
$CLAYER
  8
0
  9
$LTSCALE
 40
30.734
  9
$CELTYPE
  6
BYLAYER
  9
$DIMSCALE
 40
1.0
  9
$DIMASZ
 40
3.5
  9
$DIMEXO
 40
1.0
  9
$DIMDLI
 40
21.2344
  9
$DIMEXE
 40
3.0
  9
$DIMCEN
 40
5.0292
  9
$DIMLFAC
 40
1.0
  9
$DIMBLK
  1
_FILLED
  9
$DIMALT
 70
0
  9
$DIMALTF
 40
0.0393700787
  9
$DIMTXT
 40
4.0
  9
$DIMTOL
 70
1
  9
$DIMLIM
 70
0
  9
$DIMTFAC
 40
1.0
  9
$DIMTP
 40
0.0001
  9
$DIMTM
 40
0.0001
  9
$DIMGAP
 40
0.625
  9
$DIMDSEP
 70
46
  9
$AUNITS
 70
0
  9
$PDMODE
 70
0
  9
$PDSIZE
 40
0.01
  9
$HANDSEED
  5
2BE
  9
$TILEMODE
 70
1
  9
$MEASUREMENT
 70
1
  9
$INSUNITS
 70
4
  0
ENDSEC
  0
SECTION
  2
CLASSES
  0
CLASS
  1
ACDBDICTIONARYWDFLT
  2
AcDbDictionaryWithDefault
  3
AutoCAD 2000
 90
0
 91
1
280
0
281
0
  0
CLASS
  1
ACDBPLACEHOLDER
  2
AcDbPlaceHolder
  3
AutoCAD 2000
 90
0
 91
1
280
0
281
0
  0
CLASS
  1
LAYOUT
  2
AcDbLayout
  3
AutoCAD 2000
 90
0
 91
0
280
0
281
0
  0
ENDSEC
  0
SECTION
  2
TABLES
  0
TABLE
  2
VPORT
  5
8
100
AcDbSymbolTable
 70
2
  0
VPORT
  5
1F4
100
AcDbSymbolTableRecord
100
AcDbViewportTableRecord
  2
*ACTIVE
 70
0
 10
0.0
 20
0.0
 11
1.0
 21
1.0
 12
279.4
 22
215.9
 13
0.0
 23
0.0
 14
1.0
 24
1.0
 15
0.0
 25
0.0
 16
0.0
 26
0.0
 36
1.0
 17
0.0
 27
0.0
 37
0.0
 40
431.8
 41
1.2941176471
 42
50.0
 43
0.0
 44
0.0
 50
0.0
 51
0.0
 71
0
 72
100
 73
1
 74
1
 75
0
 76
0
 77
0
 78
0
  0
ENDTAB
  0
TABLE
  2
LTYPE
  5
5
100
AcDbSymbolTable
 70
6
  0
LTYPE
  5
14
100
AcDbSymbolTableRecord
100
AcDbLinetypeTableRecord
  2
BYBLOCK
 70
0
  3

 72
65
 73
0
 40
0.0
  0
LTYPE
  5
15
100
AcDbSymbolTableRecord
100
AcDbLinetypeTableRecord
  2
BYLAYER
 70
0
  3

 72
65
 73
0
 40
0.0
  0
LTYPE
  5
16
100
AcDbSymbolTableRecord
100
AcDbLinetypeTableRecord
  2
CONTINUOUS
 70
64
  3
Solid line
 72
65
 73
0
 40
0.0
  0
LTYPE
  5
1F5
100
AcDbSymbolTableRecord
100
AcDbLinetypeTableRecord
  2
CENTER
 70
64
  3
____ _ ____ _ ____ _ ____ _ ____ _ ____ _ ____
 72
65
 73
4
 40
0.6
 49
0.375
 74
0
 49
-0.075
 74
0
 49
0.075
 74
0
 49
-0.075
 74
0
  0
LTYPE
  5
1F6
100
AcDbSymbolTableRecord
100
AcDbLinetypeTableRecord
  2
HIDDEN
 70
64
  3
- - - - - - - - - - - - - - - - - - - -
 72
65
 73
2
 40
0.2
 49
0.1
 74
0
 49
-0.1
 74
0
  0
LTYPE
  5
1F7
100
AcDbSymbolTableRecord
100
AcDbLinetypeTableRecord
  2
PHANTOM
 70
64
  3
_____ _ _ _____ _ _ _____ _ _ _____
 72
65
 73
6
 40
0.8
 49
0.45
 74
0
 49
-0.05
 74
0
 49
0.1
 74
0
 49
-0.05
 74
0
 49
0.1
 74
0
 49
-0.05
 74
0
  0
LTYPE
  5
1F8
100
AcDbSymbolTableRecord
100
AcDbLinetypeTableRecord
  2
DOT
 70
64
  3
. . . . . . . . . . . . . . . . . . . .
 72
65
 73
2
 40
0.2
 49
0.1
 74
0
 49
-0.1
 74
0
  0
LTYPE
  5
1F9
100
AcDbSymbolTableRecord
100
AcDbLinetypeTableRecord
  2
DASHED
 70
64
  3
- - - - - - - - - - - - - - - - - - - -
 72
65
 73
2
 40
0.2
 49
0.1
 74
0
 49
-0.1
 74
0
  0
ENDTAB
  0
TABLE
  2
LAYER
  5
2
100
AcDbSymbolTable
 70
36
  0
LAYER
  5
10
100
AcDbSymbolTableRecord
100
AcDbLayerTableRecord
  2
0
 70
0
 62
7
  6
CONTINUOUS
370
-3
390
F
  0
LAYER
  5
1FA
100
AcDbSymbolTableRecord
100
AcDbLayerTableRecord
  2
DEFAULT_1
 70
0
 62
7
  6
CENTER
370
-3
390
F
  0
LAYER
  5
1FB
100
AcDbSymbolTableRecord
100
AcDbLayerTableRecord
  2
DEFAULT_2
 70
0
 62
8
  6
HIDDEN
370
-3
390
F
  0
LAYER
  5
1FC
100
AcDbSymbolTableRecord
100
AcDbLayerTableRecord
  2
DEFAULT_3
 70
0
 62
7
  6
PHANTOM
370
-3
390
F
  0
LAYER
  5
1FD
100
AcDbSymbolTableRecord
100
AcDbLayerTableRecord
  2
01_ALL_DTM_PLN
 70
0
 62
7
  6
CONTINUOUS
370
-3
390
F
  0
LAYER
  5
1FE
100
AcDbSymbolTableRecord
100
AcDbLayerTableRecord
  2
01__ASM_ALL_DTM_PLN
 70
0
 62
7
  6
CONTINUOUS
370
-3
390
F
  0
LAYER
  5
1FF
100
AcDbSymbolTableRecord
100
AcDbLayerTableRecord
  2
01__ASM_DEF_DTM_PLN
 70
0
 62
7
  6
CONTINUOUS
370
-3
390
F
  0
LAYER
  5
200
100
AcDbSymbolTableRecord
100
AcDbLayerTableRecord
  2
01___PRT_ALL_DTM_PLN
 70
0
 62
7
  6
CONTINUOUS
370
-3
390
F
  0
LAYER
  5
201
100
AcDbSymbolTableRecord
100
AcDbLayerTableRecord
  2
01___PRT_DEF_DTM_PLN
 70
0
 62
7
  6
CONTINUOUS
370
-3
390
F
  0
LAYER
  5
202
100
AcDbSymbolTableRecord
100
AcDbLayerTableRecord
  2
02_ALL_AXES
 70
0
 62
7
  6
CONTINUOUS
370
-3
390
F
  0
LAYER
  5
203
100
AcDbSymbolTableRecord
100
AcDbLayerTableRecord
  2
02__ASM_ALL_AXES
 70
0
 62
7
  6
CONTINUOUS
370
-3
390
F
  0
LAYER
  5
204
100
AcDbSymbolTableRecord
100
AcDbLayerTableRecord
  2
02___PRT_ALL_AXES
 70
0
 62
7
  6
CONTINUOUS
370
-3
390
F
  0
LAYER
  5
205
100
AcDbSymbolTableRecord
100
AcDbLayerTableRecord
  2
03_ALL_CURVES
 70
0
 62
7
  6
CONTINUOUS
370
-3
390
F
  0
LAYER
  5
206
100
AcDbSymbolTableRecord
100
AcDbLayerTableRecord
  2
03__ASM_ALL_CURVES
 70
0
 62
7
  6
CONTINUOUS
370
-3
390
F
  0
LAYER
  5
207
100
AcDbSymbolTableRecord
100
AcDbLayerTableRecord
  2
03___PRT_ALL_CURVES
 70
0
 62
7
  6
CONTINUOUS
370
-3
390
F
  0
LAYER
  5
208
100
AcDbSymbolTableRecord
100
AcDbLayerTableRecord
  2
04_ALL_DTM_PNT
 70
0
 62
7
  6
CONTINUOUS
370
-3
390
F
  0
LAYER
  5
209
100
AcDbSymbolTableRecord
100
AcDbLayerTableRecord
  2
04__ASM_ALL_DTM_PNT
 70
0
 62
7
  6
CONTINUOUS
370
-3
390
F
  0
LAYER
  5
20A
100
AcDbSymbolTableRecord
100
AcDbLayerTableRecord
  2
04___PRT_ALL_DTM_PNT
 70
0
 62
7
  6
CONTINUOUS
370
-3
390
F
  0
LAYER
  5
20B
100
AcDbSymbolTableRecord
100
AcDbLayerTableRecord
  2
05_ALL_DTM_CSYS
 70
0
 62
7
  6
CONTINUOUS
370
-3
390
F
  0
LAYER
  5
20C
100
AcDbSymbolTableRecord
100
AcDbLayerTableRecord
  2
05__ASM_ALL_DTM_CSYS
 70
0
 62
7
  6
CONTINUOUS
370
-3
390
F
  0
LAYER
  5
20D
100
AcDbSymbolTableRecord
100
AcDbLayerTableRecord
  2
05__ASM_DEF_DTM_CSYS
 70
0
 62
7
  6
CONTINUOUS
370
-3
390
F
  0
LAYER
  5
20E
100
AcDbSymbolTableRecord
100
AcDbLayerTableRecord
  2
05___PRT_ALL_DTM_CSYS
 70
0
 62
7
  6
CONTINUOUS
370
-3
390
F
  0
LAYER
  5
20F
100
AcDbSymbolTableRecord
100
AcDbLayerTableRecord
  2
05___PRT_DEF_DTM_CSYS
 70
0
 62
7
  6
CONTINUOUS
370
-3
390
F
  0
LAYER
  5
210
100
AcDbSymbolTableRecord
100
AcDbLayerTableRecord
  2
06_ALL_SURFS
 70
0
 62
7
  6
CONTINUOUS
370
-3
390
F
  0
LAYER
  5
211
100
AcDbSymbolTableRecord
100
AcDbLayerTableRecord
  2
06__ASM_ALL_SURFS
 70
0
 62
7
  6
CONTINUOUS
370
-3
390
F
  0
LAYER
  5
212
100
AcDbSymbolTableRecord
100
AcDbLayerTableRecord
  2
06___PRT_ALL_SURFS
 70
0
 62
7
  6
CONTINUOUS
370
-3
390
F
  0
LAYER
  5
213
100
AcDbSymbolTableRecord
100
AcDbLayerTableRecord
  2
07__ASM_ALL_SKELETONS
 70
0
 62
7
  6
CONTINUOUS
370
-3
390
F
  0
ENDTAB
  0
TABLE
  2
STYLE
  5
3
100
AcDbSymbolTable
 70
1
  0
STYLE
  5
11
100
AcDbSymbolTableRecord
100
AcDbTextStyleTableRecord
  2
STANDARD
 70
0
 40
0.0
 41
0.6
 50
0.0
 71
0
 42
0.2
  3
txt
  4

  0
STYLE
  5
214
100
AcDbSymbolTableRecord
100
AcDbTextStyleTableRecord
  2
TEXTSTYLE_1
 70
0
 40
0.0
 41
0.8
 50
0.0
 71
0
 42
0.2
  3
gdt
  4

  0
ENDTAB
  0
TABLE
  2
VIEW
  5
6
100
AcDbSymbolTable
 70
0
  0
ENDTAB
  0
TABLE
  2
UCS
  5
7
100
AcDbSymbolTable
 70
0
  0
ENDTAB
  0
TABLE
  2
APPID
  5
9
100
AcDbSymbolTable
 70
1
  0
APPID
  5
215
100
AcDbSymbolTableRecord
100
AcDbRegAppTableRecord
  2
ACAD
 70
0
  0
ENDTAB
  0
TABLE
  2
BLOCK_RECORD
  5
1
100
AcDbSymbolTable
 70
0
  0
BLOCK_RECORD
  5
216
100
AcDbSymbolTableRecord
100
AcDbBlockTableRecord
  2
*Model_Space
  0
BLOCK_RECORD
  5
217
100
AcDbSymbolTableRecord
100
AcDbBlockTableRecord
  2
*Paper_Space
  0
BLOCK_RECORD
  5
218
100
AcDbSymbolTableRecord
100
AcDbBlockTableRecord
  2
_FILLED
  0
ENDTAB
  0
TABLE
  2
DIMSTYLE
  5
A
100
AcDbSymbolTable
 70
1
100
AcDbDimStyleTable
 71
0
  0
DIMSTYLE
105
219
100
AcDbSymbolTableRecord
100
AcDbDimStyleTableRecord
  2
STANDARD
 70
0
  3

  4

 40
1.0
 41
3.5
 42
1.0
 43
0.38
 44
3.0
 45
0.0
 46
0.0
 47
0.0001
 48
0.0001
140
4.0
141
0.09
142
0.0
143
25.4
144
1.0
145
0.0
146
1.0
147
0.625
 71
1.0
 72
0.0
 73
0
 74
0
 75
0
 76
0
 77
1
 78
8
 79
2
170
0
171
3
172
0
173
0
174
0
175
0
176
0
177
0
178
0
270
2
179
4
271
4
272
4
273
2
274
2
275
0
280
0
281
0
282
0
283
1
284
8
285
0
286
0
287
3
288
0
340
11
278
46
341
218
342
218
343
218
344
218
  0
ENDTAB
  0
ENDSEC
  0
SECTION
  2
BLOCKS
  0
BLOCK
  5
20
100
AcDbEntity
  8
0
100
AcDbBlockBegin
  2
*Model_Space
 70
0
 10
0.0
 20
0.0
 30
0.0
  3
*Model_Space
  1

  0
ENDBLK
  5
21
100
AcDbEntity
  8
0
100
AcDbBlockEnd
  0
BLOCK
  5
1C
100
AcDbEntity
  8
0
100
AcDbBlockBegin
  2
*Paper_Space
 70
0
 10
0.0
 20
0.0
 30
0.0
  3
*Paper_Space
  1

  0
ENDBLK
  5
1D
100
AcDbEntity
  8
0
100
AcDbBlockEnd
  0
BLOCK
  5
21A
100
AcDbEntity
  8
0
100
AcDbBlockBegin
  2
_FILLED
 70
64
 10
0.0
 20
0.0
  3
_FILLED
  1

  0
SOLID
  5
21B
100
AcDbEntity
  8
0
  6
BYBLOCK
 62
0
100
AcDbTrace
 10
0.0
 20
0.0
 11
-1.0
 21
0.2857142857
 12
-1.0
 22
-0.2857142857
 13
-1.0
 23
-0.2857142857
  0
ENDBLK
  5
21C
100
AcDbEntity
  8
0
  6
BYBLOCK
 62
0
100
AcDbBlockEnd
  0
ENDSEC
  0
SECTION
  2
ENTITIES
  0
LINE
  5
21D
100
AcDbEntity
  8
0
100
AcDbLine
 62
7
  6
CONTINUOUS
 10
111.2221218188
 20
303.2291533258
 11
113.6221218188
 21
304.3791533258
  0
LINE
  5
21E
100
AcDbEntity
  8
0
100
AcDbLine
 62
7
  6
CONTINUOUS
 10
121.0821218188
 20
301.1391533258
 11
120.8221218188
 21
300.8791533258
  0
LINE
  5
21F
100
AcDbEntity
  8
0
100
AcDbLine
 62
7
  6
CONTINUOUS
 10
128.0054904858
 20
303.3791533258
 11
128.8715158896
 21
303.8791533258
  0
LINE
  5
220
100
AcDbEntity
  8
0
100
AcDbLine
 62
7
  6
CONTINUOUS
 10
111.2221218188
 20
303.2291498874
 11
111.2221218188
 21
302.0291567642
  0
LINE
  5
221
100
AcDbEntity
  8
0
100
AcDbLine
 62
7
  6
CONTINUOUS
 10
132.0458316703
 20
203.8791533258
 11
129.5054904858
 21
208.2791533258
  0
LINE
  5
222
100
AcDbEntity
  8
0
100
AcDbLine
 62
7
  6
CONTINUOUS
 10
113.6221218188
 20
304.3791533258
 11
113.6221218188
 21
300.8791533258
  0
LINE
  5
223
100
AcDbEntity
  8
0
100
AcDbLine
 62
7
  6
CONTINUOUS
 10
196.5054904858
 20
203.8791533258
 11
132.0458316703
 21
203.8791533258
  0
LINE
  5
224
100
AcDbEntity
  8
0
100
AcDbLine
 62
7
  6
CONTINUOUS
 10
196.5054904858
 20
203.8791533258
 11
215.5054904858
 21
203.7133428377
  0
LINE
  5
225
100
AcDbEntity
  8
0
100
AcDbLine
 62
7
  6
CONTINUOUS
 10
120.8221218188
 20
300.8791533258
 11
120.8221218188
 21
304.3791533258
  0
LINE
  5
226
100
AcDbEntity
  8
0
100
AcDbLine
 62
7
  6
CONTINUOUS
 10
121.0821218188
 20
304.1191533258
 11
121.0821218188
 21
301.1391533258
  0
LINE
  5
227
100
AcDbEntity
  8
0
100
AcDbLine
 62
7
  6
CONTINUOUS
 10
126.5775500173
 20
206.2791533258
 11
123.5054904858
 21
206.2791533258
  0
LINE
  5
228
100
AcDbEntity
  8
0
100
AcDbLine
 62
7
  6
CONTINUOUS
 10
129.5054904858
 20
208.2791533258
 11
127.3054904858
 21
208.2791533258
  0
LINE
  5
229
100
AcDbEntity
  8
0
100
AcDbLine
 62
7
  6
CONTINUOUS
 10
214.2054904858
 20
208.8791533258
 11
211.7054904858
 21
208.8791533258
  0
LINE
  5
22A
100
AcDbEntity
  8
0
100
AcDbLine
 62
7
  6
CONTINUOUS
 10
123.5054904858
 20
206.2791533258
 11
123.5054904858
 21
209.2791533258
  0
LINE
  5
22B
100
AcDbEntity
  8
0
100
AcDbLine
 62
7
  6
CONTINUOUS
 10
214.2054904858
 20
211.3791533258
 11
211.7054904858
 21
211.3791533258
  0
LINE
  5
22C
100
AcDbEntity
  8
0
100
AcDbLine
 62
7
  6
CONTINUOUS
 10
214.2054904858
 20
213.8791533258
 11
211.7054904858
 21
213.8791533258
  0
LINE
  5
22D
100
AcDbEntity
  8
0
100
AcDbLine
 62
7
  6
CONTINUOUS
 10
211.7054904858
 20
214.5241533258
 11
214.1054904858
 21
214.5241533258
  0
LINE
  5
22E
100
AcDbEntity
  8
0
100
AcDbLine
 62
9
  6
CONTINUOUS
 10
211.7054904858
 20
214.5794531048
 11
214.1054904858
 21
214.5794531048
  0
LINE
  5
22F
100
AcDbEntity
  8
0
100
AcDbLine
 62
9
  6
CONTINUOUS
 10
214.1054904858
 20
215.1295932846
 11
211.7054904858
 21
215.1295932846
  0
LINE
  5
230
100
AcDbEntity
  8
0
100
AcDbLine
 62
7
  6
CONTINUOUS
 10
131.5054904858
 20
307.4791533257
 11
131.5369072099
 21
303.8791533258
  0
LINE
  5
231
100
AcDbEntity
  8
0
100
AcDbLine
 62
7
  6
CONTINUOUS
 10
128.0054904858
 20
303.3791533258
 11
128.0054904858
 21
291.5291533258
  0
LINE
  5
232
100
AcDbEntity
  8
0
100
AcDbLine
 62
7
  6
CONTINUOUS
 10
128.2275950762
 20
291.5291533258
 11
128.2275950762
 21
290.9791533258
  0
LINE
  5
233
100
AcDbEntity
  8
0
100
AcDbLine
 62
7
  6
CONTINUOUS
 10
128.3489249767
 20
290.9791533258
 11
128.3489249767
 21
291.5291533258
  0
LINE
  5
234
100
AcDbEntity
  8
0
100
AcDbLine
 62
7
  6
CONTINUOUS
 10
128.5481639164
 20
290.9791533258
 11
128.5481639164
 21
291.5291533258
  0
LINE
  5
235
100
AcDbEntity
  8
0
100
AcDbLine
 62
7
  6
CONTINUOUS
 10
128.7354904858
 20
287.0583476547
 11
128.7354904858
 21
254.5899589969
  0
LINE
  5
236
100
AcDbEntity
  8
0
100
AcDbLine
 62
7
  6
CONTINUOUS
 10
129.5054904858
 20
307.4791533258
 11
129.5054904858
 21
303.8791533258
  0
LINE
  5
237
100
AcDbEntity
  8
0
100
AcDbLine
 62
7
  6
CONTINUOUS
 10
129.5054904858
 20
291.5291533258
 11
129.5054904858
 21
219.0791533258
  0
LINE
  5
238
100
AcDbEntity
  8
0
100
AcDbLine
 62
7
  6
CONTINUOUS
 10
123.5054904858
 20
209.2791533258
 11
124.2241159689
 21
217.4930801829
  0
LINE
  5
239
100
AcDbEntity
  8
0
100
AcDbLine
 62
9
  6
CONTINUOUS
 10
211.7054904858
 20
218.7142935056
 11
215.1054904858
 21
218.7142935056
  0
LINE
  5
23A
100
AcDbEntity
  8
0
100
AcDbLine
 62
7
  6
CONTINUOUS
 10
129.0054904858
 20
219.0791533258
 11
129.5054904858
 21
219.0791533258
  0
LINE
  5
23B
100
AcDbEntity
  8
0
100
AcDbLine
 62
7
  6
CONTINUOUS
 10
134.5054904858
 20
303.8791533258
 11
134.4740737618
 21
307.4791533258
  0
LINE
  5
23C
100
AcDbEntity
  8
0
100
AcDbLine
 62
7
  6
CONTINUOUS
 10
134.5221218188
 20
306.3791480892
 11
134.5221218188
 21
303.8791533258
  0
LINE
  5
23D
100
AcDbEntity
  8
0
100
AcDbLine
 62
7
  6
CONTINUOUS
 10
135.5221218188
 20
306.3308421295
 11
135.5221218188
 21
306.3791411449
  0
LINE
  5
23E
100
AcDbEntity
  8
0
100
AcDbLine
 62
7
  6
CONTINUOUS
 10
136.061529688
 20
303.8791533258
 11
136.061529688
 21
306.3308421295
  0
LINE
  5
23F
100
AcDbEntity
  8
0
100
AcDbLine
 62
9
  6
CONTINUOUS
 10
215.1054904858
 20
229.244013146
 11
211.7054904858
 21
229.244013146
  0
LINE
  5
240
100
AcDbEntity
  8
0
100
AcDbLine
 62
7
  6
CONTINUOUS
 10
127.3054904858
 20
208.2791533258
 11
126.5775500173
 21
206.2791533258
  0
LINE
  5
241
100
AcDbEntity
  8
0
100
AcDbLine
 62
9
  6
CONTINUOUS
 10
211.7054904858
 20
232.8287133669
 11
214.1054904858
 21
232.8287133669
  0
LINE
  5
242
100
AcDbEntity
  8
0
100
AcDbLine
 62
9
  6
CONTINUOUS
 10
214.1054904858
 20
233.3788535467
 11
211.7054904858
 21
233.3788535467
  0
LINE
  5
243
100
AcDbEntity
  8
0
100
AcDbLine
 62
7
  6
CONTINUOUS
 10
211.7054904858
 20
233.4341533258
 11
214.1054904858
 21
233.4341533258
  0
LINE
  5
244
100
AcDbEntity
  8
0
100
AcDbLine
 62
7
  6
CONTINUOUS
 10
214.2054904858
 20
233.8791533258
 11
211.7054904858
 21
233.8791533258
  0
LINE
  5
245
100
AcDbEntity
  8
0
100
AcDbLine
 62
7
  6
CONTINUOUS
 10
221.4180418124
 20
243.4820342581
 11
215.5054904858
 21
243.1791533258
  0
LINE
  5
246
100
AcDbEntity
  8
0
100
AcDbLine
 62
7
  6
CONTINUOUS
 10
214.2054904858
 20
236.3791533258
 11
211.7054904858
 21
236.3791533258
  0
LINE
  5
247
100
AcDbEntity
  8
0
100
AcDbLine
 62
7
  6
CONTINUOUS
 10
214.2054904858
 20
238.8791533258
 11
211.7054904858
 21
238.8791533258
  0
LINE
  5
248
100
AcDbEntity
  8
0
100
AcDbLine
 62
7
  6
CONTINUOUS
 10
215.5054904858
 20
242.3123154234
 11
211.7054904858
 21
242.2791533258
  0
LINE
  5
249
100
AcDbEntity
  8
0
100
AcDbLine
 62
7
  6
CONTINUOUS
 10
221.3054904858
 20
243.1791533258
 11
220.3054904858
 21
243.1791533258
  0
LINE
  5
24A
100
AcDbEntity
  8
0
100
AcDbLine
 62
7
  6
CONTINUOUS
 10
222.0960599009
 20
245.3041533258
 11
220.5149210708
 21
245.3041533258
  0
LINE
  5
24B
100
AcDbEntity
  8
0
100
AcDbLine
 62
7
  6
CONTINUOUS
 10
219.761961946
 20
249.8034714512
 11
221.1054904858
 21
249.8034714512
  0
LINE
  5
24C
100
AcDbEntity
  8
0
100
AcDbLine
 62
7
  6
CONTINUOUS
 10
129.5054904858
 20
254.5899589969
 11
128.7354904858
 21
254.5899589969
  0
LINE
  5
24D
100
AcDbEntity
  8
0
100
AcDbLine
 62
9
  6
CONTINUOUS
 10
128.7354904858
 20
256.3899589969
 11
129.5054904858
 21
256.3899589969
  0
LINE
  5
24E
100
AcDbEntity
  8
0
100
AcDbLine
 62
7
  6
CONTINUOUS
 10
121.0821218188
 20
304.1191533258
 11
120.8221218188
 21
304.3791533258
  0
LINE
  5
24F
100
AcDbEntity
  8
0
100
AcDbLine
 62
7
  6
CONTINUOUS
 10
217.8054904858
 20
274.1708040513
 11
217.5054904858
 21
274.1629482748
  0
LINE
  5
250
100
AcDbEntity
  8
0
100
AcDbLine
 62
9
  6
CONTINUOUS
 10
222.018831643
 20
277.019051865
 11
221.9611595475
 21
277.0185915716
  0
LINE
  5
251
100
AcDbEntity
  8
0
100
AcDbLine
 62
7
  6
CONTINUOUS
 10
221.6053003899
 20
274.3781506969
 11
221.1054904858
 21
274.3781506969
  0
LINE
  5
252
100
AcDbEntity
  8
0
100
AcDbLine
 62
7
  6
CONTINUOUS
 10
221.1054904858
 20
274.8555199078
 11
221.632480937
 21
274.8555199078
  0
LINE
  5
253
100
AcDbEntity
  8
0
100
AcDbLine
 62
7
  6
CONTINUOUS
 10
219.1654904858
 20
276.4491533258
 11
221.1054904858
 21
276.4491533258
  0
LINE
  5
254
100
AcDbEntity
  8
0
100
AcDbLine
 62
7
  6
CONTINUOUS
 10
221.9330587449
 20
276.5791533258
 11
222.1176628132
 21
276.5791533258
  0
LINE
  5
255
100
AcDbEntity
  8
0
100
AcDbLine
 62
7
  6
CONTINUOUS
 10
111.2221218188
 20
302.0291533258
 11
113.6221218188
 21
300.8791533258
  0
LINE
  5
256
100
AcDbEntity
  8
0
100
AcDbLine
 62
7
  6
CONTINUOUS
 10
217.5054904858
 20
250.4134255331
 11
222.405490486
 21
247.584409214
  0
LINE
  5
257
100
AcDbEntity
  8
0
100
AcDbLine
 62
7
  6
CONTINUOUS
 10
222.700777524
 20
282.3035081516
 11
222.4384941979
 21
282.2989299791
  0
LINE
  5
258
100
AcDbEntity
  8
0
100
AcDbLine
 62
9
  6
CONTINUOUS
 10
221.9612563567
 20
277.0201054667
 11
222.1420337652
 21
277.0201054667
  0
LINE
  5
259
100
AcDbEntity
  8
0
100
AcDbLine
 62
7
  6
CONTINUOUS
 10
219.0054904858
 20
277.3791533258
 11
217.5054904858
 21
277.3791533258
  0
LINE
  5
25A
100
AcDbEntity
  8
0
100
AcDbLine
 62
7
  6
CONTINUOUS
 10
220.3054904858
 20
278.5791533258
 11
218.1054904858
 21
278.5791533258
  0
LINE
  5
25B
100
AcDbEntity
  8
0
100
AcDbLine
 62
7
  6
CONTINUOUS
 10
218.1054904858
 20
279.7791533258
 11
220.3054904858
 21
279.7791533258
  0
LINE
  5
25C
100
AcDbEntity
  8
0
100
AcDbLine
 62
7
  6
CONTINUOUS
 10
222.8054904858
 20
281.7791533258
 11
222.2069176602
 21
281.7791533258
  0
LINE
  5
25D
100
AcDbEntity
  8
0
100
AcDbLine
 62
7
  6
CONTINUOUS
 10
219.761961946
 20
249.8034714512
 11
217.8054904858
 21
250.9330407754
  0
LINE
  5
25E
100
AcDbEntity
  8
0
100
AcDbLine
 62
7
  6
CONTINUOUS
 10
196.5054904858
 20
303.8791533258
 11
196.5054904858
 21
203.8791533258
  0
LINE
  5
25F
100
AcDbEntity
  8
0
100
AcDbLine
 62
7
  6
CONTINUOUS
 10
221.3054911189
 20
285.2791533258
 11
221.3052230291
 21
285.2787496096
  0
LINE
  5
260
100
AcDbEntity
  8
0
100
AcDbLine
 62
7
  6
CONTINUOUS
 10
221.3054910834
 20
285.2791533257
 11
221.3052230291
 21
285.2787496096
  0
LINE
  5
261
100
AcDbEntity
  8
0
100
AcDbLine
 62
7
  6
CONTINUOUS
 10
221.1054904858
 20
282.2435963632
 11
219.208239741
 21
282.2435963632
  0
LINE
  5
262
100
AcDbEntity
  8
0
100
AcDbLine
 62
7
  6
CONTINUOUS
 10
219.9646500253
 20
282.6426433049
 11
221.1054904858
 21
282.6426433049
  0
LINE
  5
263
100
AcDbEntity
  8
0
100
AcDbLine
 62
9
  6
CONTINUOUS
 10
221.1054904858
 20
282.6426433049
 11
221.8021518161
 21
282.6426433049
  0
LINE
  5
264
100
AcDbEntity
  8
0
100
AcDbLine
 62
9
  6
CONTINUOUS
 10
220.4513693758
 20
283.8791533258
 11
222.1280626461
 21
283.8791533258
  0
LINE
  5
265
100
AcDbEntity
  8
0
100
AcDbLine
 62
9
  6
CONTINUOUS
 10
129.5054904858
 20
285.2583476547
 11
128.7354904858
 21
285.2583476547
  0
LINE
  5
266
100
AcDbEntity
  8
0
100
AcDbLine
 62
7
  6
CONTINUOUS
 10
222.9054904858
 20
285.2791533258
 11
221.3054904858
 21
285.2791533258
  0
LINE
  5
267
100
AcDbEntity
  8
0
100
AcDbLine
 62
9
  6
CONTINUOUS
 10
222.1851615185
 20
281.4420369622
 11
222.2973313247
 21
281.4399969492
  0
LINE
  5
268
100
AcDbEntity
  8
0
100
AcDbLine
 62
7
  6
CONTINUOUS
 10
129.5054904858
 20
287.0583476547
 11
128.7354904858
 21
287.0583476547
  0
LINE
  5
269
100
AcDbEntity
  8
0
100
AcDbLine
 62
7
  6
CONTINUOUS
 10
214.403411855
 20
288.3622062904
 11
215.5034353032
 21
288.3622065473
  0
LINE
  5
26A
100
AcDbEntity
  8
0
100
AcDbLine
 62
7
  6
CONTINUOUS
 10
128.2275950762
 20
290.9791533258
 11
129.5054904858
 21
290.9791533258
  0
LINE
  5
26B
100
AcDbEntity
  8
0
100
AcDbLine
 62
7
  6
CONTINUOUS
 10
128.0054904858
 20
291.5291533258
 11
129.5054904858
 21
291.5291533258
  0
LINE
  5
26C
100
AcDbEntity
  8
0
100
AcDbLine
 62
7
  6
CONTINUOUS
 10
214.053407212
 20
288.2181555902
 11
215.5054904858
 21
288.2054583521
  0
LINE
  5
26D
100
AcDbEntity
  8
0
100
AcDbLine
 62
7
  6
CONTINUOUS
 10
211.7054904858
 20
242.2791533258
 11
211.7054904858
 21
203.7465049353
  0
LINE
  5
26E
100
AcDbEntity
  8
0
100
AcDbLine
 62
7
  6
CONTINUOUS
 10
212.5054904858
 20
302.1564804682
 11
212.5054904858
 21
303.8791533258
  0
LINE
  5
26F
100
AcDbEntity
  8
0
100
AcDbLine
 62
7
  6
CONTINUOUS
 10
212.7054904858
 20
301.7358218292
 11
212.7054904858
 21
303.5791533258
  0
LINE
  5
270
100
AcDbEntity
  8
0
100
AcDbLine
 62
9
  6
CONTINUOUS
 10
214.1054904858
 20
214.5241533258
 11
214.1054904858
 21
233.4341533258
  0
LINE
  5
271
100
AcDbEntity
  8
0
100
AcDbLine
 62
7
  6
CONTINUOUS
 10
214.4289560557
 20
301.3127275422
 11
214.6008354822
 21
301.3157277087
  0
LINE
  5
272
100
AcDbEntity
  8
0
100
AcDbLine
 62
7
  6
CONTINUOUS
 10
120.8221218188
 20
300.8791533258
 11
113.6221218188
 21
300.8791533258
  0
LINE
  5
273
100
AcDbEntity
  8
0
100
AcDbLine
 62
7
  6
CONTINUOUS
 10
128.0054904858
 20
301.1391533258
 11
121.0821218188
 21
301.1391533258
  0
LINE
  5
274
100
AcDbEntity
  8
0
100
AcDbLine
 62
7
  6
CONTINUOUS
 10
212.7054904858
 20
301.9791533258
 11
212.5897997694
 21
301.9791533258
  0
LINE
  5
275
100
AcDbEntity
  8
0
100
AcDbLine
 62
7
  6
CONTINUOUS
 10
214.2054904858
 20
208.8791533258
 11
214.2054904858
 21
213.8791533258
  0
LINE
  5
276
100
AcDbEntity
  8
0
100
AcDbLine
 62
7
  6
CONTINUOUS
 10
214.2054904858
 20
233.8791533258
 11
214.2054904858
 21
238.8791533258
  0
LINE
  5
277
100
AcDbEntity
  8
0
100
AcDbLine
 62
7
  6
CONTINUOUS
 10
215.1054904858
 20
232.4341533258
 11
215.1054904858
 21
215.5241533258
  0
LINE
  5
278
100
AcDbEntity
  8
0
100
AcDbLine
 62
7
  6
CONTINUOUS
 10
215.5054904858
 20
288.2054583521
 11
215.5054904858
 21
280.3791523233
  0
LINE
  5
279
100
AcDbEntity
  8
0
100
AcDbLine
 62
7
  6
CONTINUOUS
 10
215.5054904858
 20
203.7133428378
 11
215.5054904858
 21
243.1791533258
  0
LINE
  5
27A
100
AcDbEntity
  8
0
100
AcDbLine
 62
7
  6
CONTINUOUS
 10
217.5054904858
 20
277.3791533258
 11
217.5054904858
 21
250.4134255331
  0
LINE
  5
27B
100
AcDbEntity
  8
0
100
AcDbLine
 62
7
  6
CONTINUOUS
 10
217.8054904858
 20
250.2402204524
 11
217.8054904858
 21
277.3791533258
  0
LINE
  5
27C
100
AcDbEntity
  8
0
100
AcDbLine
 62
7
  6
CONTINUOUS
 10
221.6053003899
 20
274.378150697
 11
221.9070678172
 21
276.0686527544
  0
LINE
  5
27D
100
AcDbEntity
  8
0
100
AcDbLine
 62
7
  6
CONTINUOUS
 10
213.3721043562
 20
303.5791533258
 11
212.7054904858
 21
303.5791533258
  0
LINE
  5
27E
100
AcDbEntity
  8
0
100
AcDbLine
 62
7
  6
CONTINUOUS
 10
128.8715158896
 20
303.8791533258
 11
213.4054904858
 21
303.8791533258
  0
LINE
  5
27F
100
AcDbEntity
  8
0
100
AcDbLine
 62
7
  6
CONTINUOUS
 10
129.5054904858
 20
304.1191533258
 11
121.0821218188
 21
304.1191533258
  0
LINE
  5
280
100
AcDbEntity
  8
0
100
AcDbLine
 62
7
  6
CONTINUOUS
 10
120.8221218188
 20
304.3791533258
 11
113.6221218188
 21
304.3791533258
  0
LINE
  5
281
100
AcDbEntity
  8
0
100
AcDbLine
 62
7
  6
CONTINUOUS
 10
135.5221218188
 20
306.3308421295
 11
136.061529688
 21
306.3308421295
  0
LINE
  5
282
100
AcDbEntity
  8
0
100
AcDbLine
 62
7
  6
CONTINUOUS
 10
135.5221218188
 20
306.3791533258
 11
134.5221218188
 21
306.3791533258
  0
LINE
  5
283
100
AcDbEntity
  8
0
100
AcDbLine
 62
7
  6
CONTINUOUS
 10
220.3054904858
 20
278.5791533258
 11
220.3054904858
 21
277.3791533258
  0
LINE
  5
284
100
AcDbEntity
  8
0
100
AcDbLine
 62
7
  6
CONTINUOUS
 10
220.3054904858
 20
279.7791533258
 11
220.3054904858
 21
282.0124895978
  0
LINE
  5
285
100
AcDbEntity
  8
0
100
AcDbLine
 62
7
  6
CONTINUOUS
 10
221.1054904858
 20
249.8034714512
 11
221.1054904858
 21
282.6426433053
  0
LINE
  5
286
100
AcDbEntity
  8
0
100
AcDbLine
 62
7
  6
CONTINUOUS
 10
222.7007820772
 20
282.3035082311
 11
222.9054904858
 21
285.2791533258
  0
LINE
  5
287
100
AcDbEntity
  8
0
100
AcDbLine
 62
7
  6
CONTINUOUS
 10
134.4740737618
 20
307.4791533258
 11
129.5054904858
 21
307.4791533258
  0
LINE
  5
288
100
AcDbEntity
  8
0
100
AcDbLine
 62
7
  6
CONTINUOUS
 10
213.4974796787
 20
300.9291533258
 11
212.7054904858
 21
302.6275796307
  0
LINE
  5
289
100
AcDbEntity
  8
0
100
AcDbLine
 62
7
  6
CONTINUOUS
 10
213.3721043562
 20
303.5791533258
 11
214.6078196503
 21
300.9291533258
  0
LINE
  5
28A
100
AcDbEntity
  8
0
100
AcDbLine
 62
7
  6
CONTINUOUS
 10
213.4054904858
 20
303.8791533258
 11
214.6008354822
 21
301.3157277087
  0
ARC
  5
28B
100
AcDbEntity
  8
0
100
AcDbCircle
 62
7
  6
CONTINUOUS
 10
116.0554904858
 20
287.5791533258
 40
98.0
100
AcDbArc
 50
0.3735958396
 51
7.7392012424
  0
ARC
  5
28C
100
AcDbEntity
  8
0
100
AcDbCircle
 62
7
  6
CONTINUOUS
 10
118.0054904858
 20
287.7291533258
 40
97.5
100
AcDbArc
 50
0.2657881141
 51
7.7808609134
  0
ARC
  5
28D
100
AcDbEntity
  8
0
100
AcDbCircle
 62
7
  6
CONTINUOUS
 10
118.0054904858
 20
287.7291533258
 40
96.4
100
AcDbArc
 50
0.3398078621
 51
7.8702060804
  0
ARC
  5
28E
100
AcDbEntity
  8
0
100
AcDbCircle
 62
7
  6
CONTINUOUS
 10
205.6264201699
 20
308.9049346483
 40
29.9214435146
100
AcDbArc
 50
296.9952043061
 51
298.6328911596
  0
ARC
  5
28F
100
AcDbEntity
  8
0
100
AcDbCircle
 62
7
  6
CONTINUOUS
 10
191.6781578985
 20
289.9930862655
 40
28.6
100
AcDbArc
 50
336.5501900379
 51
339.0733600132
  0
ARC
  5
290
100
AcDbEntity
  8
0
100
AcDbCircle
 62
7
  6
CONTINUOUS
 10
191.6781578985
 20
289.9930862655
 40
28.6
100
AcDbArc
 50
343.8277483347
 51
344.2785290198
  0
ARC
  5
291
100
AcDbEntity
  8
0
100
AcDbCircle
 62
7
  6
CONTINUOUS
 10
202.8054904858
 20
281.7791533258
 40
20.0
100
AcDbArc
 50
344.9299378552
 51
360.0
  0
ARC
  5
292
100
AcDbEntity
  8
0
100
AcDbCircle
 62
7
  6
CONTINUOUS
 10
129.0054904858
 20
211.0791533258
 40
8.0
100
AcDbArc
 50
90.0
 51
126.7033349942
  0
ARC
  5
293
100
AcDbEntity
  8
0
100
AcDbCircle
 62
7
  6
CONTINUOUS
 10
129.2221218188
 20
302.6291533258
 40
7.7768888381
100
AcDbArc
 50
9.2458682249
 51
28.4235560357
  0
ARC
  5
294
100
AcDbEntity
  8
0
100
AcDbCircle
 62
7
  6
CONTINUOUS
 10
228.4052444584
 20
275.9811920411
 40
6.4987651932
100
AcDbArc
 50
175.0648114107
 51
179.2288871997
  0
ARC
  5
295
100
AcDbEntity
  8
0
100
AcDbCircle
 62
7
  6
CONTINUOUS
 10
224.6417251356
 20
281.4724807267
 40
4.8212355314
100
AcDbArc
 50
165.5057492177
 51
165.9534517155
  0
ARC
  5
296
100
AcDbEntity
  8
0
100
AcDbCircle
 62
7
  6
CONTINUOUS
 10
225.6476465572
 20
276.6052044578
 40
3.5300798709
100
AcDbArc
 50
173.250251567
 51
180.4228327747
  0
ARC
  5
297
100
AcDbEntity
  8
0
100
AcDbCircle
 62
7
  6
CONTINUOUS
 10
225.1176473484
 20
282.4014022638
 40
3.324260499
100
AcDbArc
 50
175.2071932761
 51
175.8383964151
  0
ARC
  5
298
100
AcDbEntity
  8
0
100
AcDbCircle
 62
7
  6
CONTINUOUS
 10
220.3054904858
 20
245.6791533258
 40
2.5
100
AcDbArc
 50
247.2053043547
 51
270.0
  0
ARC
  5
299
100
AcDbEntity
  8
0
100
AcDbCircle
 62
7
  6
CONTINUOUS
 10
221.3054904858
 20
245.6791533258
 40
2.5
100
AcDbArc
 50
270.0
 51
66.4218262812
  0
ARC
  5
29A
100
AcDbEntity
  8
0
100
AcDbCircle
 62
7
  6
CONTINUOUS
 10
221.3054904858
 20
245.6791533258
 40
2.2
100
AcDbArc
 50
272.9325147108
 51
59.9999999953
  0
ARC
  5
29B
100
AcDbEntity
  8
0
100
AcDbCircle
 62
7
  6
CONTINUOUS
 10
223.1054904858
 20
249.8034714512
 40
2.0
100
AcDbArc
 50
179.9999999995
 51
246.4218155726
  0
ARC
  5
29C
100
AcDbEntity
  8
0
100
AcDbCircle
 62
7
  6
CONTINUOUS
 10
223.5029227558
 20
281.6571268611
 40
1.3017371723
100
AcDbArc
 50
174.6211248294
 51
175.6202774268
  0
CIRCLE
  5
29D
100
AcDbEntity
  8
0
100
AcDbCircle
 62
7
  6
CONTINUOUS
 10
221.3054904858
 20
245.6791207203
 40
1.0500000908
  0
ARC
  5
29E
100
AcDbEntity
  8
0
100
AcDbCircle
 62
7
  6
CONTINUOUS
 10
214.1054904858
 20
215.5241533258
 40
1.0
100
AcDbArc
 50
270.0
 51
360.0
  0
ARC
  5
29F
100
AcDbEntity
  8
0
100
AcDbCircle
 62
7
  6
CONTINUOUS
 10
214.1054904858
 20
232.4341533258
 40
1.0
100
AcDbArc
 50
0.0
 51
90.0
  0
ARC
  5
2A0
100
AcDbEntity
  8
0
100
AcDbCircle
 62
9
  6
CONTINUOUS
 10
214.1422494473
 20
232.3940156913
 40
0.963241039
100
AcDbArc
 50
0.0017905599
 51
2.3568215617
  0
ARC
  5
2A1
100
AcDbEntity
  8
0
100
AcDbCircle
 62
9
  6
CONTINUOUS
 10
214.1422494473
 20
215.5642909602
 40
0.963241039
100
AcDbArc
 50
357.6431784382
 51
359.9982094401
  0
CIRCLE
  5
2A2
100
AcDbEntity
  8
0
100
AcDbCircle
 62
7
  6
CONTINUOUS
 10
221.3054904858
 20
245.6791533258
 40
0.875
  0
ARC
  5
2A3
100
AcDbEntity
  8
0
100
AcDbCircle
 62
7
  6
CONTINUOUS
 10
218.4854904858
 20
276.4491533258
 40
0.68
100
AcDbArc
 50
0.0
 51
180.0
  0
ARC
  5
2A4
100
AcDbEntity
  8
0
100
AcDbCircle
 62
7
  6
CONTINUOUS
 10
219.6554904858
 20
277.3791533258
 40
0.65
100
AcDbArc
 50
180.0
 51
360.0
  0
ARC
  5
2A5
100
AcDbEntity
  8
0
100
AcDbCircle
 62
7
  6
CONTINUOUS
 10
218.1054904858
 20
279.1791533258
 40
0.6
100
AcDbArc
 50
90.0
 51
270.0
  0
ARC
  5
2A6
100
AcDbEntity
  8
0
100
AcDbCircle
 62
7
  6
CONTINUOUS
 10
213.0054904858
 20
299.1791533258
 40
0.5
100
AcDbArc
 50
318.966332424
 51
53.7015570644
  0
SPLINE
  5
2A7
100
AcDbEntity
  8
0
100
AcDbSpline
 62
7
  6
CONTINUOUS
 70
0
 71
3
 72
11
 73
7
 74
0
 42
0.0000001
 43
0.0000001
 44
0.0000000001
 40
0.0
 40
0.0
 40
0.0
 40
0.0
 40
0.2585906787
 40
0.5124634665
 40
0.7600558771
 40
1.0
 40
1.0
 40
1.0
 40
1.0
 10
222.1297111505
 20
280.5627132409
 30
0.0
 10
222.1477009144
 20
280.2574991446
 30
0.0
 10
222.1834811916
 20
279.6526480387
 30
0.0
 10
222.2188770893
 20
278.7545478572
 30
0.0
 10
222.2161777443
 20
277.8776002365
 30
0.0
 10
222.1756145684
 20
277.3018081175
 30
0.0
 10
222.1420337652
 20
277.0201054667
 30
0.0
  0
SPLINE
  5
2A8
100
AcDbEntity
  8
0
100
AcDbSpline
 62
7
  6
CONTINUOUS
 70
0
 71
3
 72
9
 73
5
 74
0
 42
0.0000001
 43
0.0000001
 44
0.0000000001
 40
0.0
 40
0.0
 40
0.0
 40
0.0
 40
0.2840350835
 40
1.0
 40
1.0
 40
1.0
 40
1.0
 10
221.305488152
 20
285.2791489417
 30
0.0
 10
221.2192718905
 20
285.1499829046
 30
0.0
 10
220.9210180183
 20
284.6917533407
 30
0.0
 10
220.6392597757
 20
284.2225693861
 30
0.0
 10
220.4513693758
 20
283.8791533258
 30
0.0
  0
SPLINE
  5
2A9
100
AcDbEntity
  8
0
100
AcDbSpline
 62
7
  6
CONTINUOUS
 70
0
 71
3
 72
14
 73
10
 74
0
 42
0.0000001
 43
0.0000001
 44
0.0000000001
 40
0.0
 40
0.0
 40
0.0
 40
0.0
 40
0.0574168117
 40
0.1336746595
 40
0.2324337521
 40
0.35341884
 40
0.494494381
 40
0.652496134
 40
1.0
 40
1.0
 40
1.0
 40
1.0
 10
222.4384986829
 20
282.2989300574
 30
0.0
 10
222.4271391448
 20
282.2987317759
 30
0.0
 10
222.4011757364
 20
282.2886821614
 30
0.0
 10
222.3671300805
 20
282.2572344463
 30
0.0
 10
222.3325469997
 20
282.2096113512
 30
0.0
 10
222.2989551018
 20
282.1464359656
 30
0.0
 10
222.2676899522
 20
282.0692771091
 30
0.0
 10
222.2304301504
 20
281.9467647983
 30
0.0
 10
222.2133560196
 20
281.8476130647
 30
0.0
 10
222.2069176602
 20
281.7791533248
 30
0.0
  0
SPLINE
  5
2AA
100
AcDbEntity
  8
0
100
AcDbSpline
 62
7
  6
CONTINUOUS
 70
0
 71
3
 72
11
 73
7
 74
0
 42
0.0000001
 43
0.0000001
 44
0.0000000001
 40
0.0
 40
0.0
 40
0.0
 40
0.0
 40
0.2362464863
 40
0.4838428585
 40
0.7395499471
 40
1.0
 40
1.0
 40
1.0
 40
1.0
 10
221.9305724694
 20
276.5402731367
 30
0.0
 10
221.9659971575
 20
276.9501112627
 30
0.0
 10
222.0145336199
 20
277.7914787714
 30
0.0
 10
222.0612800521
 20
279.0783220897
 30
0.0
 10
222.1150043328
 20
280.4071680958
 30
0.0
 10
222.1704033973
 20
281.3043451403
 30
0.0
 10
222.2049868627
 20
281.7565355284
 30
0.0
  0
SPLINE
  5
2AB
100
AcDbEntity
  8
0
100
AcDbSpline
 62
7
  6
CONTINUOUS
 70
0
 71
3
 72
9
 73
5
 74
0
 42
0.0000001
 43
0.0000001
 44
0.0000000001
 40
0.0
 40
0.0
 40
0.0
 40
0.0
 40
0.4777033401
 40
1.0
 40
1.0
 40
1.0
 40
1.0
 10
220.4513693758
 20
283.8791533258
 30
0.0
 10
220.3524772567
 20
283.6984035805
 30
0.0
 10
220.1674951811
 20
283.3076766078
 30
0.0
 10
220.0303108562
 20
282.8972526715
 30
0.0
 10
219.9739362278
 20
282.6791533258
 30
0.0
  0
SPLINE
  5
2AC
100
AcDbEntity
  8
0
100
AcDbSpline
 62
7
  6
CONTINUOUS
 70
0
 71
3
 72
11
 73
7
 74
0
 42
0.0000001
 43
0.0000001
 44
0.0000000001
 40
0.0
 40
0.0
 40
0.0
 40
0.0
 40
0.2592489231
 40
0.5140388519
 40
0.7617714187
 40
1.0
 40
1.0
 40
1.0
 40
1.0
 10
222.2973312738
 20
281.4399971623
 30
0.0
 10
222.2689891067
 20
281.0582345432
 30
0.0
 10
222.2201141339
 20
280.3007271716
 30
0.0
 10
222.1613819551
 20
279.1774048728
 30
0.0
 10
222.1034455501
 20
278.0851460302
 30
0.0
 10
222.0518417619
 20
277.3692737154
 30
0.0
 10
222.018831643
 20
277.019051865
 30
0.0
  0
SPLINE
  5
2AD
100
AcDbEntity
  8
0
100
AcDbSpline
 62
7
  6
CONTINUOUS
 70
0
 71
3
 72
9
 73
5
 74
0
 42
0.0000001
 43
0.0000001
 44
0.0000000001
 40
0.0
 40
0.0
 40
0.0
 40
0.0
 40
0.2657243973
 40
1.0
 40
1.0
 40
1.0
 40
1.0
 10
221.8050106022
 20
282.6791533258
 30
0.0
 10
221.8142285939
 20
282.7891793927
 30
0.0
 10
221.869522373
 20
283.2014045101
 30
0.0
 10
221.9994358003
 20
283.6024926983
 30
0.0
 10
222.1280626461
 20
283.8791533258
 30
0.0
  0
SPLINE
  5
2AE
100
AcDbEntity
  8
0
100
AcDbSpline
 62
7
  6
CONTINUOUS
 70
0
 71
3
 72
9
 73
5
 74
0
 42
0.0000001
 43
0.0000001
 44
0.0000000001
 40
0.0
 40
0.0
 40
0.0
 40
0.0
 40
0.2821263906
 40
1.0
 40
1.0
 40
1.0
 40
1.0
 10
222.9054904861
 20
285.2791533258
 30
0.0
 10
222.8249275685
 20
285.1519792248
 30
0.0
 10
222.5446786703
 20
284.6971920156
 30
0.0
 10
222.2896754536
 20
284.2267627261
 30
0.0
 10
222.1280626461
 20
283.8791533258
 30
0.0
  0
SPLINE
  5
2AF
100
AcDbEntity
  8
0
100
AcDbSpline
 62
7
  6
CONTINUOUS
 70
0
 71
3
 72
18
 73
14
 74
0
 42
0.0000001
 43
0.0000001
 44
0.0000000001
 40
0.0
 40
0.0
 40
0.0
 40
0.0
 40
0.2181657106
 40
0.4154201649
 40
0.587933966
 40
0.7330123419
 40
0.8483503096
 40
0.8942990269
 40
0.93215474
 40
0.9617334042
 40
0.9829457496
 40
0.995723929
 40
1.0
 40
1.0
 40
1.0
 40
1.0
 10
221.632480937
 20
274.8555199078
 30
0.0
 10
221.6292213622
 20
274.8208938893
 30
0.0
 10
221.6235562649
 20
274.7549084941
 30
0.0
 10
221.61695449
 20
274.6614124053
 30
0.0
 10
221.6123036089
 20
274.5794663322
 30
0.0
 10
221.6091982873
 20
274.5105214041
 30
0.0
 10
221.6074840034
 20
274.4617054872
 30
0.0
 10
221.6065138349
 20
274.4299831394
 30
0.0
 10
221.6061158073
 20
274.411892063
 30
0.0
 10
221.6055733688
 20
274.3978222429
 30
0.0
 10
221.6057992083
 20
274.3875595526
 30
0.0
 10
221.6048751743
 20
274.3816918572
 30
0.0
 10
221.6056524704
 20
274.3787333498
 30
0.0
 10
221.6052986409
 20
274.378150697
 30
0.0
  0
SPLINE
  5
2B0
100
AcDbEntity
  8
0
100
AcDbSpline
 62
7
  6
CONTINUOUS
 70
0
 71
3
 72
11
 73
7
 74
0
 42
0.0000001
 43
0.0000001
 44
0.0000000001
 40
0.0
 40
0.0
 40
0.0
 40
0.0
 40
0.2632004468
 40
0.5208033793
 40
0.7679453109
 40
1.0
 40
1.0
 40
1.0
 40
1.0
 10
221.8021518161
 20
282.6426433049
 30
0.0
 10
221.7525931616
 20
281.9609174432
 30
0.0
 10
221.696392297
 20
280.608728756
 30
0.0
 10
221.7044660909
 20
278.6141573327
 30
0.0
 10
221.7267227111
 20
276.701178693
 30
0.0
 10
221.6868074529
 20
275.4557030592
 30
0.0
 10
221.632480937
 20
274.85551665
 30
0.0
  0
SPLINE
  5
2B1
100
AcDbEntity
  8
0
100
AcDbSpline
 62
7
  6
CONTINUOUS
 70
0
 71
3
 72
12
 73
8
 74
0
 42
0.0000001
 43
0.0000001
 44
0.0000000001
 40
0.0
 40
0.0
 40
0.0
 40
0.0
 40
0.1240062892
 40
0.2217983109
 40
0.3437737344
 40
0.6483139429
 40
1.0
 40
1.0
 40
1.0
 40
1.0
 10
222.42282335
 20
281.7596498488
 30
0.0
 10
222.4080890225
 20
281.7599070374
 30
0.0
 10
222.3852612461
 20
281.7386939906
 30
0.0
 10
222.3640604974
 20
281.7052653837
 30
0.0
 10
222.337345396
 20
281.6481894428
 30
0.0
 10
222.311729229
 20
281.5591954278
 30
0.0
 10
222.3004255511
 20
281.4816756693
 30
0.0
 10
222.2973313247
 20
281.4399969492
 30
0.0
  0
SPLINE
  5
2B2
100
AcDbEntity
  8
0
100
AcDbSpline
 62
9
  6
CONTINUOUS
 70
0
 71
3
 72
11
 73
7
 74
0
 42
0.0000001
 43
0.0000001
 44
0.0000000001
 40
0.0
 40
0.0
 40
0.0
 40
0.0
 40
0.2482911859
 40
0.4975714941
 40
0.7482734543
 40
1.0
 40
1.0
 40
1.0
 40
1.0
 10
215.1046756847
 20
232.4336267607
 30
0.0
 10
215.099539645
 20
232.5584983922
 30
0.0
 10
215.0396373568
 20
232.8093680825
 30
0.0
 10
214.8143861103
 20
233.1225232404
 30
0.0
 10
214.4876688779
 20
233.3304695542
 30
0.0
 10
214.2321968829
 20
233.3788535467
 30
0.0
 10
214.1054904858
 20
233.3788535467
 30
0.0
  0
SPLINE
  5
2B3
100
AcDbEntity
  8
0
100
AcDbSpline
 62
9
  6
CONTINUOUS
 70
0
 71
3
 72
11
 73
7
 74
0
 42
0.0000001
 43
0.0000001
 44
0.0000000001
 40
0.0
 40
0.0
 40
0.0
 40
0.0
 40
0.2517265457
 40
0.5024285059
 40
0.7517088141
 40
1.0
 40
1.0
 40
1.0
 40
1.0
 10
214.1054904858
 20
214.5794531048
 30
0.0
 10
214.2321968829
 20
214.5794531048
 30
0.0
 10
214.4876688779
 20
214.6278370973
 30
0.0
 10
214.8143861103
 20
214.8357834111
 30
0.0
 10
215.0396373568
 20
215.1489385691
 30
0.0
 10
215.099539645
 20
215.3998082593
 30
0.0
 10
215.1046756847
 20
215.5246798908
 30
0.0
  0
SPLINE
  5
2B4
100
AcDbEntity
  8
0
100
AcDbSpline
 62
9
  6
CONTINUOUS
 70
0
 71
3
 72
11
 73
7
 74
0
 42
0.0000001
 43
0.0000001
 44
0.0000000001
 40
0.0
 40
0.0
 40
0.0
 40
0.0
 40
0.2482478253
 40
0.4974998593
 40
0.7482162216
 40
1.0
 40
1.0
 40
1.0
 40
1.0
 10
215.1054904858
 20
216.1144010376
 30
0.0
 10
215.1054904858
 20
215.9862315895
 30
0.0
 10
215.0531637738
 20
215.7265053558
 30
0.0
 10
214.8300375452
 20
215.3991634888
 30
0.0
 10
214.4977051409
 20
215.1805783604
 30
0.0
 10
214.2354855337
 20
215.1295932846
 30
0.0
 10
214.1054904858
 20
215.1295932846
 30
0.0
  0
SPLINE
  5
2B5
100
AcDbEntity
  8
0
100
AcDbSpline
 62
9
  6
CONTINUOUS
 70
0
 71
3
 72
11
 73
7
 74
0
 42
0.0000001
 43
0.0000001
 44
0.0000000001
 40
0.0
 40
0.0
 40
0.0
 40
0.0
 40
0.2517837784
 40
0.5025001407
 40
0.7517521747
 40
1.0
 40
1.0
 40
1.0
 40
1.0
 10
214.1054904858
 20
232.8287133669
 30
0.0
 10
214.2354855337
 20
232.8287133669
 30
0.0
 10
214.4977051409
 20
232.7777282911
 30
0.0
 10
214.8300375452
 20
232.5591431628
 30
0.0
 10
215.0531637738
 20
232.2318012958
 30
0.0
 10
215.1054904858
 20
231.972075062
 30
0.0
 10
215.1054904858
 20
231.8439056139
 30
0.0
  0
SPLINE
  5
2B6
100
AcDbEntity
  8
0
100
AcDbSpline
 62
7
  6
CONTINUOUS
 70
0
 71
3
 72
9
 73
5
 74
0
 42
0.0000001
 43
0.0000001
 44
0.0000000001
 40
0.0
 40
0.0
 40
0.0
 40
0.0
 40
0.5000005458
 40
1.0
 40
1.0
 40
1.0
 40
1.0
 10
212.5054904858
 20
302.1564804682
 30
0.0
 10
212.615185628
 20
301.9264998201
 30
0.0
 10
212.8324541182
 20
301.4655290272
 30
0.0
 10
213.053246525
 20
301.0062368043
 30
0.0
 10
213.1629414277
 20
300.7762566583
 30
0.0
  0
LINE
  5
2B7
100
AcDbEntity
  8
0
100
AcDbLine
 62
7
  6
CONTINUOUS
 10
215.5054904858
 20
282.0791533258
 11
220.3054904858
 21
282.0124895978
  0
SPLINE
  5
2B8
100
AcDbEntity
  8
0
100
AcDbSpline
 62
7
  6
CONTINUOUS
 70
0
 71
3
 72
15
 73
11
 74
0
 42
0.0000001
 43
0.0000001
 44
0.0000000001
 40
0.0
 40
0.0
 40
0.0
 40
0.0
 40
0.1250108824
 40
0.2499947473
 40
0.3749901004
 40
0.4999896529
 40
0.6249886225
 40
0.7499888876
 40
0.8749837624
 40
1.0
 40
1.0
 40
1.0
 40
1.0
 10
222.3630008605
 20
245.6791546927
 30
0.0
 10
222.363005806
 20
245.54053786
 30
0.0
 10
222.3079204131
 20
245.2601999399
 30
0.0
 10
222.070590446
 20
244.9061296663
 30
0.0
 10
221.7159674095
 20
244.6689179746
 30
0.0
 10
221.297518345
 20
244.5857279473
 30
0.0
 10
220.8790580979
 20
244.6688918462
 30
0.0
 10
220.5244070842
 20
244.9060911849
 30
0.0
 10
220.2870400132
 20
245.2601723003
 30
0.0
 10
220.2319633258
 20
245.5405292035
 30
0.0
 10
220.2319582718
 20
245.6791519742
 30
0.0
  0
SPLINE
  5
2B9
100
AcDbEntity
  8
0
100
AcDbSpline
 62
7
  6
CONTINUOUS
 70
0
 71
3
 72
15
 73
11
 74
0
 42
0.0000001
 43
0.0000001
 44
0.0000000001
 40
0.0
 40
0.0
 40
0.0
 40
0.0
 40
0.1250108969
 40
0.2499947726
 40
0.3749901139
 40
0.4999896619
 40
0.6249886361
 40
0.749988892
 40
0.8749837537
 40
1.0
 40
1.0
 40
1.0
 40
1.0
 10
220.2319582718
 20
245.6791519742
 30
0.0
 10
220.2319533244
 20
245.8177688231
 30
0.0
 10
220.287038571
 20
246.0981068208
 30
0.0
 10
220.5243687818
 20
246.4521769796
 30
0.0
 10
220.878991778
 20
246.6893886569
 30
0.0
 10
221.2974408328
 20
246.772578703
 30
0.0
 10
221.7159010705
 20
246.6894148453
 30
0.0
 10
222.0705521029
 20
246.4522155241
 30
0.0
 10
222.307919012
 20
246.09813434
 30
0.0
 10
222.3629958108
 20
245.8177774732
 30
0.0
 10
222.3630008605
 20
245.6791546927
 30
0.0
  0
LINE
  5
2BA
100
AcDbEntity
  8
0
100
AcDbLine
 62
7
  6
CONTINUOUS
 10
220.3054904858
 20
280.3218567868
 11
215.5054904858
 21
280.3791523233
  0
ELLIPSE
  5
2BB
100
AcDbEntity
  8
0
100
AcDbEllipse
 62
7
  6
CONTINUOUS
 10
-640.4359416496
 20
482.7291533258
 30
0.0
 11
11171.5425180004
 21
0.0
 31
0.0
 40
0.0174550649
 41
-1.4942337187
 42
-1.4942020558
  0
ENDSEC
  0
SECTION
  2
OBJECTS
  0
DICTIONARY
  5
C
100
AcDbDictionary
280
0
281
1
  3
ACAD_GROUP
350
D
  3
ACAD_MLINESTYLE
350
17
  3
ACAD_LAYOUT
350
1A
  3
ACAD_PLOTSETTINGS
350
19
  3
ACAD_PLOTSTYLENAME
350
E
  0
DICTIONARY
  5
D
102
{ACAD_REACTORS
330
C
102
}
100
AcDbDictionary
280
0
281
1
  0
ACDBDICTIONARYWDFLT
  5
E
102
{ACAD_REACTORS
330
C
102
}
100
AcDbDictionary
281
1
  3
Normal
350
F
100
AcDbDictionaryWithDefault
340
F
  0
DICTIONARY
  5
17
102
{ACAD_REACTORS
330
C
102
}
100
AcDbDictionary
280
0
281
1
  3
Standard
350
18
  0
DICTIONARY
  5
19
102
{ACAD_REACTORS
330
C
102
}
100
AcDbDictionary
281
1
  0
DICTIONARY
  5
1A
102
{ACAD_REACTORS
330
C
102
}
100
AcDbDictionary
281
1
  3
Model
350
2BC
  3
Layout1
350
2BD
  0
ACDBPLACEHOLDER
  5
F
102
{ACAD_REACTORS
330
E
102
}
  0
MLINESTYLE
  5
18
102
{ACAD_REACTORS
330
17
102
}
100
AcDbMlineStyle
  2
STANDARD
 70
0
  3

 62
256
 51
90.0
 52
90.0
 71
2
 49
0.5
 62
256
  6
BYLAYER
 49
-0.5
 62
256
  6
BYLAYER
  0
LAYOUT
  5
2BC
102
{ACAD_REACTORS
330
1A
102
}
100
AcDbPlotSettings
  1

  2
none_device
  4
ANSI_C_(22.00_x_17.00_Inches)
  6

 40
0.0
 41
0.0
 42
0.0
 43
0.0
 44
558.8
 45
431.8
 46
0.0
 47
0.0
 48
0.0
 49
0.0
140
0.0
141
0.0
142
1.0
143
1.0
 70
1024
 72
1
 73
0
 74
0
  7

 75
0
147
1.0
148
0.0
149
0.0
100
AcDbLayout
  1
Model
 70
0
 71
0
 10
0.0
 20
0.0
 11
558.8
 21
431.8
 12
0.0
 22
0.0
 32
0.0
 14
0.0
 24
0.0
 34
0.0
 15
0.0
 25
0.0
 35
0.0
146
0.0
 13
0.0
 23
0.0
 33
0.0
 16
1.0
 26
0.0
 36
0.0
 17
0.0
 27
1.0
 37
0.0
 76
0
330
216
345
0
346
0
  0
LAYOUT
  5
2BD
102
{ACAD_REACTORS
330
1A
102
}
100
AcDbPlotSettings
  1

  2
none_device
  4
ANSI_C_(22.00_x_17.00_Inches)
  6

 40
0.0
 41
0.0
 42
0.0
 43
0.0
 44
558.8
 45
431.8
 46
0.0
 47
0.0
 48
0.0
 49
0.0
140
0.0
141
0.0
142
1.0
143
1.0
 70
0
 72
1
 73
0
 74
0
  7

 75
0
147
1.0
148
0.0
149
0.0
100
AcDbLayout
  1
Layout1
 70
0
 71
1
 10
0.0
 20
0.0
 11
558.8
 21
431.8
 12
0.0
 22
0.0
 32
0.0
 14
0.0
 24
0.0
 34
0.0
 15
0.0
 25
0.0
 35
0.0
146
0.0
 13
0.0
 23
0.0
 33
0.0
 16
1.0
 26
0.0
 36
0.0
 17
0.0
 27
1.0
 37
0.0
 76
0
330
217
345
0
346
0
  0
ENDSEC
  0
EOF
