999
DXF file: C:\Users\sesa63760\Dev\_Creo\CAD\MCADID0000920_3D-CAD\drw0001_1.dxf
999
Pro/ENGINEER 2019471 by Parametric Technology Corporation
  0
SECTION
  2
HEADER
  9
$ACADVER
  1
AC1024
  9
$DWGCODEPAGE
  3
ANSI_1252
  9
$EXTMAX
 10
369.862902605
 20
523.0918193984
 30
0.0
  9
$EXTMIN
 10
0.0
 20
0.0
 30
0.0
  9
$LIMMIN
 10
0.0
 20
0.0
  9
$LIMMAX
 10
369.862902605
 20
523.0918193984
  9
$VIEWCTR
 10
184.9314513025
 20
261.5459096992
  9
$VIEWSIZE
 40
523.0918193984
  9
$CLAYER
  8
0
  9
$LTSCALE
 40
34.0978371163
  9
$CELTYPE
  6
BYLAYER
  9
$DIMSCALE
 40
1.0
  9
$DIMASZ
 40
4.4031297929
  9
$DIMEXO
 40
1.0
  9
$DIMDLI
 40
23.558505644
  9
$DIMEXE
 40
1.0
  9
$DIMCEN
 40
5.5796460736
  9
$DIMLFAC
 40
1.0
  9
$DIMBLK
  1
_FILLED
  9
$DIMALT
 70
0
  9
$DIMALTF
 40
0.0393700787
  9
$DIMTXT
 40
6.1643817101
  9
$DIMTOL
 70
1
  9
$DIMLIM
 70
0
  9
$DIMTFAC
 40
1.0
  9
$DIMTP
 40
0.01
  9
$DIMTM
 40
0.01
  9
$DIMGAP
 40
0.625
  9
$DIMDSEP
 70
46
  9
$AUNITS
 70
0
  9
$PDMODE
 70
3
  9
$PDSIZE
 40
0.3125
  9
$HANDSEED
  5
53A
  9
$TILEMODE
 70
1
  9
$MEASUREMENT
 70
1
  9
$INSUNITS
 70
4
  0
ENDSEC
  0
SECTION
  2
CLASSES
  0
CLASS
  1
ACDBDICTIONARYWDFLT
  2
AcDbDictionaryWithDefault
  3
AutoCAD 2000
 90
0
 91
1
280
0
281
0
  0
CLASS
  1
ACDBPLACEHOLDER
  2
AcDbPlaceHolder
  3
AutoCAD 2000
 90
0
 91
1
280
0
281
0
  0
CLASS
  1
LAYOUT
  2
AcDbLayout
  3
AutoCAD 2000
 90
0
 91
0
280
0
281
0
  0
ENDSEC
  0
SECTION
  2
TABLES
  0
TABLE
  2
VPORT
  5
8
100
AcDbSymbolTable
 70
2
  0
VPORT
  5
1F4
100
AcDbSymbolTableRecord
100
AcDbViewportTableRecord
  2
*ACTIVE
 70
0
 10
0.0
 20
0.0
 11
1.0
 21
1.0
 12
184.9314513025
 22
261.5459096992
 13
0.0
 23
0.0
 14
1.0
 24
1.0
 15
0.0
 25
0.0
 16
0.0
 26
0.0
 36
1.0
 17
0.0
 27
0.0
 37
0.0
 40
523.0918193984
 41
0.7070707071
 42
50.0
 43
0.0
 44
0.0
 50
0.0
 51
0.0
 71
0
 72
100
 73
1
 74
1
 75
0
 76
0
 77
0
 78
0
  0
ENDTAB
  0
TABLE
  2
LTYPE
  5
5
100
AcDbSymbolTable
 70
6
  0
LTYPE
  5
14
100
AcDbSymbolTableRecord
100
AcDbLinetypeTableRecord
  2
BYBLOCK
 70
0
  3

 72
65
 73
0
 40
0.0
  0
LTYPE
  5
15
100
AcDbSymbolTableRecord
100
AcDbLinetypeTableRecord
  2
BYLAYER
 70
0
  3

 72
65
 73
0
 40
0.0
  0
LTYPE
  5
16
100
AcDbSymbolTableRecord
100
AcDbLinetypeTableRecord
  2
CONTINUOUS
 70
64
  3
Solid line
 72
65
 73
0
 40
0.0
  0
LTYPE
  5
1F5
100
AcDbSymbolTableRecord
100
AcDbLinetypeTableRecord
  2
CENTER
 70
64
  3
____ _ ____ _ ____ _ ____ _ ____ _ ____ _ ____
 72
65
 73
4
 40
0.6
 49
0.375
 74
0
 49
-0.075
 74
0
 49
0.075
 74
0
 49
-0.075
 74
0
  0
LTYPE
  5
1F6
100
AcDbSymbolTableRecord
100
AcDbLinetypeTableRecord
  2
HIDDEN
 70
64
  3
- - - - - - - - - - - - - - - - - - - -
 72
65
 73
2
 40
0.2
 49
0.1
 74
0
 49
-0.1
 74
0
  0
LTYPE
  5
1F7
100
AcDbSymbolTableRecord
100
AcDbLinetypeTableRecord
  2
PHANTOM
 70
64
  3
_____ _ _ _____ _ _ _____ _ _ _____
 72
65
 73
6
 40
0.8
 49
0.45
 74
0
 49
-0.05
 74
0
 49
0.1
 74
0
 49
-0.05
 74
0
 49
0.1
 74
0
 49
-0.05
 74
0
  0
LTYPE
  5
1F8
100
AcDbSymbolTableRecord
100
AcDbLinetypeTableRecord
  2
DOT
 70
64
  3
. . . . . . . . . . . . . . . . . . . .
 72
65
 73
2
 40
0.2
 49
0.1
 74
0
 49
-0.1
 74
0
  0
LTYPE
  5
1F9
100
AcDbSymbolTableRecord
100
AcDbLinetypeTableRecord
  2
DASHED
 70
64
  3
- - - - - - - - - - - - - - - - - - - -
 72
65
 73
2
 40
0.2
 49
0.1
 74
0
 49
-0.1
 74
0
  0
ENDTAB
  0
TABLE
  2
LAYER
  5
2
100
AcDbSymbolTable
 70
36
  0
LAYER
  5
10
100
AcDbSymbolTableRecord
100
AcDbLayerTableRecord
  2
0
 70
0
 62
7
  6
CONTINUOUS
370
-3
390
F
  0
LAYER
  5
1FA
100
AcDbSymbolTableRecord
100
AcDbLayerTableRecord
  2
DEFAULT_1
 70
0
 62
7
  6
CENTER
370
-3
390
F
  0
LAYER
  5
1FB
100
AcDbSymbolTableRecord
100
AcDbLayerTableRecord
  2
DEFAULT_2
 70
0
 62
8
  6
HIDDEN
370
-3
390
F
  0
LAYER
  5
1FC
100
AcDbSymbolTableRecord
100
AcDbLayerTableRecord
  2
DEFAULT_3
 70
0
 62
7
  6
PHANTOM
370
-3
390
F
  0
LAYER
  5
1FD
100
AcDbSymbolTableRecord
100
AcDbLayerTableRecord
  2
00_COMPONENTS
 70
0
 62
7
  6
CONTINUOUS
370
-3
390
F
  0
LAYER
  5
1FE
100
AcDbSymbolTableRecord
100
AcDbLayerTableRecord
  2
01_1_DEFAULT_DATUMS
 70
0
 62
7
  6
CONTINUOUS
370
-3
390
F
  0
LAYER
  5
1FF
100
AcDbSymbolTableRecord
100
AcDbLayerTableRecord
  2
01_PLANES
 70
0
 62
7
  6
CONTINUOUS
370
-3
390
F
  0
LAYER
  5
200
100
AcDbSymbolTableRecord
100
AcDbLayerTableRecord
  2
02_COORD_SYS
 70
0
 62
7
  6
CONTINUOUS
370
-3
390
F
  0
LAYER
  5
201
100
AcDbSymbolTableRecord
100
AcDbLayerTableRecord
  2
03_AXES
 70
0
 62
7
  6
CONTINUOUS
370
-3
390
F
  0
LAYER
  5
202
100
AcDbSymbolTableRecord
100
AcDbLayerTableRecord
  2
04_POINTS
 70
0
 62
7
  6
CONTINUOUS
370
-3
390
F
  0
LAYER
  5
203
100
AcDbSymbolTableRecord
100
AcDbLayerTableRecord
  2
05_CURVES
 70
0
 62
7
  6
CONTINUOUS
370
-3
390
F
  0
LAYER
  5
204
100
AcDbSymbolTableRecord
100
AcDbLayerTableRecord
  2
06_SURFS
 70
0
 62
7
  6
CONTINUOUS
370
-3
390
F
  0
LAYER
  5
205
100
AcDbSymbolTableRecord
100
AcDbLayerTableRecord
  2
07_COSMETICS
 70
0
 62
7
  6
CONTINUOUS
370
-3
390
F
  0
LAYER
  5
206
100
AcDbSymbolTableRecord
100
AcDbLayerTableRecord
  2
10_NOTES
 70
0
 62
7
  6
CONTINUOUS
370
-3
390
F
  0
LAYER
  5
207
100
AcDbSymbolTableRecord
100
AcDbLayerTableRecord
  2
11_NOTES_PUB
 70
0
 62
7
  6
CONTINUOUS
370
-3
390
F
  0
LAYER
  5
208
100
AcDbSymbolTableRecord
100
AcDbLayerTableRecord
  2
13_REF_GTOL
 70
0
 62
7
  6
CONTINUOUS
370
-3
390
F
  0
LAYER
  5
209
100
AcDbSymbolTableRecord
100
AcDbLayerTableRecord
  2
16_MISC
 70
0
 62
7
  6
CONTINUOUS
370
-3
390
F
  0
LAYER
  5
20A
100
AcDbSymbolTableRecord
100
AcDbLayerTableRecord
  2
17_NO_PRINT
 70
0
 62
7
  6
CONTINUOUS
370
-3
390
F
  0
LAYER
  5
20B
100
AcDbSymbolTableRecord
100
AcDbLayerTableRecord
  2
18_DATUM_CAMS_JOINTS
 70
0
 62
7
  6
CONTINUOUS
370
-3
390
F
  0
LAYER
  5
20C
100
AcDbSymbolTableRecord
100
AcDbLayerTableRecord
  2
19_DATUM_FUNCTIONAL
 70
0
 62
7
  6
CONTINUOUS
370
-3
390
F
  0
LAYER
  5
20D
100
AcDbSymbolTableRecord
100
AcDbLayerTableRecord
  2
20_DATUM_KINEMATIC_SCHEME
 70
0
 62
7
  6
CONTINUOUS
370
-3
390
F
  0
ENDTAB
  0
TABLE
  2
STYLE
  5
3
100
AcDbSymbolTable
 70
1
  0
STYLE
  5
11
100
AcDbSymbolTableRecord
100
AcDbTextStyleTableRecord
  2
STANDARD
 70
0
 40
0.0
 41
0.8
 50
0.0
 71
0
 42
0.2
  3
txt
  4

  0
STYLE
  5
20E
100
AcDbSymbolTableRecord
100
AcDbTextStyleTableRecord
  2
TEXTSTYLE_1
 70
0
 40
0.0
 41
0.8
 50
0.0
 71
0
 42
0.2
  3
gdt
  4

  0
ENDTAB
  0
TABLE
  2
VIEW
  5
6
100
AcDbSymbolTable
 70
0
  0
ENDTAB
  0
TABLE
  2
UCS
  5
7
100
AcDbSymbolTable
 70
0
  0
ENDTAB
  0
TABLE
  2
APPID
  5
9
100
AcDbSymbolTable
 70
1
  0
APPID
  5
20F
100
AcDbSymbolTableRecord
100
AcDbRegAppTableRecord
  2
ACAD
 70
0
  0
ENDTAB
  0
TABLE
  2
BLOCK_RECORD
  5
1
100
AcDbSymbolTable
 70
0
  0
BLOCK_RECORD
  5
210
100
AcDbSymbolTableRecord
100
AcDbBlockTableRecord
  2
*Model_Space
  0
BLOCK_RECORD
  5
211
100
AcDbSymbolTableRecord
100
AcDbBlockTableRecord
  2
*Paper_Space
  0
BLOCK_RECORD
  5
212
100
AcDbSymbolTableRecord
100
AcDbBlockTableRecord
  2
_FILLED
  0
ENDTAB
  0
TABLE
  2
DIMSTYLE
  5
A
100
AcDbSymbolTable
 70
1
100
AcDbDimStyleTable
 71
0
  0
DIMSTYLE
105
213
100
AcDbSymbolTableRecord
100
AcDbDimStyleTableRecord
  2
STANDARD
 70
0
  3

  4

 40
1.0
 41
4.4031297929
 42
1.0
 43
0.38
 44
1.0
 45
0.0
 46
0.0
 47
0.01
 48
0.01
140
6.1643817101
141
0.09
142
0.0
143
25.4
144
1.0
145
0.0
146
1.0
147
0.625
 71
1
 72
0
 73
0
 74
0
 75
0
 76
0
 77
1
 78
8
 79
2
170
0
171
1
172
0
173
0
174
0
175
0
176
0
177
0
178
0
270
2
179
2
271
2
272
2
273
2
274
2
275
0
280
0
281
0
282
0
283
1
284
8
285
0
286
0
287
3
288
0
340
11
278
46
341
212
342
212
343
212
344
212
  0
ENDTAB
  0
ENDSEC
  0
SECTION
  2
BLOCKS
  0
BLOCK
  5
20
100
AcDbEntity
  8
0
100
AcDbBlockBegin
  2
*Model_Space
 70
0
 10
0.0
 20
0.0
 30
0.0
  3
*Model_Space
  1

  0
ENDBLK
  5
21
100
AcDbEntity
  8
0
100
AcDbBlockEnd
  0
BLOCK
  5
1C
100
AcDbEntity
  8
0
100
AcDbBlockBegin
  2
*Paper_Space
 70
0
 10
0.0
 20
0.0
 30
0.0
  3
*Paper_Space
  1

  0
ENDBLK
  5
1D
100
AcDbEntity
  8
0
100
AcDbBlockEnd
  0
BLOCK
  5
214
100
AcDbEntity
  8
0
100
AcDbBlockBegin
  2
_FILLED
 70
64
 10
0.0
 20
0.0
  3
_FILLED
  1

  0
SOLID
  5
215
100
AcDbEntity
  8
0
  6
BYBLOCK
 62
0
100
AcDbTrace
 10
0.0
 20
0.0
 11
-1.0
 21
0.25
 12
-1.0
 22
-0.25
 13
-1.0
 23
-0.25
  0
ENDBLK
  5
216
100
AcDbEntity
  8
0
  6
BYBLOCK
 62
0
100
AcDbBlockEnd
  0
ENDSEC
  0
SECTION
  2
ENTITIES
  0
LINE
  5
217
100
AcDbEntity
  8
0
100
AcDbLine
 62
7
  6
CONTINUOUS
 10
51.9268554638
 20
389.7788141297
 11
51.512564852
 21
388.8634037887
  0
LINE
  5
218
100
AcDbEntity
  8
0
100
AcDbLine
 62
7
  6
CONTINUOUS
 10
195.8224210009
 20
483.0895781742
 11
197.2366286753
 21
483.906066482
  0
LINE
  5
219
100
AcDbEntity
  8
0
100
AcDbLine
 62
7
  6
CONTINUOUS
 10
196.8224177041
 20
482.9905308815
 11
198.2366253785
 21
483.8070191893
  0
LINE
  5
21A
100
AcDbEntity
  8
0
100
AcDbLine
 62
7
  6
CONTINUOUS
 10
103.8989214805
 20
419.7848850277
 11
51.9267847249
 21
389.7789369928
  0
LINE
  5
21B
100
AcDbEntity
  8
0
100
AcDbLine
 62
7
  6
CONTINUOUS
 10
200.3579678366
 20
475.2338099031
 11
201.772175511
 21
476.0502982109
  0
LINE
  5
21C
100
AcDbEntity
  8
0
100
AcDbLine
 62
7
  6
CONTINUOUS
 10
52.8035267871
 20
389.7448380911
 11
104.7756635428
 21
419.750786126
  0
LINE
  5
21D
100
AcDbEntity
  8
0
100
AcDbLine
 62
7
  6
CONTINUOUS
 10
113.8818174111
 20
424.4997598601
 11
62.1222411786
 21
394.6165329679
  0
LINE
  5
21E
100
AcDbEntity
  8
0
100
AcDbLine
 62
7
  6
CONTINUOUS
 10
63.0876046149
 20
394.8631051107
 11
114.3526361003
 21
424.4608081644
  0
LINE
  5
21F
100
AcDbEntity
  8
0
100
AcDbLine
 62
7
  6
CONTINUOUS
 10
201.772175511
 20
473.8657918097
 11
200.3579678366
 21
473.0493035019
  0
LINE
  5
220
100
AcDbEntity
  8
0
100
AcDbLine
 62
7
  6
CONTINUOUS
 10
208.6884685599
 20
475.8612431281
 11
117.0062262685
 21
422.9287918253
  0
LINE
  5
221
100
AcDbEntity
  8
0
100
AcDbLine
 62
7
  6
CONTINUOUS
 10
117.2342399948
 20
422.7971510172
 11
209.1577388326
 21
475.8688910205
  0
LINE
  5
222
100
AcDbEntity
  8
0
100
AcDbLine
 62
7
  6
CONTINUOUS
 10
61.2598795092
 20
388.426115841
 11
58.688696151
 21
386.9416512981
  0
LINE
  5
223
100
AcDbEntity
  8
0
100
AcDbLine
 62
7
  6
CONTINUOUS
 10
188.4251750034
 20
76.6882040386
 11
185.6657082611
 21
76.4843756468
  0
LINE
  5
224
100
AcDbEntity
  8
0
100
AcDbLine
 62
7
  6
CONTINUOUS
 10
188.5228495948
 20
77.6163556477
 11
185.7812524514
 21
77.4138533583
  0
LINE
  5
225
100
AcDbEntity
  8
0
100
AcDbLine
 62
7
  6
CONTINUOUS
 10
189.1073529766
 20
76.3917534314
 11
189.3773745384
 21
76.2925679589
  0
LINE
  5
226
100
AcDbEntity
  8
0
100
AcDbLine
 62
7
  6
CONTINUOUS
 10
195.0492669884
 20
95.7571407361
 11
195.0495044169
 21
95.7571653527
  0
LINE
  5
227
100
AcDbEntity
  8
0
100
AcDbLine
 62
7
  6
CONTINUOUS
 10
201.8683381287
 20
98.6255866903
 11
201.1113136458
 21
98.7376944897
  0
LINE
  5
228
100
AcDbEntity
  8
0
100
AcDbLine
 62
7
  6
CONTINUOUS
 10
223.1691800765
 20
57.6137399374
 11
224.2469346571
 21
57.11845279
  0
LINE
  5
229
100
AcDbEntity
  8
0
100
AcDbLine
 62
7
  6
CONTINUOUS
 10
189.2279132694
 20
77.2092961543
 11
190.3056678501
 21
76.7140090069
  0
LINE
  5
22A
100
AcDbEntity
  8
0
100
AcDbLine
 62
7
  6
CONTINUOUS
 10
203.7059838375
 20
66.8122876471
 11
201.0115065889
 21
68.3679113561
  0
LINE
  5
22B
100
AcDbEntity
  8
0
100
AcDbLine
 62
7
  6
CONTINUOUS
 10
250.2442604791
 20
40.5632874215
 11
243.4110519995
 21
44.5083529273
  0
LINE
  5
22C
100
AcDbEntity
  8
0
100
AcDbLine
 62
7
  6
CONTINUOUS
 10
222.82991503
 20
56.3906090843
 11
204.005601711
 21
67.2585855799
  0
LINE
  5
22D
100
AcDbEntity
  8
0
100
AcDbLine
 62
7
  6
CONTINUOUS
 10
181.140652133
 20
80.4593717321
 11
126.6227989359
 21
111.9345568873
  0
LINE
  5
22E
100
AcDbEntity
  8
0
100
AcDbLine
 62
7
  6
CONTINUOUS
 10
220.1721742721
 20
58.5135785363
 11
223.3186424433
 21
56.6970074155
  0
LINE
  5
22F
100
AcDbEntity
  8
0
100
AcDbLine
 62
7
  6
CONTINUOUS
 10
229.0465779354
 20
53.390060823
 11
229.572677538
 21
53.0863242865
  0
LINE
  5
230
100
AcDbEntity
  8
0
100
AcDbLine
 62
7
  6
CONTINUOUS
 10
188.8512752552
 20
76.5963049894
 11
189.3773745384
 21
76.2925679589
  0
LINE
  5
231
100
AcDbEntity
  8
0
100
AcDbLine
 62
7
  6
CONTINUOUS
 10
195.1053065528
 20
72.985615989
 11
198.2517728136
 21
71.1690419143
  0
LINE
  5
232
100
AcDbEntity
  8
0
100
AcDbLine
 62
7
  6
CONTINUOUS
 10
238.0955465053
 20
48.9961932166
 11
237.2827463081
 21
49.4654530132
  0
LINE
  5
233
100
AcDbEntity
  8
0
100
AcDbLine
 62
7
  6
CONTINUOUS
 10
230.6832060651
 20
53.2756131517
 11
229.9781423905
 21
53.6826726451
  0
LINE
  5
234
100
AcDbEntity
  8
0
100
AcDbLine
 62
7
  6
CONTINUOUS
 10
223.1691800765
 20
57.6137399374
 11
220.5632285592
 21
59.1182527107
  0
LINE
  5
235
100
AcDbEntity
  8
0
100
AcDbLine
 62
7
  6
CONTINUOUS
 10
198.6428271007
 20
71.7737160887
 11
196.0368755834
 21
73.2782288621
  0
LINE
  5
236
100
AcDbEntity
  8
0
100
AcDbLine
 62
7
  6
CONTINUOUS
 10
189.2279132694
 20
77.2092961543
 11
188.5228495948
 21
77.6163556477
  0
LINE
  5
237
100
AcDbEntity
  8
0
100
AcDbLine
 62
7
  6
CONTINUOUS
 10
181.9233093518
 20
81.4265157863
 11
181.1105091546
 21
81.8957755828
  0
LINE
  5
238
100
AcDbEntity
  8
0
100
AcDbLine
 62
7
  6
CONTINUOUS
 10
193.7925425126
 20
74.7008942881
 11
193.8089620995
 21
74.6914146496
  0
LINE
  5
239
100
AcDbEntity
  8
0
100
AcDbLine
 62
7
  6
CONTINUOUS
 10
227.7338093197
 20
55.1053380711
 11
227.7502289066
 21
55.0958584327
  0
LINE
  5
23A
100
AcDbEntity
  8
0
100
AcDbLine
 62
7
  6
CONTINUOUS
 10
118.5197572865
 20
118.158686191
 11
190.318379983
 21
76.7066575833
  0
LINE
  5
23B
100
AcDbEntity
  8
0
100
AcDbLine
 62
7
  6
CONTINUOUS
 10
193.8126695534
 20
74.6892864348
 11
224.2596467901
 21
57.1111013663
  0
LINE
  5
23C
100
AcDbEntity
  8
0
100
AcDbLine
 62
7
  6
CONTINUOUS
 10
227.7539363605
 20
55.0937302178
 11
244.3852883626
 21
45.4918318864
  0
LINE
  5
23D
100
AcDbEntity
  8
0
100
AcDbLine
 62
7
  6
CONTINUOUS
 10
243.8458688994
 20
46.6656782167
 11
117.9803378233
 21
119.3325325213
  0
LINE
  5
23E
100
AcDbEntity
  8
0
100
AcDbLine
 62
7
  6
CONTINUOUS
 10
153.5903974451
 20
102.199667497
 11
153.7026980079
 21
102.1348322036
  0
LINE
  5
23F
100
AcDbEntity
  8
0
100
AcDbLine
 62
7
  6
CONTINUOUS
 10
193.8126695534
 20
74.6892864348
 11
196.0368755834
 21
73.2782288621
  0
LINE
  5
240
100
AcDbEntity
  8
0
100
AcDbLine
 62
7
  6
CONTINUOUS
 10
188.5631676088
 20
72.6790643827
 11
188.0687338219
 21
73.0167939016
  0
LINE
  5
241
100
AcDbEntity
  8
0
100
AcDbLine
 62
7
  6
CONTINUOUS
 10
182.614522798
 20
77.3735481688
 11
183.1089565849
 21
77.0358186499
  0
LINE
  5
242
100
AcDbEntity
  8
0
100
AcDbLine
 62
7
  6
CONTINUOUS
 10
183.6506304983
 20
77.8733882358
 11
183.2386032059
 21
78.1548289195
  0
LINE
  5
243
100
AcDbEntity
  8
0
100
AcDbLine
 62
7
  6
CONTINUOUS
 10
124.5917299847
 20
113.3084738044
 11
118.5197572865
 21
118.158686191
  0
LINE
  5
244
100
AcDbEntity
  8
0
100
AcDbLine
 62
7
  6
CONTINUOUS
 10
179.7534572755
 20
97.7092910025
 11
179.8657578384
 21
97.644455709
  0
LINE
  5
245
100
AcDbEntity
  8
0
100
AcDbLine
 62
7
  6
CONTINUOUS
 10
88.5577734093
 20
157.2387817736
 11
195.0493866199
 21
95.757211119
  0
LINE
  5
246
100
AcDbEntity
  8
0
100
AcDbLine
 62
7
  6
CONTINUOUS
 10
195.0451346461
 20
95.8547922462
 11
88.2469388137
 21
157.5133644558
  0
LINE
  5
247
100
AcDbEntity
  8
0
100
AcDbLine
 62
7
  6
CONTINUOUS
 10
227.7539363605
 20
55.0937302178
 11
229.9781423905
 21
53.6826726451
  0
LINE
  5
248
100
AcDbEntity
  8
0
100
AcDbLine
 62
7
  6
CONTINUOUS
 10
238.060848369
 20
44.1022115663
 11
237.5662190215
 21
44.4396959023
  0
LINE
  5
249
100
AcDbEntity
  8
0
100
AcDbLine
 62
7
  6
CONTINUOUS
 10
232.1120079976
 20
48.7964501695
 11
232.6066373452
 21
48.4589658335
  0
LINE
  5
24A
100
AcDbEntity
  8
0
100
AcDbLine
 62
7
  6
CONTINUOUS
 10
233.1483087319
 20
49.2965368782
 11
232.7361184686
 21
49.5777732383
  0
LINE
  5
24B
100
AcDbEntity
  8
0
100
AcDbLine
 62
7
  6
CONTINUOUS
 10
229.572677538
 20
53.0863242865
 11
229.6551091003
 21
53.0300814411
  0
LINE
  5
24C
100
AcDbEntity
  8
0
100
AcDbLine
 62
7
  6
CONTINUOUS
 10
182.6142917736
 20
77.3732585654
 11
188.0685027975
 21
73.0165042982
  0
LINE
  5
24D
100
AcDbEntity
  8
0
100
AcDbLine
 62
7
  6
CONTINUOUS
 10
185.6657082611
 20
76.4843756468
 11
189.5168625427
 21
73.4081226788
  0
LINE
  5
24E
100
AcDbEntity
  8
0
100
AcDbLine
 62
7
  6
CONTINUOUS
 10
186.551067887
 20
77.4707141515
 11
181.9055413226
 21
81.1815015768
  0
LINE
  5
24F
100
AcDbEntity
  8
0
100
AcDbLine
 62
7
  6
CONTINUOUS
 10
186.8481039931
 20
77.4926540968
 11
181.9233093518
 21
81.4265157863
  0
LINE
  5
250
100
AcDbEntity
  8
0
100
AcDbLine
 62
7
  6
CONTINUOUS
 10
188.9589520097
 20
76.2618379622
 11
188.4251750034
 21
76.6882040386
  0
LINE
  5
251
100
AcDbEntity
  8
0
100
AcDbLine
 62
7
  6
CONTINUOUS
 10
189.1073529766
 20
76.3917534314
 11
188.8512975109
 21
76.5962921403
  0
LINE
  5
252
100
AcDbEntity
  8
0
100
AcDbLine
 62
7
  6
CONTINUOUS
 10
198.2517728136
 20
71.1690419143
 11
203.7059838375
 21
66.8122876471
  0
LINE
  5
253
100
AcDbEntity
  8
0
100
AcDbLine
 62
7
  6
CONTINUOUS
 10
204.0970389039
 20
67.4169630265
 11
198.6428271007
 21
71.7737160887
  0
LINE
  5
254
100
AcDbEntity
  8
0
100
AcDbLine
 62
7
  6
CONTINUOUS
 10
237.5661835578
 20
44.4396514818
 11
232.1119725339
 21
48.796405749
  0
LINE
  5
255
100
AcDbEntity
  8
0
100
AcDbLine
 62
7
  6
CONTINUOUS
 10
222.8480867702
 20
56.3760937298
 11
220.1721742721
 21
58.5135785363
  0
LINE
  5
256
100
AcDbEntity
  8
0
100
AcDbLine
 62
7
  6
CONTINUOUS
 10
231.7433880815
 20
50.8782045727
 11
233.9887284251
 21
49.0846553167
  0
LINE
  5
257
100
AcDbEntity
  8
0
100
AcDbLine
 62
7
  6
CONTINUOUS
 10
51.5054985341
 20
355.6496414435
 11
51.5054985341
 21
201.1673849596
  0
LINE
  5
258
100
AcDbEntity
  8
0
100
AcDbLine
 62
7
  6
CONTINUOUS
 10
51.509031693
 20
355.6516813016
 11
51.512564852
 21
388.869158384
  0
LINE
  5
259
100
AcDbEntity
  8
0
100
AcDbLine
 62
7
  6
CONTINUOUS
 10
61.7037893137
 20
394.0290459377
 11
61.2598572939
 21
388.4261543194
  0
LINE
  5
25A
100
AcDbEntity
  8
0
100
AcDbLine
 62
7
  6
CONTINUOUS
 10
233.9862439039
 20
105.4245483894
 11
234.0060886561
 21
105.4149882584
  0
LINE
  5
25B
100
AcDbEntity
  8
0
100
AcDbLine
 62
7
  6
CONTINUOUS
 10
51.7269354835
 20
200.7001440692
 11
130.2544376299
 21
155.3632952228
  0
LINE
  5
25C
100
AcDbEntity
  8
0
100
AcDbLine
 62
7
  6
CONTINUOUS
 10
130.2544376299
 20
155.7026923231
 11
51.5054985341
 21
201.1673849596
  0
LINE
  5
25D
100
AcDbEntity
  8
0
100
AcDbLine
 62
7
  6
CONTINUOUS
 10
236.1374161062
 20
48.9188611068
 11
235.8363615382
 21
49.1593395803
  0
LINE
  5
25E
100
AcDbEntity
  8
0
100
AcDbLine
 62
7
  6
CONTINUOUS
 10
231.1091665854
 20
52.935361428
 11
230.6832060651
 21
53.2756131517
  0
LINE
  5
25F
100
AcDbEntity
  8
0
100
AcDbLine
 62
7
  6
CONTINUOUS
 10
242.7549901662
 20
44.1528258706
 11
237.3007791424
 21
48.5095801378
  0
LINE
  5
260
100
AcDbEntity
  8
0
100
AcDbLine
 62
7
  6
CONTINUOUS
 10
237.9733354583
 20
48.8936771228
 11
243.4275464821
 21
44.5369228556
  0
LINE
  5
261
100
AcDbEntity
  8
0
100
AcDbLine
 62
7
  6
CONTINUOUS
 10
243.5497586977
 20
44.6394399297
 11
238.0955465053
 21
48.9961932166
  0
LINE
  5
262
100
AcDbEntity
  8
0
100
AcDbLine
 62
7
  6
CONTINUOUS
 10
244.3852883626
 20
45.4918318863
 11
250.4572671757
 21
40.6416146154
  0
LINE
  5
263
100
AcDbEntity
  8
0
100
AcDbLine
 62
7
  6
CONTINUOUS
 10
251.8418535211
 20
41.4410011429
 11
245.0719524964
 21
46.848712962
  0
LINE
  5
264
100
AcDbEntity
  8
0
100
AcDbLine
 62
7
  6
CONTINUOUS
 10
244.9874503562
 20
47.9437343301
 11
250.4416613801
 21
43.586980063
  0
LINE
  5
265
100
AcDbEntity
  8
0
100
AcDbLine
 62
7
  6
CONTINUOUS
 10
244.9065259141
 20
51.49113058
 11
249.4741838146
 21
47.8425436511
  0
LINE
  5
266
100
AcDbEntity
  8
0
100
AcDbLine
 62
7
  6
CONTINUOUS
 10
248.9834855141
 20
48.6467830972
 11
244.9065258844
 21
51.9034064999
  0
LINE
  5
267
100
AcDbEntity
  8
0
100
AcDbLine
 62
7
  6
CONTINUOUS
 10
233.9867139968
 20
105.4248729625
 11
234.0060886561
 21
105.4149882584
  0
LINE
  5
268
100
AcDbEntity
  8
0
100
AcDbLine
 62
7
  6
CONTINUOUS
 10
197.5611430798
 20
120.3691841343
 11
181.8381684099
 21
129.4466424329
  0
LINE
  5
269
100
AcDbEntity
  8
0
100
AcDbLine
 62
7
  6
CONTINUOUS
 10
220.3983091408
 20
109.3238065821
 11
232.5321132971
 21
102.3185099672
  0
LINE
  5
26A
100
AcDbEntity
  8
0
100
AcDbLine
 62
7
  6
CONTINUOUS
 10
197.0788885465
 20
125.3510936866
 11
185.9115650624
 21
131.7984050486
  0
LINE
  5
26B
100
AcDbEntity
  8
0
100
AcDbLine
 62
7
  6
CONTINUOUS
 10
186.039864912
 20
131.8724785591
 11
196.977212861
 21
125.5579406305
  0
LINE
  5
26C
100
AcDbEntity
  8
0
100
AcDbLine
 62
7
  6
CONTINUOUS
 10
231.1031843456
 20
107.2061780658
 11
223.9167558658
 21
111.3551706204
  0
LINE
  5
26D
100
AcDbEntity
  8
0
100
AcDbLine
 62
7
  6
CONTINUOUS
 10
233.3523844511
 20
106.201738322
 11
233.4836322761
 21
106.1259640692
  0
LINE
  5
26E
100
AcDbEntity
  8
0
100
AcDbLine
 62
7
  6
CONTINUOUS
 10
224.9774062268
 20
111.9675337364
 11
231.1656927792
 21
108.3948056555
  0
LINE
  5
26F
100
AcDbEntity
  8
0
100
AcDbLine
 62
7
  6
CONTINUOUS
 10
231.8383738739
 20
109.6394195272
 11
226.3916266135
 21
112.7840293836
  0
LINE
  5
270
100
AcDbEntity
  8
0
100
AcDbLine
 62
7
  6
CONTINUOUS
 10
196.2762937076
 20
137.3107217925
 11
195.8677608129
 21
137.5465830333
  0
LINE
  5
271
100
AcDbEntity
  8
0
100
AcDbLine
 62
7
  6
CONTINUOUS
 10
242.4334440642
 20
112.5041284475
 11
234.1700626858
 21
117.274884737
  0
LINE
  5
272
100
AcDbEntity
  8
0
100
AcDbLine
 62
7
  6
CONTINUOUS
 10
321.2737230029
 20
158.024410482
 11
322.2737040874
 21
157.9253977425
  0
LINE
  5
273
100
AcDbEntity
  8
0
100
AcDbLine
 62
7
  6
CONTINUOUS
 10
243.4940967011
 20
113.1164928776
 11
235.2307153228
 21
117.8872491672
  0
LINE
  5
274
100
AcDbEntity
  8
0
100
AcDbLine
 62
7
  6
CONTINUOUS
 10
149.875723711
 20
185.1148057236
 11
139.5467064756
 21
191.0781316965
  0
LINE
  5
275
100
AcDbEntity
  8
0
100
AcDbLine
 62
7
  6
CONTINUOUS
 10
130.2545346782
 20
136.0451793717
 11
130.3548266395
 21
135.8024210364
  0
LINE
  5
276
100
AcDbEntity
  8
0
100
AcDbLine
 62
7
  6
CONTINUOUS
 10
117.9803378233
 20
140.2520405804
 11
117.9803378233
 21
119.3325325213
  0
LINE
  5
277
100
AcDbEntity
  8
0
100
AcDbLine
 62
7
  6
CONTINUOUS
 10
195.8224426938
 20
483.0895406007
 11
195.4082004455
 21
482.1740287554
  0
LINE
  5
278
100
AcDbEntity
  8
0
100
AcDbLine
 62
7
  6
CONTINUOUS
 10
308.9384125848
 20
418.2617954164
 11
217.0149137469
 21
365.1900554131
  0
LINE
  5
279
100
AcDbEntity
  8
0
100
AcDbLine
 62
7
  6
CONTINUOUS
 10
308.9384125848
 20
418.2076667721
 11
217.0149137469
 21
365.1359267688
  0
LINE
  5
27A
100
AcDbEntity
  8
0
100
AcDbLine
 62
7
  6
CONTINUOUS
 10
218.3306548225
 20
364.430429134
 11
309.599692914
 21
417.1243183047
  0
LINE
  5
27B
100
AcDbEntity
  8
0
100
AcDbLine
 62
7
  6
CONTINUOUS
 10
219.8634165015
 20
363.5455087856
 11
168.5983850161
 21
333.9478057319
  0
LINE
  5
27C
100
AcDbEntity
  8
0
100
AcDbLine
 62
7
  6
CONTINUOUS
 10
168.5983902099
 20
332.3890865949
 11
220.5678355185
 21
362.3934807314
  0
LINE
  5
27D
100
AcDbEntity
  8
0
100
AcDbLine
 62
7
  6
CONTINUOUS
 10
164.0845594756
 20
189.5130191404
 11
153.0859023231
 21
195.8629531535
  0
LINE
  5
27E
100
AcDbEntity
  8
0
100
AcDbLine
 62
7
  6
CONTINUOUS
 10
142.2958203199
 20
202.0924689721
 11
132.2646231084
 21
207.8838523638
  0
LINE
  5
27F
100
AcDbEntity
  8
0
100
AcDbLine
 62
7
  6
CONTINUOUS
 10
132.2646231084
 20
208.1179605013
 11
135.1432308564
 21
206.4560331409
  0
LINE
  5
280
100
AcDbEntity
  8
0
100
AcDbLine
 62
7
  6
CONTINUOUS
 10
161.2059566909
 20
191.4090517728
 11
164.0845594756
 21
189.7471272779
  0
LINE
  5
281
100
AcDbEntity
  8
0
100
AcDbLine
 62
7
  6
CONTINUOUS
 10
161.719593716
 20
197.9657544536
 11
152.0374217173
 21
203.5634500221
  0
LINE
  5
282
100
AcDbEntity
  8
0
100
AcDbLine
 62
7
  6
CONTINUOUS
 10
133.3070230654
 20
208.4288889108
 11
133.2634418426
 21
208.5569894452
  0
LINE
  5
283
100
AcDbEntity
  8
0
100
AcDbLine
 62
7
  6
CONTINUOUS
 10
130.2544376299
 20
136.0451774611
 11
130.2544376299
 21
201.4525215775
  0
LINE
  5
284
100
AcDbEntity
  8
0
100
AcDbLine
 62
7
  6
CONTINUOUS
 10
130.3548266395
 20
200.8175643312
 11
130.3548266395
 21
135.8024210364
  0
LINE
  5
285
100
AcDbEntity
  8
0
100
AcDbLine
 62
7
  6
CONTINUOUS
 10
132.2646231084
 20
207.8838523638
 11
132.2646231084
 21
208.1179605013
  0
LINE
  5
286
100
AcDbEntity
  8
0
100
AcDbLine
 62
7
  6
CONTINUOUS
 10
132.5252453776
 20
197.3041974859
 11
132.5252453776
 21
133.846965086
  0
LINE
  5
287
100
AcDbEntity
  8
0
100
AcDbLine
 62
7
  6
CONTINUOUS
 10
133.2634309346
 20
208.556989453
 11
133.2634309346
 21
262.0315378959
  0
LINE
  5
288
100
AcDbEntity
  8
0
100
AcDbLine
 62
7
  6
CONTINUOUS
 10
133.3070230654
 20
261.8523654835
 11
133.3070230654
 21
208.4288889108
  0
LINE
  5
289
100
AcDbEntity
  8
0
100
AcDbLine
 62
7
  6
CONTINUOUS
 10
133.4651880946
 20
231.4848045568
 11
133.4651883896
 21
259.3275374038
  0
LINE
  5
28A
100
AcDbEntity
  8
0
100
AcDbLine
 62
7
  6
CONTINUOUS
 10
133.7849001506
 20
259.5121219733
 11
133.7848998556
 21
231.6693891263
  0
LINE
  5
28B
100
AcDbEntity
  8
0
100
AcDbLine
 62
7
  6
CONTINUOUS
 10
135.1432308564
 20
206.4560331409
 11
135.1432308564
 21
206.780480215
  0
LINE
  5
28C
100
AcDbEntity
  8
0
100
AcDbLine
 62
7
  6
CONTINUOUS
 10
135.7133383135
 20
258.9141413046
 11
135.7133383135
 21
257.9719265733
  0
LINE
  5
28D
100
AcDbEntity
  8
0
100
AcDbLine
 62
7
  6
CONTINUOUS
 10
135.7133383135
 20
228.4961879404
 11
135.7133383135
 21
206.3510716548
  0
LINE
  5
28E
100
AcDbEntity
  8
0
100
AcDbLine
 62
7
  6
CONTINUOUS
 10
313.4955238601
 20
409.9152891799
 11
314.9097315345
 21
410.7317774876
  0
LINE
  5
28F
100
AcDbEntity
  8
0
100
AcDbLine
 62
7
  6
CONTINUOUS
 10
221.0171596728
 20
356.2037108856
 11
169.0450229172
 21
326.1977628507
  0
LINE
  5
290
100
AcDbEntity
  8
0
100
AcDbLine
 62
7
  6
CONTINUOUS
 10
314.9097315345
 20
408.5472710864
 11
313.4955238601
 21
407.7307827787
  0
LINE
  5
291
100
AcDbEntity
  8
0
100
AcDbLine
 62
7
  6
CONTINUOUS
 10
322.6879363301
 20
411.956646783
 11
321.2737286556
 21
411.1401584753
  0
LINE
  5
292
100
AcDbEntity
  8
0
100
AcDbLine
 62
7
  6
CONTINUOUS
 10
310.6073738086
 20
403.2875770369
 11
222.7770363539
 21
352.5790107537
  0
LINE
  5
293
100
AcDbEntity
  8
0
100
AcDbLine
 62
7
  6
CONTINUOUS
 10
171.6161863102
 20
321.7444080244
 11
223.5883230659
 21
351.7503560593
  0
LINE
  5
294
100
AcDbEntity
  8
0
100
AcDbLine
 62
7
  6
CONTINUOUS
 10
322.6879509719
 20
408.6906694527
 11
324.1021586463
 21
409.5071577604
  0
LINE
  5
295
100
AcDbEntity
  8
0
100
AcDbLine
 62
7
  6
CONTINUOUS
 10
139.5477934409
 20
296.2546576791
 11
146.9723790113
 21
300.5412185695
  0
LINE
  5
296
100
AcDbEntity
  8
0
100
AcDbLine
 62
7
  6
CONTINUOUS
 10
139.5477934409
 20
296.2058495561
 11
139.4171242561
 21
296.1304081174
  0
LINE
  5
297
100
AcDbEntity
  8
0
100
AcDbLine
 62
7
  6
CONTINUOUS
 10
139.6615465279
 20
296.1350085207
 11
139.70829115
 21
296.1619963799
  0
LINE
  5
298
100
AcDbEntity
  8
0
100
AcDbLine
 62
7
  6
CONTINUOUS
 10
229.4734898618
 20
347.7580912257
 11
177.5013531062
 21
317.7521431908
  0
LINE
  5
299
100
AcDbEntity
  8
0
100
AcDbLine
 62
7
  6
CONTINUOUS
 10
230.4432377116
 20
346.5251759952
 11
315.1468359715
 21
395.4285293382
  0
LINE
  5
29A
100
AcDbEntity
  8
0
100
AcDbLine
 62
7
  6
CONTINUOUS
 10
178.7923153785
 20
315.3872177595
 11
230.7644521341
 21
345.3931657944
  0
LINE
  5
29B
100
AcDbEntity
  8
0
100
AcDbLine
 62
7
  6
CONTINUOUS
 10
160.8147065565
 20
197.286936788
 11
161.4476873298
 21
197.2836016921
  0
LINE
  5
29C
100
AcDbEntity
  8
0
100
AcDbLine
 62
7
  6
CONTINUOUS
 10
134.4920110137
 20
230.4446449935
 11
163.8370608562
 21
213.5026558465
  0
LINE
  5
29D
100
AcDbEntity
  8
0
100
AcDbLine
 62
7
  6
CONTINUOUS
 10
130.3548266395
 20
200.817581567
 11
130.254437771
 21
201.4525561674
  0
LINE
  5
29E
100
AcDbEntity
  8
0
100
AcDbLine
 62
7
  6
CONTINUOUS
 10
139.0386601738
 20
267.2378621723
 11
139.0386601738
 21
295.6809826119
  0
LINE
  5
29F
100
AcDbEntity
  8
0
100
AcDbLine
 62
7
  6
CONTINUOUS
 10
139.217871081
 20
295.4238560667
 11
139.217871081
 21
266.8560406329
  0
LINE
  5
2A0
100
AcDbEntity
  8
0
100
AcDbLine
 62
7
  6
CONTINUOUS
 10
139.5477934409
 20
296.2546576791
 11
139.5477934409
 21
296.205667012
  0
LINE
  5
2A1
100
AcDbEntity
  8
0
100
AcDbLine
 62
7
  6
CONTINUOUS
 10
141.3701699384
 20
294.1334347694
 11
141.3701699384
 21
264.8147427119
  0
LINE
  5
2A2
100
AcDbEntity
  8
0
100
AcDbLine
 62
7
  6
CONTINUOUS
 10
146.0425321124
 20
301.0739740998
 11
146.0425076496
 21
300.0043602931
  0
LINE
  5
2A3
100
AcDbEntity
  8
0
100
AcDbLine
 62
7
  6
CONTINUOUS
 10
146.9723790113
 20
300.5412185695
 11
146.9723790113
 21
300.709185608
  0
LINE
  5
2A4
100
AcDbEntity
  8
0
100
AcDbLine
 62
7
  6
CONTINUOUS
 10
149.6904820202
 20
217.4609407612
 11
149.6907998064
 21
204.0046452316
  0
LINE
  5
2A5
100
AcDbEntity
  8
0
100
AcDbLine
 62
7
  6
CONTINUOUS
 10
151.2574981614
 20
217.4944836173
 11
151.257791336
 21
204.9093428128
  0
LINE
  5
2A6
100
AcDbEntity
  8
0
100
AcDbLine
 62
7
  6
CONTINUOUS
 10
154.0853828061
 20
101.4720567918
 11
154.0853828061
 21
101.3423522152
  0
LINE
  5
2A7
100
AcDbEntity
  8
0
100
AcDbLine
 62
7
  6
CONTINUOUS
 10
146.0460652713
 20
301.2439809965
 11
146.0425321124
 21
301.0739740998
  0
LINE
  5
2A8
100
AcDbEntity
  8
0
100
AcDbLine
 62
7
  6
CONTINUOUS
 10
321.9808412468
 20
390.7929250931
 11
230.7644521341
 21
338.1294326431
  0
LINE
  5
2A9
100
AcDbEntity
  8
0
100
AcDbLine
 62
7
  6
CONTINUOUS
 10
230.7644521341
 20
336.4964419182
 11
322.6879509719
 21
389.5681819215
  0
LINE
  5
2AA
100
AcDbEntity
  8
0
100
AcDbLine
 62
7
  6
CONTINUOUS
 10
163.252966058
 20
213.1654305705
 11
163.9340222111
 21
213.2204374892
  0
LINE
  5
2AB
100
AcDbEntity
  8
0
100
AcDbLine
 62
7
  6
CONTINUOUS
 10
150.480886207
 20
217.9172936252
 11
149.9150783474
 21
217.9773727068
  0
LINE
  5
2AC
100
AcDbEntity
  8
0
100
AcDbLine
 62
7
  6
CONTINUOUS
 10
136.1617908692
 20
258.5849706702
 11
135.994690226
 21
258.7072077725
  0
LINE
  5
2AD
100
AcDbEntity
  8
0
100
AcDbLine
 62
7
  6
CONTINUOUS
 10
136.1592945539
 20
258.5849233668
 11
135.994690226
 21
258.7072077725
  0
LINE
  5
2AE
100
AcDbEntity
  8
0
100
AcDbLine
 62
7
  6
CONTINUOUS
 10
229.8536429191
 20
52.7700080373
 11
230.9207306705
 21
50.3569673575
  0
LINE
  5
2AF
100
AcDbEntity
  8
0
100
AcDbLine
 62
7
  6
CONTINUOUS
 10
231.7433894332
 20
50.878201516
 11
230.6832060651
 21
53.2756131517
  0
LINE
  5
2B0
100
AcDbEntity
  8
0
100
AcDbLine
 62
7
  6
CONTINUOUS
 10
196.1163681567
 20
137.6901156934
 11
196.2762937076
 21
137.3107217925
  0
LINE
  5
2B1
100
AcDbEntity
  8
0
100
AcDbLine
 62
7
  6
CONTINUOUS
 10
157.962360196
 20
182.6169133334
 11
157.962360196
 21
119.1606924394
  0
LINE
  5
2B2
100
AcDbEntity
  8
0
100
AcDbLine
 62
7
  6
CONTINUOUS
 10
160.462178799
 20
244.6256939213
 11
160.462178799
 21
243.6834994922
  0
LINE
  5
2B3
100
AcDbEntity
  8
0
100
AcDbLine
 62
7
  6
CONTINUOUS
 10
160.462178799
 20
214.2077614714
 11
160.462178799
 21
212.7061009156
  0
LINE
  5
2B4
100
AcDbEntity
  8
0
100
AcDbLine
 62
7
  6
CONTINUOUS
 10
160.462178799
 20
197.4485133574
 11
160.462178799
 21
192.0626451858
  0
LINE
  5
2B5
100
AcDbEntity
  8
0
100
AcDbLine
 62
7
  6
CONTINUOUS
 10
161.2059566909
 20
191.7334988468
 11
161.2059566909
 21
191.4090517728
  0
LINE
  5
2B6
100
AcDbEntity
  8
0
100
AcDbLine
 62
7
  6
CONTINUOUS
 10
161.2405900482
 20
182.9279135501
 11
161.2405900482
 21
117.9524151392
  0
LINE
  5
2B7
100
AcDbEntity
  8
0
100
AcDbLine
 62
7
  6
CONTINUOUS
 10
161.719593716
 20
211.2765383272
 11
161.719593716
 21
197.8173978235
  0
LINE
  5
2B8
100
AcDbEntity
  8
0
100
AcDbLine
 62
7
  6
CONTINUOUS
 10
162.3847910489
 20
118.0856340182
 11
162.3847910489
 21
184.7022770229
  0
LINE
  5
2B9
100
AcDbEntity
  8
0
100
AcDbLine
 62
7
  6
CONTINUOUS
 10
164.0845594756
 20
189.7471272779
 11
164.0845594756
 21
189.5130191404
  0
LINE
  5
2BA
100
AcDbEntity
  8
0
100
AcDbLine
 62
7
  6
CONTINUOUS
 10
164.2244618099
 20
213.7263331449
 11
164.2244634798
 21
241.5690657637
  0
LINE
  5
2BB
100
AcDbEntity
  8
0
100
AcDbLine
 62
7
  6
CONTINUOUS
 10
164.6237054199
 20
243.7724135864
 11
164.6237054199
 21
190.3488219514
  0
LINE
  5
2BC
100
AcDbEntity
  8
0
100
AcDbLine
 62
7
  6
CONTINUOUS
 10
165.2101394999
 20
190.3969773288
 11
165.2101394999
 21
244.0093046812
  0
LINE
  5
2BD
100
AcDbEntity
  8
0
100
AcDbLine
 62
7
  6
CONTINUOUS
 10
166.1190104239
 20
279.8448703268
 11
166.1190104239
 21
250.5263162429
  0
LINE
  5
2BE
100
AcDbEntity
  8
0
100
AcDbLine
 62
7
  6
CONTINUOUS
 10
169.6547079696
 20
277.8516684484
 11
169.6547079696
 21
249.283722201
  0
LINE
  5
2BF
100
AcDbEntity
  8
0
100
AcDbLine
 62
7
  6
CONTINUOUS
 10
171.2335656094
 20
249.3967476209
 11
171.2335656094
 21
277.7575561197
  0
LINE
  5
2C0
100
AcDbEntity
  8
0
100
AcDbLine
 62
7
  6
CONTINUOUS
 10
171.3677298082
 20
277.834831976
 11
171.3677298082
 21
277.8838244557
  0
LINE
  5
2C1
100
AcDbEntity
  8
0
100
AcDbLine
 62
7
  6
CONTINUOUS
 10
149.9150783474
 20
217.9773727068
 11
149.6904191778
 21
217.4609044794
  0
LINE
  5
2C2
100
AcDbEntity
  8
0
100
AcDbLine
 62
7
  6
CONTINUOUS
 10
137.2745773679
 20
266.5326060406
 11
139.0386601738
 21
267.551093644
  0
LINE
  5
2C3
100
AcDbEntity
  8
0
100
AcDbLine
 62
7
  6
CONTINUOUS
 10
133.4651883896
 20
259.3275374038
 11
133.7849001506
 21
259.5121219733
  0
LINE
  5
2C4
100
AcDbEntity
  8
0
100
AcDbLine
 62
7
  6
CONTINUOUS
 10
171.2072261905
 20
277.9764891662
 11
171.1604815683
 21
277.9495013071
  0
LINE
  5
2C5
100
AcDbEntity
  8
0
100
AcDbLine
 62
7
  6
CONTINUOUS
 10
178.7923153785
 20
282.170385346
 11
171.3677298082
 21
277.8838244557
  0
LINE
  5
2C6
100
AcDbEntity
  8
0
100
AcDbLine
 62
7
  6
CONTINUOUS
 10
171.2335656094
 20
277.7575561197
 11
171.3677298082
 21
277.8350153936
  0
LINE
  5
2C7
100
AcDbEntity
  8
0
100
AcDbLine
 62
7
  6
CONTINUOUS
 10
133.9079167614
 20
259.5831589286
 11
133.5890225849
 21
259.7372431895
  0
LINE
  5
2C8
100
AcDbEntity
  8
0
100
AcDbLine
 62
7
  6
CONTINUOUS
 10
147.6823939053
 20
250.7234770869
 11
147.5831292009
 21
250.7761384974
  0
LINE
  5
2C9
100
AcDbEntity
  8
0
100
AcDbLine
 62
7
  6
CONTINUOUS
 10
147.6811910946
 20
250.7196624052
 11
147.5831292009
 21
250.7761384974
  0
LINE
  5
2CA
100
AcDbEntity
  8
0
100
AcDbLine
 62
7
  6
CONTINUOUS
 10
160.1297776922
 20
244.7728834677
 11
135.9961117124
 21
258.7061468051
  0
LINE
  5
2CB
100
AcDbEntity
  8
0
100
AcDbLine
 62
7
  6
CONTINUOUS
 10
309.271167504
 20
164.9539323635
 11
312.4348549839
 21
163.1274178666
  0
LINE
  5
2CC
100
AcDbEntity
  8
0
100
AcDbLine
 62
7
  6
CONTINUOUS
 10
318.7988448705
 20
159.4532497133
 11
321.2737230029
 21
158.024410482
  0
LINE
  5
2CD
100
AcDbEntity
  8
0
100
AcDbLine
 62
7
  6
CONTINUOUS
 10
168.9068086509
 20
247.706526108
 11
137.0868722837
 21
266.0773593314
  0
LINE
  5
2CE
100
AcDbEntity
  8
0
100
AcDbLine
 62
7
  6
CONTINUOUS
 10
169.0953986031
 20
248.162283693
 11
156.4559330801
 21
255.4595174296
  0
LINE
  5
2CF
100
AcDbEntity
  8
0
100
AcDbLine
 62
7
  6
CONTINUOUS
 10
149.9149276536
 20
259.2358832406
 11
137.2754622359
 21
266.5331169164
  0
LINE
  5
2D0
100
AcDbEntity
  8
0
100
AcDbLine
 62
7
  6
CONTINUOUS
 10
156.4566035322
 20
255.4619023051
 11
156.4163737403
 21
255.5029242159
  0
LINE
  5
2D1
100
AcDbEntity
  8
0
100
AcDbLine
 62
7
  6
CONTINUOUS
 10
189.2279132694
 20
77.2092961543
 11
189.3773745384
 21
76.2925679589
  0
LINE
  5
2D2
100
AcDbEntity
  8
0
100
AcDbLine
 62
7
  6
CONTINUOUS
 10
169.0450229172
 20
326.1977628507
 11
168.601090579
 21
332.3132564742
  0
LINE
  5
2D3
100
AcDbEntity
  8
0
100
AcDbLine
 62
7
  6
CONTINUOUS
 10
178.7923153785
 20
315.3872177595
 11
178.7923153785
 21
282.170385346
  0
LINE
  5
2D4
100
AcDbEntity
  8
0
100
AcDbLine
 62
7
  6
CONTINUOUS
 10
180.2484426366
 20
96.9816802973
 11
180.2484426366
 21
96.8519757206
  0
LINE
  5
2D5
100
AcDbEntity
  8
0
100
AcDbLine
 62
7
  6
CONTINUOUS
 10
142.2830143088
 20
249.1865061262
 11
143.2057096233
 21
249.8046616886
  0
LINE
  5
2D6
100
AcDbEntity
  8
0
100
AcDbLine
 62
7
  6
CONTINUOUS
 10
133.7848998556
 20
231.6693891263
 11
133.4651880946
 21
231.4848045568
  0
LINE
  5
2D7
100
AcDbEntity
  8
0
100
AcDbLine
 62
7
  6
CONTINUOUS
 10
133.9079167614
 20
230.1074200326
 11
134.4920110137
 21
230.4446449935
  0
LINE
  5
2D8
100
AcDbEntity
  8
0
100
AcDbLine
 62
7
  6
CONTINUOUS
 10
149.9540355493
 20
259.2338725048
 11
149.9143068399
 21
259.2390136118
  0
LINE
  5
2D9
100
AcDbEntity
  8
0
100
AcDbLine
 62
7
  6
CONTINUOUS
 10
171.3140286269
 20
277.8822865849
 11
171.3677298082
 21
277.834831976
  0
LINE
  5
2DA
100
AcDbEntity
  8
0
100
AcDbLine
 62
7
  6
CONTINUOUS
 10
223.1691800765
 20
57.6137399374
 11
223.3186424433
 21
56.6970074155
  0
LINE
  5
2DB
100
AcDbEntity
  8
0
100
AcDbLine
 62
7
  6
CONTINUOUS
 10
195.4082004455
 20
482.1740287554
 11
195.4082004455
 21
468.193922525
  0
LINE
  5
2DC
100
AcDbEntity
  8
0
100
AcDbLine
 62
7
  6
CONTINUOUS
 10
200.3579678366
 20
475.2338099031
 11
200.3579678366
 21
473.0493035019
  0
LINE
  5
2DD
100
AcDbEntity
  8
0
100
AcDbLine
 62
7
  6
CONTINUOUS
 10
201.772175511
 20
473.8657918097
 11
201.772175511
 21
476.0502982109
  0
LINE
  5
2DE
100
AcDbEntity
  8
0
100
AcDbLine
 62
7
  6
CONTINUOUS
 10
181.9055413226
 20
81.1815015768
 11
181.9233093518
 21
81.4265157863
  0
LINE
  5
2DF
100
AcDbEntity
  8
0
100
AcDbLine
 62
7
  6
CONTINUOUS
 10
181.069720795
 20
81.7462511419
 11
181.0148450207
 21
81.0055441977
  0
LINE
  5
2E0
100
AcDbEntity
  8
0
100
AcDbLine
 62
7
  6
CONTINUOUS
 10
161.4476873298
 20
197.2836016921
 11
161.7196106921
 21
197.8119949886
  0
LINE
  5
2E1
100
AcDbEntity
  8
0
100
AcDbLine
 62
7
  6
CONTINUOUS
 10
163.9340222111
 20
213.2204374892
 11
164.2244618099
 21
213.726331926
  0
LINE
  5
2E2
100
AcDbEntity
  8
0
100
AcDbLine
 62
7
  6
CONTINUOUS
 10
169.0953986031
 20
248.162283693
 11
171.2335656094
 21
249.3967476209
  0
LINE
  5
2E3
100
AcDbEntity
  8
0
100
AcDbLine
 62
7
  6
CONTINUOUS
 10
132.2646231084
 20
208.1179605013
 11
133.203835759
 21
208.6602119411
  0
LINE
  5
2E4
100
AcDbEntity
  8
0
100
AcDbLine
 62
7
  6
CONTINUOUS
 10
149.6904820202
 20
217.4609407612
 11
150.4808928058
 21
217.9172819171
  0
LINE
  5
2E5
100
AcDbEntity
  8
0
100
AcDbLine
 62
7
  6
CONTINUOUS
 10
153.6842825721
 20
229.4388123464
 11
154.6809711829
 21
229.9288069952
  0
LINE
  5
2E6
100
AcDbEntity
  8
0
100
AcDbLine
 62
7
  6
CONTINUOUS
 10
171.3677298082
 20
277.8838244557
 11
171.2072261905
 21
277.9764891662
  0
LINE
  5
2E7
100
AcDbEntity
  8
0
100
AcDbLine
 62
7
  6
CONTINUOUS
 10
139.70829115
 20
296.1619963799
 11
139.5477934409
 21
296.2546576791
  0
LINE
  5
2E8
100
AcDbEntity
  8
0
100
AcDbLine
 62
7
  6
CONTINUOUS
 10
178.7923153785
 20
282.170385346
 11
146.9723790113
 21
300.5412185695
  0
LINE
  5
2E9
100
AcDbEntity
  8
0
100
AcDbLine
 62
7
  6
CONTINUOUS
 10
146.9723790113
 20
300.709185608
 11
146.0460652713
 21
301.2439809965
  0
LINE
  5
2EA
100
AcDbEntity
  8
0
100
AcDbLine
 62
7
  6
CONTINUOUS
 10
244.9874503562
 20
47.9437343301
 11
244.9065261438
 21
48.2996889733
  0
LINE
  5
2EB
100
AcDbEntity
  8
0
100
AcDbLine
 62
7
  6
CONTINUOUS
 10
249.4741838146
 20
47.8425436511
 11
250.4416613801
 21
43.586980063
  0
LINE
  5
2EC
100
AcDbEntity
  8
0
100
AcDbLine
 62
7
  6
CONTINUOUS
 10
188.9589520097
 20
76.2618379622
 11
188.8941927849
 21
75.7656234554
  0
LINE
  5
2ED
100
AcDbEntity
  8
0
100
AcDbLine
 62
7
  6
CONTINUOUS
 10
163.8370608562
 20
213.5026558465
 11
163.252966058
 21
213.1654305705
  0
LINE
  5
2EE
100
AcDbEntity
  8
0
100
AcDbLine
 62
7
  6
CONTINUOUS
 10
151.257791336
 20
204.9093428128
 11
149.6907998064
 21
204.0046452316
  0
LINE
  5
2EF
100
AcDbEntity
  8
0
100
AcDbLine
 62
7
  6
CONTINUOUS
 10
150.4831329971
 20
202.6660863676
 11
152.0374217173
 21
203.5634500221
  0
LINE
  5
2F0
100
AcDbEntity
  8
0
100
AcDbLine
 62
7
  6
CONTINUOUS
 10
139.6548851139
 20
296.1765868285
 11
139.70829115
 21
296.1619963799
  0
LINE
  5
2F1
100
AcDbEntity
  8
0
100
AcDbLine
 62
7
  6
CONTINUOUS
 10
220.5678355185
 20
362.3934807314
 11
221.0171596728
 21
356.2037108856
  0
LINE
  5
2F2
100
AcDbEntity
  8
0
100
AcDbLine
 62
7
  6
CONTINUOUS
 10
230.7644521341
 20
345.3860346929
 11
230.7644521341
 21
336.4964419182
  0
LINE
  5
2F3
100
AcDbEntity
  8
0
100
AcDbLine
 62
7
  6
CONTINUOUS
 10
232.5321132971
 20
102.3185099672
 11
232.5321132971
 21
103.8956139521
  0
LINE
  5
2F4
100
AcDbEntity
  8
0
100
AcDbLine
 62
7
  6
CONTINUOUS
 10
232.5321159223
 20
116.3292213771
 11
232.5321152161
 21
110.248136734
  0
LINE
  5
2F5
100
AcDbEntity
  8
0
100
AcDbLine
 62
7
  6
CONTINUOUS
 10
233.8473698122
 20
105.4959645878
 11
233.8473698122
 21
105.3444230402
  0
LINE
  5
2F6
100
AcDbEntity
  8
0
100
AcDbLine
 62
7
  6
CONTINUOUS
 10
235.7140678756
 20
118.1663112279
 11
235.7140678378
 21
117.6081919254
  0
LINE
  5
2F7
100
AcDbEntity
  8
0
100
AcDbLine
 62
7
  6
CONTINUOUS
 10
201.9853202776
 20
99.3460948462
 11
201.8683381287
 21
98.6255866903
  0
LINE
  5
2F8
100
AcDbEntity
  8
0
100
AcDbLine
 62
7
  6
CONTINUOUS
 10
181.1105091546
 20
81.8957755828
 11
181.069720795
 21
81.7462511419
  0
LINE
  5
2F9
100
AcDbEntity
  8
0
100
AcDbLine
 62
7
  6
CONTINUOUS
 10
161.7230696323
 20
197.8113773239
 11
160.8147039625
 21
197.2869352904
  0
LINE
  5
2FA
100
AcDbEntity
  8
0
100
AcDbLine
 62
7
  6
CONTINUOUS
 10
164.0845594756
 20
189.7471272779
 11
165.2101394999
 21
190.3969773288
  0
LINE
  5
2FB
100
AcDbEntity
  8
0
100
AcDbLine
 62
7
  6
CONTINUOUS
 10
61.7037893137
 20
394.0290459377
 11
168.601090579
 21
332.3132564742
  0
LINE
  5
2FC
100
AcDbEntity
  8
0
100
AcDbLine
 62
7
  6
CONTINUOUS
 10
168.5983850161
 20
333.9478057319
 11
63.0876046149
 21
394.8631051107
  0
LINE
  5
2FD
100
AcDbEntity
  8
0
100
AcDbLine
 62
7
  6
CONTINUOUS
 10
177.5013531062
 20
317.7521431908
 11
171.629344455
 21
321.7354820584
  0
LINE
  5
2FE
100
AcDbEntity
  8
0
100
AcDbLine
 62
7
  6
CONTINUOUS
 10
243.8458688994
 20
110.0556795162
 11
243.8458688994
 21
46.6656782167
  0
LINE
  5
2FF
100
AcDbEntity
  8
0
100
AcDbLine
 62
7
  6
CONTINUOUS
 10
244.9065262174
 20
47.2780420029
 11
244.906521654
 21
110.6680479956
  0
LINE
  5
300
100
AcDbEntity
  8
0
100
AcDbLine
 62
7
  6
CONTINUOUS
 10
237.570744689
 20
116.5362638708
 11
237.7950949116
 21
119.3677855755
  0
LINE
  5
301
100
AcDbEntity
  8
0
100
AcDbLine
 62
7
  6
CONTINUOUS
 10
245.6289790721
 20
111.6165060031
 11
246.8514490434
 21
124.5964428605
  0
LINE
  5
302
100
AcDbEntity
  8
0
100
AcDbLine
 62
7
  6
CONTINUOUS
 10
58.688696151
 20
386.9416512981
 11
52.8035267871
 21
389.7448380911
  0
LINE
  5
303
100
AcDbEntity
  8
0
100
AcDbLine
 62
7
  6
CONTINUOUS
 10
317.7381781333
 20
161.2903621103
 11
318.7988448705
 21
159.4532497133
  0
LINE
  5
304
100
AcDbEntity
  8
0
100
AcDbLine
 62
7
  6
CONTINUOUS
 10
263.7932723704
 20
143.9409826852
 11
263.7932723704
 21
135.0466136487
  0
LINE
  5
305
100
AcDbEntity
  8
0
100
AcDbLine
 62
7
  6
CONTINUOUS
 10
152.6504908444
 20
105.0063031251
 11
153.3901301242
 21
105.5462016431
  0
LINE
  5
306
100
AcDbEntity
  8
0
100
AcDbLine
 62
7
  6
CONTINUOUS
 10
164.3674057984
 20
119.3391356924
 11
164.5553272768
 21
119.4684490141
  0
LINE
  5
307
100
AcDbEntity
  8
0
100
AcDbLine
 62
7
  6
CONTINUOUS
 10
114.3526361003
 20
424.4608081644
 11
117.2342399948
 21
422.7971510172
  0
LINE
  5
308
100
AcDbEntity
  8
0
100
AcDbLine
 62
7
  6
CONTINUOUS
 10
217.0149137469
 20
365.1900554131
 11
219.8634149525
 21
363.5455096799
  0
LINE
  5
309
100
AcDbEntity
  8
0
100
AcDbLine
 62
7
  6
CONTINUOUS
 10
223.601481233
 20
351.7414300782
 11
229.4734898618
 21
347.7580912257
  0
LINE
  5
30A
100
AcDbEntity
  8
0
100
AcDbLine
 62
7
  6
CONTINUOUS
 10
308.9384125848
 20
418.2617954164
 11
308.9384125848
 21
418.2076667721
  0
LINE
  5
30B
100
AcDbEntity
  8
0
100
AcDbLine
 62
7
  6
CONTINUOUS
 10
263.7932723704
 20
135.0466136487
 11
263.3834721036
 21
134.1412956278
  0
LINE
  5
30C
100
AcDbEntity
  8
0
100
AcDbLine
 62
7
  6
CONTINUOUS
 10
198.6428271007
 20
71.7737160887
 11
198.2517728136
 21
71.1690419143
  0
LINE
  5
30D
100
AcDbEntity
  8
0
100
AcDbLine
 62
7
  6
CONTINUOUS
 10
203.7059838375
 20
66.8122876471
 11
204.0970389039
 21
67.4169630265
  0
LINE
  5
30E
100
AcDbEntity
  8
0
100
AcDbLine
 62
7
  6
CONTINUOUS
 10
162.8824836773
 20
118.3957646057
 11
164.3674057984
 21
119.3391356924
  0
LINE
  5
30F
100
AcDbEntity
  8
0
100
AcDbLine
 62
7
  6
CONTINUOUS
 10
162.3847910489
 20
118.0856340182
 11
162.8824836773
 21
118.3957646057
  0
LINE
  5
310
100
AcDbEntity
  8
0
100
AcDbLine
 62
7
  6
CONTINUOUS
 10
164.5553272768
 20
119.4684490141
 11
196.1163681567
 21
137.6901156934
  0
LINE
  5
311
100
AcDbEntity
  8
0
100
AcDbLine
 62
7
  6
CONTINUOUS
 10
153.9521479509
 20
106.4557715095
 11
154.7838574329
 21
106.9359563365
  0
LINE
  5
312
100
AcDbEntity
  8
0
100
AcDbLine
 62
7
  6
CONTINUOUS
 10
153.345043666
 20
105.8743220164
 11
154.0521475032
 21
106.2825661703
  0
LINE
  5
313
100
AcDbEntity
  8
0
100
AcDbLine
 62
7
  6
CONTINUOUS
 10
151.9195258636
 20
102.3780688523
 11
152.306372649
 21
102.6014136148
  0
LINE
  5
314
100
AcDbEntity
  8
0
100
AcDbLine
 62
7
  6
CONTINUOUS
 10
153.1807170488
 20
101.9631398218
 11
153.7106226739
 21
102.2690791509
  0
LINE
  5
315
100
AcDbEntity
  8
0
100
AcDbLine
 62
7
  6
CONTINUOUS
 10
153.675698133
 20
101.6773638862
 11
153.1807170488
 21
101.3915881298
  0
LINE
  5
316
100
AcDbEntity
  8
0
100
AcDbLine
 62
7
  6
CONTINUOUS
 10
153.6756938564
 20
101.1058196017
 11
154.2056028087
 21
101.4117608517
  0
LINE
  5
317
100
AcDbEntity
  8
0
100
AcDbLine
 62
7
  6
CONTINUOUS
 10
153.7913014145
 20
100.0294519975
 11
153.4044562864
 21
99.8061081919
  0
LINE
  5
318
100
AcDbEntity
  8
0
100
AcDbLine
 62
7
  6
CONTINUOUS
 10
312.1169212054
 20
407.4041380827
 11
313.4955238601
 21
407.7307827787
  0
LINE
  5
319
100
AcDbEntity
  8
0
100
AcDbLine
 62
7
  6
CONTINUOUS
 10
52.8035267871
 20
389.7448380911
 11
51.9268554638
 21
389.7788141297
  0
LINE
  5
31A
100
AcDbEntity
  8
0
100
AcDbLine
 62
7
  6
CONTINUOUS
 10
104.7756635428
 20
419.750786126
 11
105.2582053669
 21
419.5209448445
  0
LINE
  5
31B
100
AcDbEntity
  8
0
100
AcDbLine
 62
7
  6
CONTINUOUS
 10
309.599692914
 20
417.1243183047
 11
310.6073738086
 21
403.2875770369
  0
LINE
  5
31C
100
AcDbEntity
  8
0
100
AcDbLine
 62
7
  6
CONTINUOUS
 10
313.4955238601
 20
409.9152891799
 11
313.4955238601
 21
407.7307827787
  0
LINE
  5
31D
100
AcDbEntity
  8
0
100
AcDbLine
 62
7
  6
CONTINUOUS
 10
313.4955217212
 20
163.7398055181
 11
313.4955220162
 21
169.0470769236
  0
LINE
  5
31E
100
AcDbEntity
  8
0
100
AcDbLine
 62
7
  6
CONTINUOUS
 10
314.9097315345
 20
408.5472710864
 11
314.9097315345
 21
410.7317774876
  0
LINE
  5
31F
100
AcDbEntity
  8
0
100
AcDbLine
 62
7
  6
CONTINUOUS
 10
314.9097293956
 20
164.5562938259
 11
314.9097296906
 21
169.8635639419
  0
LINE
  5
320
100
AcDbEntity
  8
0
100
AcDbLine
 62
7
  6
CONTINUOUS
 10
317.7381781333
 20
166.5976336861
 11
317.7381781333
 21
161.2903621103
  0
LINE
  5
321
100
AcDbEntity
  8
0
100
AcDbLine
 62
7
  6
CONTINUOUS
 10
317.738182506
 20
405.2813358772
 11
317.7381802722
 21
407.4658457721
  0
LINE
  5
322
100
AcDbEntity
  8
0
100
AcDbLine
 62
7
  6
CONTINUOUS
 10
322.6879509719
 20
158.8409348472
 11
322.6879509719
 21
177.9436382612
  0
LINE
  5
323
100
AcDbEntity
  8
0
100
AcDbLine
 62
7
  6
CONTINUOUS
 10
322.6879509719
 20
389.5681819215
 11
322.6879509719
 21
408.6906542603
  0
LINE
  5
324
100
AcDbEntity
  8
0
100
AcDbLine
 62
7
  6
CONTINUOUS
 10
324.1021586463
 20
159.6574205061
 11
324.1021586463
 21
409.5071577604
  0
LINE
  5
325
100
AcDbEntity
  8
0
100
AcDbLine
 62
7
  6
CONTINUOUS
 10
310.0559344582
 20
170.309613987
 11
309.670060932
 21
165.4522710078
  0
LINE
  5
326
100
AcDbEntity
  8
0
100
AcDbLine
 62
7
  6
CONTINUOUS
 10
220.1721742721
 20
58.5135785363
 11
220.5632285592
 21
59.1182527107
  0
LINE
  5
327
100
AcDbEntity
  8
0
100
AcDbLine
 62
7
  6
CONTINUOUS
 10
178.8135506749
 20
100.5159266305
 11
179.5531899547
 21
101.0558251485
  0
LINE
  5
328
100
AcDbEntity
  8
0
100
AcDbLine
 62
7
  6
CONTINUOUS
 10
157.1450266539
 20
99.2925191257
 11
157.8521304911
 21
99.7007632796
  0
LINE
  5
329
100
AcDbEntity
  8
0
100
AcDbLine
 62
7
  6
CONTINUOUS
 10
157.9521300434
 20
99.5275579403
 11
158.7838395254
 21
100.0077427673
  0
LINE
  5
32A
100
AcDbEntity
  8
0
100
AcDbLine
 62
7
  6
CONTINUOUS
 10
180.1152077813
 20
101.9653950149
 11
180.9469172634
 21
102.4455798419
  0
LINE
  5
32B
100
AcDbEntity
  8
0
100
AcDbLine
 62
7
  6
CONTINUOUS
 10
179.5081034964
 20
101.3839455218
 11
180.2152073337
 21
101.7921896757
  0
LINE
  5
32C
100
AcDbEntity
  8
0
100
AcDbLine
 62
7
  6
CONTINUOUS
 10
178.082585694
 20
97.8876923578
 11
178.4694324794
 21
98.1110371203
  0
LINE
  5
32D
100
AcDbEntity
  8
0
100
AcDbLine
 62
7
  6
CONTINUOUS
 10
179.3437768792
 20
97.4727633273
 11
179.8736825043
 21
97.7787026564
  0
LINE
  5
32E
100
AcDbEntity
  8
0
100
AcDbLine
 62
7
  6
CONTINUOUS
 10
179.8387579635
 20
97.1869873917
 11
179.3437768792
 21
96.9012116353
  0
LINE
  5
32F
100
AcDbEntity
  8
0
100
AcDbLine
 62
7
  6
CONTINUOUS
 10
179.8387536868
 20
96.6154431071
 11
180.3686626392
 21
96.9213843572
  0
LINE
  5
330
100
AcDbEntity
  8
0
100
AcDbLine
 62
7
  6
CONTINUOUS
 10
179.954361245
 20
95.539075503
 11
179.5675161168
 21
95.3157316973
  0
LINE
  5
331
100
AcDbEntity
  8
0
100
AcDbLine
 62
7
  6
CONTINUOUS
 10
322.6879509719
 20
177.9408679368
 11
263.7932723704
 21
143.9382123608
  0
LINE
  5
332
100
AcDbEntity
  8
0
100
AcDbLine
 62
7
  6
CONTINUOUS
 10
322.4791408897
 20
177.4821127504
 11
263.7932723704
 21
143.600013012
  0
LINE
  5
333
100
AcDbEntity
  8
0
100
AcDbLine
 62
7
  6
CONTINUOUS
 10
156.0460229664
 20
99.1250338648
 11
156.8834103542
 21
99.495626683
  0
LINE
  5
334
100
AcDbEntity
  8
0
100
AcDbLine
 62
7
  6
CONTINUOUS
 10
322.6879509719
 20
177.9436382612
 11
322.4791005033
 21
177.4821829016
  0
LINE
  5
335
100
AcDbEntity
  8
0
100
AcDbLine
 62
7
  6
CONTINUOUS
 10
232.1868071725
 20
109.9960809031
 11
233.1524745712
 21
110.7009648554
  0
LINE
  5
336
100
AcDbEntity
  8
0
100
AcDbLine
 62
7
  6
CONTINUOUS
 10
183.3080864843
 20
94.8021426311
 11
184.0151903215
 21
95.210386785
  0
LINE
  5
337
100
AcDbEntity
  8
0
100
AcDbLine
 62
7
  6
CONTINUOUS
 10
193.6435122402
 20
100.6271029429
 11
195.3856507688
 21
101.6329210874
  0
LINE
  5
338
100
AcDbEntity
  8
0
100
AcDbLine
 62
7
  6
CONTINUOUS
 10
184.1151898738
 20
95.0371814458
 11
184.9468993558
 21
95.5173662728
  0
LINE
  5
339
100
AcDbEntity
  8
0
100
AcDbLine
 62
7
  6
CONTINUOUS
 10
313.4955220162
 20
169.0470756341
 11
314.9097296906
 21
169.8635639419
  0
LINE
  5
33A
100
AcDbEntity
  8
0
100
AcDbLine
 62
7
  6
CONTINUOUS
 10
309.670060932
 20
165.4522710078
 11
263.7932723704
 21
138.9654528872
  0
LINE
  5
33B
100
AcDbEntity
  8
0
100
AcDbLine
 62
7
  6
CONTINUOUS
 10
309.4658185856
 20
165.066313547
 11
263.7932723704
 21
138.6974140962
  0
LINE
  5
33C
100
AcDbEntity
  8
0
100
AcDbLine
 62
7
  6
CONTINUOUS
 10
200.3823413863
 20
99.1062136731
 11
195.0169829238
 21
96.0085410112
  0
LINE
  5
33D
100
AcDbEntity
  8
0
100
AcDbLine
 62
7
  6
CONTINUOUS
 10
200.6318194402
 20
98.980097194
 11
195.0495865192
 21
95.7572127524
  0
LINE
  5
33E
100
AcDbEntity
  8
0
100
AcDbLine
 62
7
  6
CONTINUOUS
 10
312.4348549839
 20
163.1274178666
 11
314.9097293956
 21
164.5562938259
  0
LINE
  5
33F
100
AcDbEntity
  8
0
100
AcDbLine
 62
7
  6
CONTINUOUS
 10
263.7932723704
 20
135.0307196165
 11
201.9853202617
 21
99.346094837
  0
LINE
  5
340
100
AcDbEntity
  8
0
100
AcDbLine
 62
7
  6
CONTINUOUS
 10
263.3835333733
 20
134.1411892242
 11
201.992535296
 21
98.6972915299
  0
LINE
  5
341
100
AcDbEntity
  8
0
100
AcDbLine
 62
7
  6
CONTINUOUS
 10
233.9565912992
 20
111.7525308765
 11
234.6636965694
 21
112.1607758577
  0
LINE
  5
342
100
AcDbEntity
  8
0
100
AcDbLine
 62
7
  6
CONTINUOUS
 10
233.2373590455
 20
110.8753970752
 11
234.1565937894
 21
111.4061143341
  0
LINE
  5
343
100
AcDbEntity
  8
0
100
AcDbLine
 62
7
  6
CONTINUOUS
 10
242.4065914479
 20
113.7443501243
 11
242.7726046551
 21
113.9556666867
  0
LINE
  5
344
100
AcDbEntity
  8
0
100
AcDbLine
 62
7
  6
CONTINUOUS
 10
231.6565581957
 20
106.3657321756
 11
232.0697011841
 21
106.6042589673
  0
LINE
  5
345
100
AcDbEntity
  8
0
100
AcDbLine
 62
7
  6
CONTINUOUS
 10
324.1021586463
 20
159.6574205061
 11
322.6879509719
 21
158.8409321984
  0
LINE
  5
346
100
AcDbEntity
  8
0
100
AcDbLine
 62
7
  6
CONTINUOUS
 10
243.4940967011
 20
113.1164928776
 11
242.4334440642
 21
112.5041284475
  0
LINE
  5
347
100
AcDbEntity
  8
0
100
AcDbLine
 62
7
  6
CONTINUOUS
 10
322.2737257803
 20
157.9253601691
 11
323.6879334547
 21
158.7418484768
  0
LINE
  5
348
100
AcDbEntity
  8
0
100
AcDbLine
 62
7
  6
CONTINUOUS
 10
232.9661888778
 20
105.9787695348
 11
233.491739112
 21
106.2821942928
  0
LINE
  5
349
100
AcDbEntity
  8
0
100
AcDbLine
 62
7
  6
CONTINUOUS
 10
233.4611699621
 20
105.6929935992
 11
232.9661888778
 21
105.4072178428
  0
LINE
  5
34A
100
AcDbEntity
  8
0
100
AcDbLine
 62
7
  6
CONTINUOUS
 10
182.2090827969
 20
94.6346573703
 11
183.0464701846
 21
95.0052501884
  0
LINE
  5
34B
100
AcDbEntity
  8
0
100
AcDbLine
 62
7
  6
CONTINUOUS
 10
230.3703519364
 20
112.7500026013
 11
231.4636381356
 21
113.2338385666
  0
LINE
  5
34C
100
AcDbEntity
  8
0
100
AcDbLine
 62
7
  6
CONTINUOUS
 10
103.8989922194
 20
419.7847621645
 11
104.7756635428
 21
419.750786126
  0
LINE
  5
34D
100
AcDbEntity
  8
0
100
AcDbLine
 62
7
  6
CONTINUOUS
 10
113.8818320774
 20
424.4997344985
 11
114.3526361003
 21
424.4608081644
  0
LINE
  5
34E
100
AcDbEntity
  8
0
100
AcDbLine
 62
7
  6
CONTINUOUS
 10
322.2737040874
 20
157.9253977425
 11
322.6879509719
 21
158.8409348472
  0
LINE
  5
34F
100
AcDbEntity
  8
0
100
AcDbLine
 62
7
  6
CONTINUOUS
 10
324.1021586463
 20
159.6574231549
 11
323.6879117618
 21
158.7418860503
  0
LINE
  5
350
100
AcDbEntity
  8
0
100
AcDbLine
 62
7
  6
CONTINUOUS
 10
233.4611656854
 20
105.1214493146
 11
233.9867139968
 21
105.4248729625
  0
LINE
  5
351
100
AcDbEntity
  8
0
100
AcDbLine
 62
7
  6
CONTINUOUS
 10
243.8458688994
 20
110.0556795162
 11
244.906521654
 21
110.6680440143
  0
LINE
  5
352
100
AcDbEntity
  8
0
100
AcDbLine
 62
7
  6
CONTINUOUS
 10
233.5546373122
 20
104.0323016009
 11
233.1414886132
 21
103.7937715121
  0
LINE
  5
353
100
AcDbEntity
  8
0
100
AcDbLine
 62
7
  6
CONTINUOUS
 10
244.9065217442
 20
109.4141951131
 11
245.2725881581
 21
109.6255423942
  0
LINE
  5
354
100
AcDbEntity
  8
0
100
AcDbLine
 62
7
  6
CONTINUOUS
 10
237.8373388929
 20
102.9079507067
 11
238.7565736368
 21
103.4386679656
  0
LINE
  5
355
100
AcDbEntity
  8
0
100
AcDbLine
 62
7
  6
CONTINUOUS
 10
238.956576127
 20
103.0922514232
 11
239.6636813972
 21
103.5004964044
  0
LINE
  5
356
100
AcDbEntity
  8
0
100
AcDbLine
 62
7
  6
CONTINUOUS
 10
236.550550383
 20
102.4378108347
 11
237.643833993
 21
102.9216557058
  0
LINE
  5
357
100
AcDbEntity
  8
0
100
AcDbLine
 62
7
  6
CONTINUOUS
 10
195.1053065528
 20
72.985615989
 11
196.0368755834
 21
73.2782288621
  0
LINE
  5
358
100
AcDbEntity
  8
0
100
AcDbLine
 62
7
  6
CONTINUOUS
 10
315.1468359715
 20
395.4285293382
 11
321.9808412468
 21
390.7929250931
  0
LINE
  5
359
100
AcDbEntity
  8
0
100
AcDbLine
 62
7
  6
CONTINUOUS
 10
237.9733354583
 20
48.8936771228
 11
238.0955465053
 21
48.9961932166
  0
LINE
  5
35A
100
AcDbEntity
  8
0
100
AcDbLine
 62
7
  6
CONTINUOUS
 10
243.5497586977
 20
44.6394399297
 11
243.4275464821
 21
44.5369228556
  0
LINE
  5
35B
100
AcDbEntity
  8
0
100
AcDbLine
 62
7
  6
CONTINUOUS
 10
237.3007791424
 20
48.5095801378
 11
237.9733354583
 21
48.8936771228
  0
LINE
  5
35C
100
AcDbEntity
  8
0
100
AcDbLine
 62
7
  6
CONTINUOUS
 10
237.2827463081
 20
49.4654530132
 11
237.0601000421
 21
49.338722633
  0
LINE
  5
35D
100
AcDbEntity
  8
0
100
AcDbLine
 62
7
  6
CONTINUOUS
 10
198.9793651819
 20
472.722658806
 11
200.3579678366
 21
473.0493035019
  0
LINE
  5
35E
100
AcDbEntity
  8
0
100
AcDbLine
 62
7
  6
CONTINUOUS
 10
321.2737275538
 20
411.1401591114
 11
308.9384125848
 21
418.2617954164
  0
LINE
  5
35F
100
AcDbEntity
  8
0
100
AcDbLine
 62
7
  6
CONTINUOUS
 10
209.1577388326
 20
475.8688910205
 11
196.8224205941
 21
482.9905292131
  0
LINE
  5
360
100
AcDbEntity
  8
0
100
AcDbLine
 62
7
  6
CONTINUOUS
 10
322.6879363301
 20
411.956646783
 11
198.2366253785
 21
483.8070191893
  0
LINE
  5
361
100
AcDbEntity
  8
0
100
AcDbLine
 62
7
  6
CONTINUOUS
 10
251.8418535211
 20
41.4410011429
 11
250.4572671757
 21
40.6416146154
  0
LINE
  5
362
100
AcDbEntity
  8
0
100
AcDbLine
 62
7
  6
CONTINUOUS
 10
251.4426049393
 20
40.8008624647
 11
250.6967876094
 21
40.3702671989
  0
LINE
  5
363
100
AcDbEntity
  8
0
100
AcDbLine
 62
7
  6
CONTINUOUS
 10
243.4275464821
 20
44.5369228556
 11
242.7549901662
 21
44.1528258706
  0
LINE
  5
364
100
AcDbEntity
  8
0
100
AcDbLine
 62
7
  6
CONTINUOUS
 10
235.878635055
 20
49.1812371354
 11
235.7159179877
 21
49.096950182
  0
LINE
  5
365
100
AcDbEntity
  8
0
100
AcDbLine
 62
7
  6
CONTINUOUS
 10
244.906526172
 20
47.9083984102
 11
244.9874503562
 21
47.9437343301
  0
LINE
  5
366
100
AcDbEntity
  8
0
100
AcDbLine
 62
7
  6
CONTINUOUS
 10
250.4416613801
 20
43.586980063
 11
249.6099566196
 21
43.2238123257
  0
LINE
  5
367
100
AcDbEntity
  8
0
100
AcDbLine
 62
7
  6
CONTINUOUS
 10
229.0465779354
 20
53.390060823
 11
229.9781423905
 21
53.6826726451
  0
LINE
  5
368
100
AcDbEntity
  8
0
100
AcDbLine
 62
7
  6
CONTINUOUS
 10
196.8224205941
 20
482.9905292131
 11
195.8224426938
 21
483.0895406007
  0
LINE
  5
369
100
AcDbEntity
  8
0
100
AcDbLine
 62
7
  6
CONTINUOUS
 10
197.2366503682
 20
483.9060289085
 11
198.2366282685
 21
483.8070175208
  0
ARC
  5
36A
100
AcDbEntity
  8
0
100
AcDbCircle
 62
7
  6
CONTINUOUS
 10
95.841326138
 20
192.4518640099
 40
113.9421834008
100
AcDbArc
 50
48.6215570406
 51
49.222033826
  0
ARC
  5
36B
100
AcDbEntity
  8
0
100
AcDbCircle
 62
7
  6
CONTINUOUS
 10
142.3305008568
 20
215.7295545184
 40
11.4779258121
100
AcDbArc
 50
231.2310076672
 51
234.7944090851
  0
ARC
  5
36C
100
AcDbEntity
  8
0
100
AcDbCircle
 62
7
  6
CONTINUOUS
 10
141.8510323512
 20
214.7996880252
 40
10.7056610128
100
AcDbArc
 50
230.0322755158
 51
231.2027914787
  0
ARC
  5
36D
100
AcDbEntity
  8
0
100
AcDbCircle
 62
7
  6
CONTINUOUS
 10
89.4016494411
 20
158.3446143941
 40
1.4208808887
100
AcDbArc
 50
206.2464018725
 51
209.2371025079
  0
ARC
  5
36E
100
AcDbEntity
  8
0
100
AcDbCircle
 62
7
  6
CONTINUOUS
 10
173.3273802023
 20
-33.2096366691
 40
102.9763885643
100
AcDbArc
 50
56.8488963605
 51
57.2423253382
  0
ARC
  5
36F
100
AcDbEntity
  8
0
100
AcDbCircle
 62
7
  6
CONTINUOUS
 10
197.8057195156
 20
76.5583056832
 40
8.810407477
100
AcDbArc
 50
290.3032782014
 51
292.4184914553
  0
ARC
  5
370
100
AcDbEntity
  8
0
100
AcDbCircle
 62
7
  6
CONTINUOUS
 10
157.3031897224
 20
106.0248526739
 40
7.3398164377
100
AcDbArc
 50
237.9150613987
 51
238.5404493437
  0
ARC
  5
371
100
AcDbEntity
  8
0
100
AcDbCircle
 62
7
  6
CONTINUOUS
 10
156.0470422162
 20
103.0415366669
 40
4.1877713241
100
AcDbArc
 50
212.9792588238
 51
215.1593980584
  0
ARC
  5
372
100
AcDbEntity
  8
0
100
AcDbCircle
 62
7
  6
CONTINUOUS
 10
155.0663004527
 20
103.0332479238
 40
3.3225792796
100
AcDbArc
 50
180.0068862056
 51
181.9471527363
  0
ARC
  5
373
100
AcDbEntity
  8
0
100
AcDbCircle
 62
7
  6
CONTINUOUS
 10
156.5092136414
 20
101.2943065904
 40
2.1846480519
100
AcDbArc
 50
256.6468456857
 51
257.7006709726
  0
ARC
  5
374
100
AcDbEntity
  8
0
100
AcDbCircle
 62
7
  6
CONTINUOUS
 10
156.4816079708
 20
101.1614905689
 40
2.0490003091
100
AcDbArc
 50
257.6637527651
 51
262.2836163479
  0
ARC
  5
375
100
AcDbEntity
  8
0
100
AcDbCircle
 62
7
  6
CONTINUOUS
 10
157.0360703367
 20
100.9031438782
 40
1.6684619505
100
AcDbArc
 50
324.8070692225
 51
329.689490775
  0
ARC
  5
376
100
AcDbEntity
  8
0
100
AcDbCircle
 62
7
  6
CONTINUOUS
 10
157.22069078
 20
100.9772072305
 40
1.6369580558
100
AcDbArc
 50
272.4644190385
 51
275.2050088047
  0
ARC
  5
377
100
AcDbEntity
  8
0
100
AcDbCircle
 62
7
  6
CONTINUOUS
 10
154.8416915108
 20
105.0980069229
 40
1.6365216823
100
AcDbArc
 50
144.7819246441
 51
147.5465235763
  0
ARC
  5
378
100
AcDbEntity
  8
0
100
AcDbCircle
 62
7
  6
CONTINUOUS
 10
154.6156928521
 20
105.3062967568
 40
1.3272331535
100
AcDbArc
 50
118.1272410267
 51
121.8625342805
  0
ARC
  5
379
100
AcDbEntity
  8
0
100
AcDbCircle
 62
7
  6
CONTINUOUS
 10
157.2885851422
 20
100.6770326929
 40
1.3272331534
100
AcDbArc
 50
299.9960876647
 51
301.8625342806
  0
ARC
  5
37A
100
AcDbEntity
  8
0
100
AcDbCircle
 62
7
  6
CONTINUOUS
 10
156.5029651304
 20
100.4073110647
 40
1.2864016366
100
AcDbArc
 50
289.9876805496
 51
299.9396819358
  0
ARC
  5
37B
100
AcDbEntity
  8
0
100
AcDbCircle
 62
7
  6
CONTINUOUS
 10
153.9886798286
 20
104.7612170568
 40
1.2857275593
100
AcDbArc
 50
120.0380081525
 51
132.2656072555
  0
ARC
  5
37C
100
AcDbEntity
  8
0
100
AcDbCircle
 62
7
  6
CONTINUOUS
 10
157.2161103296
 20
100.8029670044
 40
1.2724668812
100
AcDbArc
 50
299.9868525366
 51
307.5996015171
  0
ARC
  5
37D
100
AcDbEntity
  8
0
100
AcDbCircle
 62
7
  6
CONTINUOUS
 10
156.4068338964
 20
100.5716940402
 40
1.1767757785
100
AcDbArc
 50
293.8875753596
 51
307.567466501
  0
ARC
  5
37E
100
AcDbEntity
  8
0
100
AcDbCircle
 62
7
  6
CONTINUOUS
 10
158.4584097584
 20
110.583524367
 40
10.1104528217
100
AcDbArc
 50
245.2439261512
 51
247.3516769328
  0
ARC
  5
37F
100
AcDbEntity
  8
0
100
AcDbCircle
 62
7
  6
CONTINUOUS
 10
158.3576044407
 20
110.3620029965
 40
9.8670767773
100
AcDbArc
 50
245.1112984257
 51
245.2368290224
  0
ARC
  5
380
100
AcDbEntity
  8
0
100
AcDbCircle
 62
7
  6
CONTINUOUS
 10
158.3166007692
 20
110.225173489
 40
9.7262549258
100
AcDbArc
 50
241.5014243088
 51
242.9937434376
  0
ARC
  5
381
100
AcDbEntity
  8
0
100
AcDbCircle
 62
7
  6
CONTINUOUS
 10
158.1030793453
 20
109.8209039637
 40
9.2691131087
100
AcDbArc
 50
243.0349393943
 51
245.1308396297
  0
ARC
  5
382
100
AcDbEntity
  8
0
100
AcDbCircle
 62
7
  6
CONTINUOUS
 10
157.8302513637
 20
110.9054076551
 40
8.3653101708
100
AcDbArc
 50
239.5296421918
 51
241.4040696297
  0
ARC
  5
383
100
AcDbEntity
  8
0
100
AcDbCircle
 62
7
  6
CONTINUOUS
 10
157.7299310121
 20
106.7295252141
 40
8.1636239759
100
AcDbArc
 50
238.5667827697
 51
241.4343397566
  0
ARC
  5
384
100
AcDbEntity
  8
0
100
AcDbCircle
 62
7
  6
CONTINUOUS
 10
157.7262910689
 20
110.7196284885
 40
8.1524347872
100
AcDbArc
 50
241.420652435
 51
242.0038072891
  0
ARC
  5
385
100
AcDbEntity
  8
0
100
AcDbCircle
 62
7
  6
CONTINUOUS
 10
157.7262910692
 20
106.7187666451
 40
8.1524347878
100
AcDbArc
 50
241.420652435
 51
242.0038072891
  0
ARC
  5
386
100
AcDbEntity
  8
0
100
AcDbCircle
 62
7
  6
CONTINUOUS
 10
157.531157821
 20
110.4028553848
 40
7.7804970364
100
AcDbArc
 50
238.5578998486
 51
239.5513345316
  0
ARC
  5
387
100
AcDbEntity
  8
0
100
AcDbCircle
 62
7
  6
CONTINUOUS
 10
157.3031897224
 20
110.0257145178
 40
7.3398164377
100
AcDbArc
 50
237.9150613987
 51
238.5404493437
  0
ARC
  5
388
100
AcDbEntity
  8
0
100
AcDbCircle
 62
7
  6
CONTINUOUS
 10
163.7363094055
 20
101.3711740609
 40
10.0664944217
100
AcDbArc
 50
172.6422038444
 51
174.7591979364
  0
ARC
  5
389
100
AcDbEntity
  8
0
100
AcDbCircle
 62
7
  6
CONTINUOUS
 10
163.4512099825
 20
101.3989208461
 40
9.7800525162
100
AcDbArc
 50
174.768508805
 51
174.8973640725
  0
ARC
  5
38A
100
AcDbEntity
  8
0
100
AcDbCircle
 62
7
  6
CONTINUOUS
 10
163.0881814277
 20
101.4293782404
 40
9.4157539705
100
AcDbArc
 50
174.8854913635
 51
178.4907636035
  0
ARC
  5
38B
100
AcDbEntity
  8
0
100
AcDbCircle
 62
7
  6
CONTINUOUS
 10
159.6592221252
 20
105.0656490796
 40
8.8357179489
100
AcDbArc
 50
300.0252770145
 51
0.0486703536
  0
ARC
  5
38C
100
AcDbEntity
  8
0
100
AcDbCircle
 62
7
  6
CONTINUOUS
 10
159.6086048886
 20
105.169003365
 40
8.8357179489
100
AcDbArc
 50
120.0252734843
 51
180.0486752227
  0
ARC
  5
38D
100
AcDbEntity
  8
0
100
AcDbCircle
 62
7
  6
CONTINUOUS
 10
159.6592353833
 20
105.0656292342
 40
8.7338088348
100
AcDbArc
 50
119.9741413847
 51
179.9506288718
  0
ARC
  5
38E
100
AcDbEntity
  8
0
100
AcDbCircle
 62
7
  6
CONTINUOUS
 10
159.6085888367
 20
105.1690175621
 40
8.7338088348
100
AcDbArc
 50
299.9741793522
 51
359.9506610292
  0
ARC
  5
38F
100
AcDbEntity
  8
0
100
AcDbCircle
 62
7
  6
CONTINUOUS
 10
160.4258869855
 20
102.6582342006
 40
8.5113924605
100
AcDbArc
 50
178.4108744443
 51
178.5966604602
  0
ARC
  5
390
100
AcDbEntity
  8
0
100
AcDbCircle
 62
7
  6
CONTINUOUS
 10
160.2863926275
 20
102.6624572904
 40
8.3718365553
100
AcDbArc
 50
178.6021734999
 51
179.5430346821
  0
ARC
  5
391
100
AcDbEntity
  8
0
100
AcDbCircle
 62
7
  6
CONTINUOUS
 10
163.7203692936
 20
100.6618309864
 40
8.3409908275
100
AcDbArc
 50
178.5953086855
 51
180.0085455009
  0
ARC
  5
392
100
AcDbEntity
  8
0
100
AcDbCircle
 62
7
  6
CONTINUOUS
 10
160.193446596
 20
102.6609640873
 40
8.2789056903
100
AcDbArc
 50
179.527570781
 51
179.9999822732
  0
ARC
  5
393
100
AcDbEntity
  8
0
100
AcDbCircle
 62
7
  6
CONTINUOUS
 10
163.5318717921
 20
100.6642612427
 40
8.1524906913
100
AcDbArc
 50
177.9967526075
 51
178.5799081537
  0
ARC
  5
394
100
AcDbEntity
  8
0
100
AcDbCircle
 62
7
  6
CONTINUOUS
 10
163.3688865971
 20
100.6578963723
 40
7.9895084913
100
AcDbArc
 50
179.980704841
 51
181.4353617744
  0
ARC
  5
395
100
AcDbEntity
  8
0
100
AcDbCircle
 62
7
  6
CONTINUOUS
 10
159.904048944
 20
102.6582760695
 40
7.9895084914
100
AcDbArc
 50
179.980704841
 51
181.4353617744
  0
ARC
  5
396
100
AcDbEntity
  8
0
100
AcDbCircle
 62
7
  6
CONTINUOUS
 10
159.8992244937
 20
102.6684916805
 40
7.9846492513
100
AcDbArc
 50
177.9822749014
 51
178.3796468647
  0
ARC
  5
397
100
AcDbEntity
  8
0
100
AcDbCircle
 62
7
  6
CONTINUOUS
 10
162.719395247
 20
100.6447935766
 40
7.339893409
100
AcDbArc
 50
181.4601112103
 51
182.0854983863
  0
ARC
  5
398
100
AcDbEntity
  8
0
100
AcDbCircle
 62
7
  6
CONTINUOUS
 10
159.2545575938
 20
102.6451732737
 40
7.339893409
100
AcDbArc
 50
181.4601112103
 51
182.0854983863
  0
ARC
  5
399
100
AcDbEntity
  8
0
100
AcDbCircle
 62
7
  6
CONTINUOUS
 10
159.1256417069
 20
111.7847425457
 40
12.0052004166
100
AcDbArc
 50
251.3416290187
 51
251.840365094
  0
ARC
  5
39A
100
AcDbEntity
  8
0
100
AcDbCircle
 62
7
  6
CONTINUOUS
 10
167.7045385867
 20
207.4233983346
 40
16.9824766331
100
AcDbArc
 50
244.7568405482
 51
247.5012071033
  0
ARC
  5
39B
100
AcDbEntity
  8
0
100
AcDbCircle
 62
7
  6
CONTINUOUS
 10
167.5680338791
 20
212.4883957423
 40
16.6340573774
100
AcDbArc
 50
244.7107515215
 51
246.0465595537
  0
ARC
  5
39C
100
AcDbEntity
  8
0
100
AcDbCircle
 62
7
  6
CONTINUOUS
 10
183.4662495525
 20
101.5344761788
 40
7.339816437
100
AcDbArc
 50
237.9150613987
 51
238.5404493438
  0
ARC
  5
39D
100
AcDbEntity
  8
0
100
AcDbCircle
 62
7
  6
CONTINUOUS
 10
182.2101020466
 20
98.5511601722
 40
4.187771324
100
AcDbArc
 50
212.9792588237
 51
215.1593980584
  0
ARC
  5
39E
100
AcDbEntity
  8
0
100
AcDbCircle
 62
7
  6
CONTINUOUS
 10
181.229360283
 20
98.5428714292
 40
3.3225792794
100
AcDbArc
 50
180.0068862056
 51
181.9471527363
  0
ARC
  5
39F
100
AcDbEntity
  8
0
100
AcDbCircle
 62
7
  6
CONTINUOUS
 10
182.6722734718
 20
96.8039300956
 40
2.1846480516
100
AcDbArc
 50
256.6468456857
 51
257.7006709726
  0
ARC
  5
3A0
100
AcDbEntity
  8
0
100
AcDbCircle
 62
7
  6
CONTINUOUS
 10
182.6446678013
 20
96.6711140743
 40
2.0490003091
100
AcDbArc
 50
257.6637527652
 51
262.2836163479
  0
ARC
  5
3A1
100
AcDbEntity
  8
0
100
AcDbCircle
 62
7
  6
CONTINUOUS
 10
183.1991301671
 20
96.4127673837
 40
1.6684619505
100
AcDbArc
 50
324.8070692226
 51
329.6894907749
  0
ARC
  5
3A2
100
AcDbEntity
  8
0
100
AcDbCircle
 62
7
  6
CONTINUOUS
 10
183.3837506105
 20
96.486830736
 40
1.6369580558
100
AcDbArc
 50
272.4644190385
 51
275.2050088046
  0
ARC
  5
3A3
100
AcDbEntity
  8
0
100
AcDbCircle
 62
7
  6
CONTINUOUS
 10
181.0047513413
 20
100.6076304282
 40
1.6365216824
100
AcDbArc
 50
144.7819246442
 51
147.5465235762
  0
ARC
  5
3A4
100
AcDbEntity
  8
0
100
AcDbCircle
 62
7
  6
CONTINUOUS
 10
180.7787526825
 20
100.8159202623
 40
1.3272331534
100
AcDbArc
 50
118.1272410267
 51
121.8625342806
  0
ARC
  5
3A5
100
AcDbEntity
  8
0
100
AcDbCircle
 62
7
  6
CONTINUOUS
 10
183.4516449726
 20
96.1866561985
 40
1.3272331536
100
AcDbArc
 50
299.9960876648
 51
301.8625342805
  0
ARC
  5
3A6
100
AcDbEntity
  8
0
100
AcDbCircle
 62
7
  6
CONTINUOUS
 10
182.6660249609
 20
95.9169345701
 40
1.2864016366
100
AcDbArc
 50
289.9876805496
 51
299.9396819358
  0
ARC
  5
3A7
100
AcDbEntity
  8
0
100
AcDbCircle
 62
7
  6
CONTINUOUS
 10
180.1517396591
 20
100.2708405622
 40
1.2857275593
100
AcDbArc
 50
120.0380081525
 51
132.2656072555
  0
ARC
  5
3A8
100
AcDbEntity
  8
0
100
AcDbCircle
 62
7
  6
CONTINUOUS
 10
183.37917016
 20
96.3125905098
 40
1.2724668812
100
AcDbArc
 50
299.9868525366
 51
307.5996015171
  0
ARC
  5
3A9
100
AcDbEntity
  8
0
100
AcDbCircle
 62
7
  6
CONTINUOUS
 10
182.5698937268
 20
96.0813175456
 40
1.1767757785
100
AcDbArc
 50
293.8875753596
 51
307.567466501
  0
ARC
  5
3AA
100
AcDbEntity
  8
0
100
AcDbCircle
 62
7
  6
CONTINUOUS
 10
184.6214695888
 20
106.0931478724
 40
10.1104528217
100
AcDbArc
 50
245.2439261512
 51
247.3516769328
  0
ARC
  5
3AB
100
AcDbEntity
  8
0
100
AcDbCircle
 62
7
  6
CONTINUOUS
 10
184.5206642759
 20
105.8716265123
 40
9.8670767887
100
AcDbArc
 50
245.1112984259
 51
245.2368290224
  0
ARC
  5
3AC
100
AcDbEntity
  8
0
100
AcDbCircle
 62
7
  6
CONTINUOUS
 10
184.4796605996
 20
105.7347969944
 40
9.7262549257
100
AcDbArc
 50
241.5014243088
 51
242.9937434377
  0
ARC
  5
3AD
100
AcDbEntity
  8
0
100
AcDbCircle
 62
7
  6
CONTINUOUS
 10
184.2661391757
 20
105.3305274691
 40
9.2691131086
100
AcDbArc
 50
243.0349393943
 51
245.1308396297
  0
ARC
  5
3AE
100
AcDbEntity
  8
0
100
AcDbCircle
 62
7
  6
CONTINUOUS
 10
183.9933111941
 20
106.4150311604
 40
8.3653101706
100
AcDbArc
 50
239.5296421918
 51
241.4040696297
  0
ARC
  5
3AF
100
AcDbEntity
  8
0
100
AcDbCircle
 62
7
  6
CONTINUOUS
 10
183.8929908426
 20
102.2391487196
 40
8.1636239759
100
AcDbArc
 50
238.5667827697
 51
241.4343397566
  0
ARC
  5
3B0
100
AcDbEntity
  8
0
100
AcDbCircle
 62
7
  6
CONTINUOUS
 10
183.8893508994
 20
106.2292519939
 40
8.1524347872
100
AcDbArc
 50
241.420652435
 51
242.0038072891
  0
ARC
  5
3B1
100
AcDbEntity
  8
0
100
AcDbCircle
 62
7
  6
CONTINUOUS
 10
183.8893508997
 20
102.2283901505
 40
8.1524347878
100
AcDbArc
 50
241.420652435
 51
242.003807289
  0
ARC
  5
3B2
100
AcDbEntity
  8
0
100
AcDbCircle
 62
7
  6
CONTINUOUS
 10
183.6942176513
 20
105.9124788899
 40
7.780497036
100
AcDbArc
 50
238.5578998486
 51
239.5513345316
  0
ARC
  5
3B3
100
AcDbEntity
  8
0
100
AcDbCircle
 62
7
  6
CONTINUOUS
 10
183.4662495523
 20
105.5353380223
 40
7.3398164365
100
AcDbArc
 50
237.9150613987
 51
238.5404493438
  0
ARC
  5
3B4
100
AcDbEntity
  8
0
100
AcDbCircle
 62
7
  6
CONTINUOUS
 10
189.899369236
 20
96.8807975664
 40
10.0664944217
100
AcDbArc
 50
172.6422038444
 51
174.7591979364
  0
ARC
  5
3B5
100
AcDbEntity
  8
0
100
AcDbCircle
 62
7
  6
CONTINUOUS
 10
189.614269784
 20
96.9085443542
 40
9.7800524872
100
AcDbArc
 50
174.7685088049
 51
174.8973640728
  0
ARC
  5
3B6
100
AcDbEntity
  8
0
100
AcDbCircle
 62
7
  6
CONTINUOUS
 10
189.2512412581
 20
96.9390017459
 40
9.4157539706
100
AcDbArc
 50
174.8854913635
 51
178.4907636035
  0
ARC
  5
3B7
100
AcDbEntity
  8
0
100
AcDbCircle
 62
7
  6
CONTINUOUS
 10
185.8222819557
 20
100.5752725851
 40
8.8357179489
100
AcDbArc
 50
300.0252770145
 51
0.0486703536
  0
ARC
  5
3B8
100
AcDbEntity
  8
0
100
AcDbCircle
 62
7
  6
CONTINUOUS
 10
185.7716647189
 20
100.6786268703
 40
8.8357179489
100
AcDbArc
 50
120.0252734834
 51
180.0486752218
  0
ARC
  5
3B9
100
AcDbEntity
  8
0
100
AcDbCircle
 62
7
  6
CONTINUOUS
 10
185.8222952137
 20
100.5752527396
 40
8.7338088348
100
AcDbArc
 50
119.9741413847
 51
179.9506288718
  0
ARC
  5
3BA
100
AcDbEntity
  8
0
100
AcDbCircle
 62
7
  6
CONTINUOUS
 10
185.7716486671
 20
100.6786410675
 40
8.7338088348
100
AcDbArc
 50
299.9741793522
 51
359.9506610292
  0
ARC
  5
3BB
100
AcDbEntity
  8
0
100
AcDbCircle
 62
7
  6
CONTINUOUS
 10
186.5889467755
 20
98.1678577071
 40
8.51139242
100
AcDbArc
 50
178.4108744438
 51
178.5966604606
  0
ARC
  5
3BC
100
AcDbEntity
  8
0
100
AcDbCircle
 62
7
  6
CONTINUOUS
 10
186.4494524574
 20
98.1720807958
 40
8.3718365547
100
AcDbArc
 50
178.6021734998
 51
179.5430346821
  0
ARC
  5
3BD
100
AcDbEntity
  8
0
100
AcDbCircle
 62
7
  6
CONTINUOUS
 10
189.8834291245
 20
96.1714544918
 40
8.340990828
100
AcDbArc
 50
178.5953086855
 51
180.0085455009
  0
ARC
  5
3BE
100
AcDbEntity
  8
0
100
AcDbCircle
 62
7
  6
CONTINUOUS
 10
186.3565064246
 20
98.1705875927
 40
8.2789056886
100
AcDbArc
 50
179.527570781
 51
179.9999822732
  0
ARC
  5
3BF
100
AcDbEntity
  8
0
100
AcDbCircle
 62
7
  6
CONTINUOUS
 10
189.6949316226
 20
96.1738847482
 40
8.1524906913
100
AcDbArc
 50
177.9967526075
 51
178.5799081537
  0
ARC
  5
3C0
100
AcDbEntity
  8
0
100
AcDbCircle
 62
7
  6
CONTINUOUS
 10
189.531946428
 20
96.1675198778
 40
7.9895084917
100
AcDbArc
 50
179.9807048411
 51
181.4353617743
  0
ARC
  5
3C1
100
AcDbEntity
  8
0
100
AcDbCircle
 62
7
  6
CONTINUOUS
 10
186.0671087747
 20
98.1678995749
 40
7.9895084917
100
AcDbArc
 50
179.9807048411
 51
181.4353617743
  0
ARC
  5
3C2
100
AcDbEntity
  8
0
100
AcDbCircle
 62
7
  6
CONTINUOUS
 10
186.0622843331
 20
98.1781151857
 40
7.9846492602
100
AcDbArc
 50
177.9822749017
 51
178.3796468645
  0
ARC
  5
3C3
100
AcDbEntity
  8
0
100
AcDbCircle
 62
7
  6
CONTINUOUS
 10
188.8824550775
 20
96.154417082
 40
7.3398934091
100
AcDbArc
 50
181.4601112103
 51
182.0854983862
  0
ARC
  5
3C4
100
AcDbEntity
  8
0
100
AcDbCircle
 62
7
  6
CONTINUOUS
 10
185.4176174242
 20
98.1547967792
 40
7.339893409
100
AcDbArc
 50
181.4601112103
 51
182.0854983863
  0
ARC
  5
3C5
100
AcDbEntity
  8
0
100
AcDbCircle
 62
7
  6
CONTINUOUS
 10
185.288701538
 20
107.2943660531
 40
12.0052004187
100
AcDbArc
 50
251.3416290187
 51
251.840365094
  0
ARC
  5
3C6
100
AcDbEntity
  8
0
100
AcDbCircle
 62
7
  6
CONTINUOUS
 10
125.0624090506
 20
242.8363075143
 40
55.262017352
100
AcDbArc
 50
73.7117791005
 51
74.036031261
  0
ARC
  5
3C7
100
AcDbEntity
  8
0
100
AcDbCircle
 62
7
  6
CONTINUOUS
 10
125.1933879067
 20
243.2941745677
 40
54.7857845315
100
AcDbArc
 50
74.0360304025
 51
74.3621590739
  0
ARC
  5
3C8
100
AcDbEntity
  8
0
100
AcDbCircle
 62
7
  6
CONTINUOUS
 10
125.3206573083
 20
243.7488456915
 40
54.3136369578
100
AcDbArc
 50
74.3621582482
 51
74.6901740549
  0
ARC
  5
3C9
100
AcDbEntity
  8
0
100
AcDbCircle
 62
7
  6
CONTINUOUS
 10
125.464422266
 20
244.1300353071
 40
53.9463878412
100
AcDbArc
 50
74.7490324173
 51
74.8668920035
  0
ARC
  5
3CA
100
AcDbEntity
  8
0
100
AcDbCircle
 62
7
  6
CONTINUOUS
 10
167.5565889457
 20
227.7433649828
 40
16.6267845947
100
AcDbArc
 50
244.7425946426
 51
246.0588692794
  0
ARC
  5
3CB
100
AcDbEntity
  8
0
100
AcDbCircle
 62
7
  6
CONTINUOUS
 10
150.5535502252
 20
243.9508984358
 40
10.429356168
100
AcDbArc
 50
179.6532675865
 51
180.0002555779
  0
ARC
  5
3CC
100
AcDbEntity
  8
0
100
AcDbCircle
 62
7
  6
CONTINUOUS
 10
164.2598034066
 20
253.8263509637
 40
9.9535944599
100
AcDbArc
 50
247.5713283408
 51
249.2871428213
  0
ARC
  5
3CD
100
AcDbEntity
  8
0
100
AcDbCircle
 62
7
  6
CONTINUOUS
 10
141.0751365969
 20
265.7486204335
 40
8.6904769992
100
AcDbArc
 50
206.6369827098
 51
220.8131382354
  0
ARC
  5
3CE
100
AcDbEntity
  8
0
100
AcDbCircle
 62
7
  6
CONTINUOUS
 10
140.9743705225
 20
265.6720144337
 40
8.5643208607
100
AcDbArc
 50
223.6629698071
 51
232.0991805268
  0
ARC
  5
3CF
100
AcDbEntity
  8
0
100
AcDbCircle
 62
7
  6
CONTINUOUS
 10
140.9451024107
 20
265.6406288791
 40
8.5214792211
100
AcDbArc
 50
220.8350352489
 51
223.6461767845
  0
ARC
  5
3D0
100
AcDbEntity
  8
0
100
AcDbCircle
 62
7
  6
CONTINUOUS
 10
169.6562490058
 20
332.3887946207
 40
1.0578588362
100
AcDbArc
 50
179.9841860859
 51
184.0947840345
  0
ARC
  5
3D1
100
AcDbEntity
  8
0
100
AcDbCircle
 62
7
  6
CONTINUOUS
 10
62.6836745795
 20
393.9505217943
 40
0.9830265384
100
AcDbArc
 50
171.3333087197
 51
175.4183327932
  0
ARC
  5
3D2
100
AcDbEntity
  8
0
100
AcDbCircle
 62
7
  6
CONTINUOUS
 10
337.1230413188
 20
136.3932314149
 40
140.4788010033
100
AcDbArc
 50
184.5083044164
 51
186.549835276
  0
ARC
  5
3D3
100
AcDbEntity
  8
0
100
AcDbCircle
 62
7
  6
CONTINUOUS
 10
287.1021292872
 20
143.3418459848
 40
131.3967264163
100
AcDbArc
 50
159.4277929125
 51
161.6527565469
  0
ARC
  5
3D4
100
AcDbEntity
  8
0
100
AcDbCircle
 62
7
  6
CONTINUOUS
 10
254.4398039266
 20
162.0104261705
 40
130.5034330532
100
AcDbArc
 50
159.4202215804
 51
161.6871937726
  0
ARC
  5
3D5
100
AcDbEntity
  8
0
100
AcDbCircle
 62
7
  6
CONTINUOUS
 10
240.5983982761
 20
118.7476672425
 40
15.3899110672
100
AcDbArc
 50
248.7308187424
 51
249.1523301355
  0
ARC
  5
3D6
100
AcDbEntity
  8
0
100
AcDbCircle
 62
7
  6
CONTINUOUS
 10
240.5232403472
 20
118.5545706037
 40
15.1827033788
100
AcDbArc
 50
248.3244854003
 51
248.730791745
  0
ARC
  5
3D7
100
AcDbEntity
  8
0
100
AcDbCircle
 62
7
  6
CONTINUOUS
 10
240.3103946058
 20
118.5913692356
 40
14.6072211869
100
AcDbArc
 50
245.8701783002
 51
249.1920154491
  0
ARC
  5
3D8
100
AcDbEntity
  8
0
100
AcDbCircle
 62
7
  6
CONTINUOUS
 10
239.9450664104
 20
117.7732261832
 40
13.7112180849
100
AcDbArc
 50
244.3325347658
 51
245.8657696141
  0
ARC
  5
3D9
100
AcDbEntity
  8
0
100
AcDbCircle
 62
7
  6
CONTINUOUS
 10
239.6522684528
 20
117.1636351831
 40
13.0349527402
100
AcDbArc
 50
242.7754124772
 51
244.2351089711
  0
ARC
  5
3DA
100
AcDbEntity
  8
0
100
AcDbCircle
 62
7
  6
CONTINUOUS
 10
246.259798902
 20
105.3353051077
 40
12.8036306792
100
AcDbArc
 50
175.7599572371
 51
178.3991156316
  0
ARC
  5
3DB
100
AcDbEntity
  8
0
100
AcDbCircle
 62
7
  6
CONTINUOUS
 10
239.1978678737
 20
116.2830344258
 40
12.0440258974
100
AcDbArc
 50
241.555255609
 51
242.7811462998
  0
ARC
  5
3DC
100
AcDbEntity
  8
0
100
AcDbCircle
 62
7
  6
CONTINUOUS
 10
246.6343384261
 20
104.6464884511
 40
11.516604885
100
AcDbArc
 50
178.5550117224
 51
179.9874349358
  0
ARC
  5
3DD
100
AcDbEntity
  8
0
100
AcDbCircle
 62
7
  6
CONTINUOUS
 10
243.1695007612
 20
106.6468681484
 40
11.5166048732
100
AcDbArc
 50
178.5550117217
 51
179.9874349365
  0
ARC
  5
3DE
100
AcDbEntity
  8
0
100
AcDbCircle
 62
7
  6
CONTINUOUS
 10
239.0136823793
 20
117.3942449569
 40
11.253230759
100
AcDbArc
 50
238.5453908209
 51
241.4557317054
  0
ARC
  5
3DF
100
AcDbEntity
  8
0
100
AcDbCircle
 62
7
  6
CONTINUOUS
 10
238.9311766611
 20
113.2504757842
 40
11.0882705316
100
AcDbArc
 50
238.5237374864
 51
241.4773850399
  0
ARC
  5
3E0
100
AcDbEntity
  8
0
100
AcDbCircle
 62
7
  6
CONTINUOUS
 10
242.6728954125
 20
106.6498059565
 40
11.0199992553
100
AcDbArc
 50
180.0021431156
 51
181.4771354775
  0
ARC
  5
3E1
100
AcDbEntity
  8
0
100
AcDbCircle
 62
7
  6
CONTINUOUS
 10
246.1377330538
 20
104.6494262592
 40
11.0199992434
100
AcDbArc
 50
180.0021431148
 51
181.4771354783
  0
ARC
  5
3E2
100
AcDbEntity
  8
0
100
AcDbCircle
 62
7
  6
CONTINUOUS
 10
238.4996754002
 20
114.4027799826
 40
10.5612315241
100
AcDbArc
 50
235.2819353328
 51
238.4028659019
  0
ARC
  5
3E3
100
AcDbEntity
  8
0
100
AcDbCircle
 62
7
  6
CONTINUOUS
 10
236.6612617252
 20
107.5376557223
 40
5.4854249361
100
AcDbArc
 50
212.0972280893
 51
212.8443147213
  0
ARC
  5
3E4
100
AcDbEntity
  8
0
100
AcDbCircle
 62
7
  6
CONTINUOUS
 10
227.1332998638
 20
115.2824100614
 40
5.4097525297
100
AcDbArc
 50
6.573782739
 51
9.7548917065
  0
ARC
  5
3E5
100
AcDbEntity
  8
0
100
AcDbCircle
 62
7
  6
CONTINUOUS
 10
235.3175347644
 20
109.9108434792
 40
2.3337082867
100
AcDbArc
 50
152.4899618297
 51
153.8612930719
  0
ARC
  5
3E6
100
AcDbEntity
  8
0
100
AcDbCircle
 62
7
  6
CONTINUOUS
 10
238.0416372372
 20
105.1872418296
 40
2.32928554
100
AcDbArc
 50
266.1561852281
 51
267.5354141092
  0
ARC
  5
3E7
100
AcDbEntity
  8
0
100
AcDbCircle
 62
7
  6
CONTINUOUS
 10
237.7603640209
 20
104.981765943
 40
1.8495586625
100
AcDbArc
 50
324.8538396597
 51
325.4646981965
  0
ARC
  5
3E8
100
AcDbEntity
  8
0
100
AcDbCircle
 62
7
  6
CONTINUOUS
 10
236.7799789735
 20
104.5264681793
 40
1.8490527302
100
AcDbArc
 50
325.4702045147
 51
327.4786428305
  0
ARC
  5
3E9
100
AcDbEntity
  8
0
100
AcDbCircle
 62
7
  6
CONTINUOUS
 10
235.7224182993
 20
103.9898470413
 40
1.7832600674
100
AcDbArc
 50
324.8951822891
 51
327.0383105572
  0
ARC
  5
3EA
100
AcDbEntity
  8
0
100
AcDbCircle
 62
7
  6
CONTINUOUS
 10
229.5422361915
 20
114.3020379225
 40
1.7832517332
100
AcDbArc
 50
324.8951799274
 51
327.0379285619
  0
ARC
  5
3EB
100
AcDbEntity
  8
0
100
AcDbCircle
 62
7
  6
CONTINUOUS
 10
234.7871327031
 20
110.3138345309
 40
1.6612012411
100
AcDbArc
 50
119.9973025463
 51
122.9842808055
  0
ARC
  5
3EC
100
AcDbEntity
  8
0
100
AcDbCircle
 62
7
  6
CONTINUOUS
 10
238.126034723
 20
104.5309477688
 40
1.6612012412
100
AcDbArc
 50
297.004887548
 51
302.9842808055
  0
ARC
  5
3ED
100
AcDbEntity
  8
0
100
AcDbCircle
 62
7
  6
CONTINUOUS
 10
237.0349865934
 20
104.2989392101
 40
1.5057904326
100
AcDbArc
 50
293.8483290164
 51
299.0599113208
  0
ARC
  5
3EE
100
AcDbEntity
  8
0
100
AcDbCircle
 62
7
  6
CONTINUOUS
 10
234.0390445525
 20
109.4872291637
 40
1.5030138561
100
AcDbArc
 50
120.8678530587
 51
126.1462596552
  0
ARC
  5
3EF
100
AcDbEntity
  8
0
100
AcDbCircle
 62
7
  6
CONTINUOUS
 10
230.856095775
 20
114.6083251419
 40
1.5027046565
100
AcDbArc
 50
293.8459357801
 51
301.4013297159
  0
ARC
  5
3F0
100
AcDbEntity
  8
0
100
AcDbCircle
 62
7
  6
CONTINUOUS
 10
240.1377740293
 20
408.0769095582
 40
174.02208594
100
AcDbArc
 50
240.0063892589
 51
241.2426739492
  0
ARC
  5
3F1
100
AcDbEntity
  8
0
100
AcDbCircle
 62
7
  6
CONTINUOUS
 10
236.9137065954
 20
402.4689340604
 40
167.5534020659
100
AcDbArc
 50
238.7347100664
 51
240.0025791579
  0
ARC
  5
3F2
100
AcDbEntity
  8
0
100
AcDbCircle
 62
7
  6
CONTINUOUS
 10
218.9981500472
 20
377.2697232809
 40
144.9858369167
100
AcDbArc
 50
246.0451303709
 51
246.188070599
  0
ARC
  5
3F3
100
AcDbEntity
  8
0
100
AcDbCircle
 62
7
  6
CONTINUOUS
 10
212.5970326851
 20
363.1523671878
 40
129.5249404382
100
AcDbArc
 50
233.588376384
 51
233.7428713607
  0
ARC
  5
3F4
100
AcDbEntity
  8
0
100
AcDbCircle
 62
7
  6
CONTINUOUS
 10
204.1272361904
 20
469.5184477703
 40
6.5977096079
100
AcDbArc
 50
180.0017042039
 51
180.7616202665
  0
ARC
  5
3F5
100
AcDbEntity
  8
0
100
AcDbCircle
 62
7
  6
CONTINUOUS
 10
201.937963953
 20
471.1701730684
 40
2.849808822
100
AcDbArc
 50
142.3882103637
 51
148.7443023934
  0
ARC
  5
3F6
100
AcDbEntity
  8
0
100
AcDbCircle
 62
7
  6
CONTINUOUS
 10
315.0755199766
 20
405.8516523452
 40
2.849808822
100
AcDbArc
 50
142.3882103637
 51
148.7443023933
  0
ARC
  5
3F7
100
AcDbEntity
  8
0
100
AcDbCircle
 62
7
  6
CONTINUOUS
 10
201.807966621
 20
471.2670135424
 40
2.6877283537
100
AcDbArc
 50
141.3058667385
 51
142.3322541325
  0
ARC
  5
3F8
100
AcDbEntity
  8
0
100
AcDbCircle
 62
7
  6
CONTINUOUS
 10
314.9455226445
 20
405.9484928193
 40
2.6877283536
100
AcDbArc
 50
141.3058667386
 51
142.3322541326
  0
SPLINE
  5
3F9
100
AcDbEntity
  8
0
100
AcDbSpline
 62
7
  6
CONTINUOUS
 70
0
 71
3
 72
11
 73
7
 74
0
 42
0.0000001
 43
0.0000001
 44
0.0000000001
 40
0.0
 40
0.0
 40
0.0
 40
0.0
 40
0.2498747495
 40
0.4998465131
 40
0.7498769319
 40
1.0
 40
1.0
 40
1.0
 40
1.0
 10
226.1091352941
 20
50.176736776
 30
0.0
 10
225.6137335981
 20
50.5722157455
 30
0.0
 10
224.7038599307
 20
51.4719155724
 30
0.0
 10
223.6635819393
 20
53.081959926
 30
0.0
 10
222.9932257338
 20
54.8783576362
 30
0.0
 10
222.8148605382
 20
56.1464858585
 30
0.0
 10
222.7949672881
 20
56.7807017201
 30
0.0
  0
SPLINE
  5
3FA
100
AcDbEntity
  8
0
100
AcDbSpline
 62
7
  6
CONTINUOUS
 70
0
 71
3
 72
9
 73
5
 74
0
 42
0.0000001
 43
0.0000001
 44
0.0000000001
 40
0.0
 40
0.0
 40
0.0
 40
0.0
 40
0.5000577561
 40
1.0
 40
1.0
 40
1.0
 40
1.0
 10
232.7925491179
 20
48.2154679513
 30
0.0
 10
231.6161727959
 20
48.0757485226
 30
0.0
 10
229.1781864036
 20
48.2800269872
 30
0.0
 10
227.034740872
 20
49.437826225
 30
0.0
 10
226.1091352941
 20
50.176736776
 30
0.0
  0
SPLINE
  5
3FB
100
AcDbEntity
  8
0
100
AcDbSpline
 62
7
  6
CONTINUOUS
 70
0
 71
3
 72
11
 73
7
 74
0
 42
0.0000001
 43
0.0000001
 44
0.0000000001
 40
0.0
 40
0.0
 40
0.0
 40
0.0
 40
0.2498951784
 40
0.499882852
 40
0.7499209839
 40
1.0
 40
1.0
 40
1.0
 40
1.0
 10
192.1680219854
 20
69.772171526
 30
0.0
 10
191.7121939364
 20
70.1360499798
 30
0.0
 10
190.8691166631
 20
70.9554863079
 30
0.0
 10
189.874754447
 20
72.4096473917
 30
0.0
 10
189.18762639
 20
74.0321056635
 30
0.0
 10
188.9530102713
 20
75.1849168571
 30
0.0
 10
188.8941554536
 20
75.765626386
 30
0.0
  0
SPLINE
  5
3FC
100
AcDbEntity
  8
0
100
AcDbSpline
 62
7
  6
CONTINUOUS
 70
0
 71
3
 72
9
 73
5
 74
0
 42
0.0000001
 43
0.0000001
 44
0.0000000001
 40
0.0
 40
0.0
 40
0.0
 40
0.0
 40
0.4526550531
 40
1.0
 40
1.0
 40
1.0
 40
1.0
 10
245.0719524964
 20
46.848712962
 30
0.0
 10
245.0163422194
 20
46.8931344319
 30
0.0
 10
244.9261779955
 20
47.0324450736
 30
0.0
 10
244.9065226347
 20
47.191977837
 30
0.0
 10
244.9065225479
 20
47.2780408348
 30
0.0
  0
SPLINE
  5
3FD
100
AcDbEntity
  8
0
100
AcDbSpline
 62
7
  6
CONTINUOUS
 70
0
 71
3
 72
12
 73
8
 74
0
 42
0.0000001
 43
0.0000001
 44
0.0000000001
 40
0.0
 40
0.0
 40
0.0
 40
0.0
 40
0.2500194123
 40
0.4999709242
 40
0.7498449459
 40
0.874908532
 40
1.0
 40
1.0
 40
1.0
 40
1.0
 10
200.8628367507
 20
68.2952969018
 30
0.0
 10
200.1432698436
 20
68.0290790187
 30
0.0
 10
198.6264551397
 20
67.6850272995
 30
0.0
 10
196.302565187
 20
67.7777660885
 30
0.0
 10
194.4483946085
 20
68.3559313314
 30
0.0
 10
193.0983568392
 20
69.0911289136
 30
0.0
 10
192.4678677612
 20
69.5328036962
 30
0.0
 10
192.1678684871
 20
69.772292993
 30
0.0
  0
SPLINE
  5
3FE
100
AcDbEntity
  8
0
100
AcDbSpline
 62
7
  6
CONTINUOUS
 70
0
 71
3
 72
11
 73
7
 74
0
 42
0.0000001
 43
0.0000001
 44
0.0000000001
 40
0.0
 40
0.0
 40
0.0
 40
0.0
 40
0.2180538448
 40
0.4513394532
 40
0.7105402379
 40
1.0
 40
1.0
 40
1.0
 40
1.0
 10
118.5197572865
 20
118.158686191
 30
0.0
 10
118.4345945872
 20
118.2072924374
 30
0.0
 10
118.2750587304
 20
118.3399372772
 30
0.0
 10
118.1042599315
 20
118.6151504909
 30
0.0
 10
118.0020873353
 20
118.9549103695
 30
0.0
 10
117.9810053569
 20
119.2023660627
 30
0.0
 10
117.9803378233
 20
119.3325325213
 30
0.0
  0
SPLINE
  5
3FF
100
AcDbEntity
  8
0
100
AcDbSpline
 62
7
  6
CONTINUOUS
 70
0
 71
3
 72
10
 73
6
 74
0
 42
0.0000001
 43
0.0000001
 44
0.0000000001
 40
0.0
 40
0.0
 40
0.0
 40
0.0
 40
0.2482675414
 40
0.4960022755
 40
1.0
 40
1.0
 40
1.0
 40
1.0
 10
230.370347247
 20
112.7500005259
 30
0.0
 10
230.1253680884
 20
112.641584438
 30
0.0
 10
229.5974292347
 20
112.5029720251
 30
0.0
 10
228.5072244668
 20
112.5503683198
 30
0.0
 10
227.739555633
 20
112.9074116786
 30
0.0
 10
227.2942397387
 20
113.2196024944
 30
0.0
  0
SPLINE
  5
400
100
AcDbEntity
  8
0
100
AcDbSpline
 62
7
  6
CONTINUOUS
 70
0
 71
3
 72
11
 73
7
 74
0
 42
0.0000001
 43
0.0000001
 44
0.0000000001
 40
0.0
 40
0.0
 40
0.0
 40
0.0
 40
0.2372465128
 40
0.5000021152
 40
0.7627462928
 40
1.0
 40
1.0
 40
1.0
 40
1.0
 10
243.4923097942
 20
113.1175245255
 30
0.0
 10
243.6929660972
 20
113.0013842446
 30
0.0
 10
244.0731604214
 20
112.681992832
 30
0.0
 10
244.5163501321
 20
112.0757542413
 30
0.0
 10
244.8196021349
 20
111.3888505338
 30
0.0
 10
244.9065216373
 20
110.8998987597
 30
0.0
 10
244.906521654
 20
110.6680479956
 30
0.0
  0
SPLINE
  5
401
100
AcDbEntity
  8
0
100
AcDbSpline
 62
7
  6
CONTINUOUS
 70
0
 71
3
 72
15
 73
11
 74
0
 42
0.0000001
 43
0.0000001
 44
0.0000000001
 40
0.0
 40
0.0
 40
0.0
 40
0.0
 40
0.1288240348
 40
0.2705965001
 40
0.4178966207
 40
0.5623922565
 40
0.6962054166
 40
0.8135974635
 40
0.9130663147
 40
1.0
 40
1.0
 40
1.0
 40
1.0
 10
244.0225964066
 20
113.8318562518
 30
0.0
 10
244.207648376
 20
113.7250188644
 30
0.0
 10
244.5668768048
 20
113.4485399523
 30
0.0
 10
245.0266994821
 20
112.9254983446
 30
0.0
 10
245.4051040097
 20
112.3098801794
 30
0.0
 10
245.6709332346
 20
111.6521566806
 30
0.0
 10
245.8029319805
 20
111.0047007802
 30
0.0
 10
245.7890125247
 20
110.417017697
 30
0.0
 10
245.624138358
 20
109.9290864272
 30
0.0
 10
245.3974077825
 20
109.6977391743
 30
0.0
 10
245.2725333853
 20
109.6256369023
 30
0.0
  0
SPLINE
  5
402
100
AcDbEntity
  8
0
100
AcDbSpline
 62
7
  6
CONTINUOUS
 70
0
 71
3
 72
15
 73
11
 74
0
 42
0.0000001
 43
0.0000001
 44
0.0000000001
 40
0.0
 40
0.0
 40
0.0
 40
0.0
 40
0.1288316397
 40
0.2705711911
 40
0.417888617
 40
0.5623863661
 40
0.6962007393
 40
0.8135914539
 40
0.9130639241
 40
1.0
 40
1.0
 40
1.0
 40
1.0
 10
156.7838484792
 20
106.7378592204
 30
0.0
 10
157.0799540403
 20
106.5669064625
 30
0.0
 10
157.6547246608
 20
106.1246282017
 30
0.0
 10
158.3903329817
 20
105.2876732201
 30
0.0
 10
158.995887193
 20
104.3027745843
 30
0.0
 10
159.4211885453
 20
103.2503183668
 30
0.0
 10
159.6324286213
 20
102.2143876669
 30
0.0
 10
159.6102018491
 20
101.274046765
 30
0.0
 10
159.3463483973
 20
100.4933861608
 30
0.0
 10
158.98365845
 20
100.1230924151
 30
0.0
 10
158.7838303686
 20
100.0077587188
 30
0.0
  0
SPLINE
  5
403
100
AcDbEntity
  8
0
100
AcDbSpline
 62
7
  6
CONTINUOUS
 70
0
 71
3
 72
9
 73
5
 74
0
 42
0.0000001
 43
0.0000001
 44
0.0000000001
 40
0.0
 40
0.0
 40
0.0
 40
0.0
 40
0.2576555153
 40
1.0
 40
1.0
 40
1.0
 40
1.0
 10
157.3691950259
 20
99.3469992176
 30
0.0
 10
157.4216182669
 20
99.3517846522
 30
0.0
 10
157.6240038807
 20
99.3802136728
 30
0.0
 10
157.8207695818
 20
99.4517464067
 30
0.0
 10
157.9521232316
 20
99.5275697542
 30
0.0
  0
SPLINE
  5
404
100
AcDbEntity
  8
0
100
AcDbSpline
 62
7
  6
CONTINUOUS
 70
0
 71
3
 72
9
 73
5
 74
0
 42
0.0000001
 43
0.0000001
 44
0.0000000001
 40
0.0
 40
0.0
 40
0.0
 40
0.0
 40
0.264891444
 40
1.0
 40
1.0
 40
1.0
 40
1.0
 10
156.2064896208
 20
99.1310442731
 30
0.0
 10
156.2715264462
 20
99.1222793764
 30
0.0
 10
156.5182974351
 20
99.1013315469
 30
0.0
 10
156.7715526273
 20
99.1360886401
 30
0.0
 10
156.9426804776
 20
99.1983943661
 30
0.0
  0
SPLINE
  5
405
100
AcDbEntity
  8
0
100
AcDbSpline
 62
7
  6
CONTINUOUS
 70
0
 71
3
 72
9
 73
5
 74
0
 42
0.0000001
 43
0.0000001
 44
0.0000000001
 40
0.0
 40
0.0
 40
0.0
 40
0.0
 40
0.4906364125
 40
1.0
 40
1.0
 40
1.0
 40
1.0
 10
248.9834597806
 20
48.646750746
 30
0.0
 10
249.105591637
 20
48.5491861677
 30
0.0
 10
249.3201466306
 20
48.3035207054
 30
0.0
 10
249.4382055097
 20
48.0007887999
 30
0.0
 10
249.4741838146
 20
47.8425436511
 30
0.0
  0
SPLINE
  5
406
100
AcDbEntity
  8
0
100
AcDbSpline
 62
7
  6
CONTINUOUS
 70
0
 71
3
 72
9
 73
5
 74
0
 42
0.0000001
 43
0.0000001
 44
0.0000000001
 40
0.0
 40
0.0
 40
0.0
 40
0.0
 40
0.262767191
 40
1.0
 40
1.0
 40
1.0
 40
1.0
 10
153.6756938564
 20
101.1058196017
 30
0.0
 10
153.679542855
 20
100.9654236957
 30
0.0
 10
153.7069924415
 20
100.4317023932
 30
0.0
 10
153.7940342282
 20
99.8999233946
 30
0.0
 10
153.8990711828
 20
99.5201307154
 30
0.0
  0
SPLINE
  5
407
100
AcDbEntity
  8
0
100
AcDbSpline
 62
7
  6
CONTINUOUS
 70
0
 71
3
 72
9
 73
5
 74
0
 42
0.0000001
 43
0.0000001
 44
0.0000000001
 40
0.0
 40
0.0
 40
0.0
 40
0.0
 40
0.7449951345
 40
1.0
 40
1.0
 40
1.0
 40
1.0
 10
229.6551114917
 20
53.0300844353
 30
0.0
 10
229.7189450207
 20
52.9791040016
 30
0.0
 10
229.7924288521
 20
52.8933033033
 30
0.0
 10
229.8423340862
 20
52.795581912
 30
0.0
 10
229.8536429191
 20
52.7700080373
 30
0.0
  0
SPLINE
  5
408
100
AcDbEntity
  8
0
100
AcDbSpline
 62
7
  6
CONTINUOUS
 70
0
 71
3
 72
9
 73
5
 74
0
 42
0.0000001
 43
0.0000001
 44
0.0000000001
 40
0.0
 40
0.0
 40
0.0
 40
0.0
 40
0.2376930253
 40
1.0
 40
1.0
 40
1.0
 40
1.0
 10
151.9191962771
 20
102.9494302586
 30
0.0
 10
152.0083200718
 20
102.8588668142
 30
0.0
 10
152.3963492563
 20
102.4907090982
 30
0.0
 10
152.8336758834
 20
102.176569684
 30
0.0
 10
153.1808687044
 20
101.9632273797
 30
0.0
  0
SPLINE
  5
409
100
AcDbEntity
  8
0
100
AcDbSpline
 62
7
  6
CONTINUOUS
 70
0
 71
3
 72
9
 73
5
 74
0
 42
0.0000001
 43
0.0000001
 44
0.0000000001
 40
0.0
 40
0.0
 40
0.0
 40
0.0
 40
0.253816332
 40
1.0
 40
1.0
 40
1.0
 40
1.0
 10
153.8990713243
 20
103.520992641
 30
0.0
 10
153.8839155824
 20
103.4486922625
 30
0.0
 10
153.8268236914
 20
103.1632997474
 30
0.0
 10
153.7804826063
 20
102.8757293648
 30
0.0
 10
153.7527048779
 20
102.6603406822
 30
0.0
  0
SPLINE
  5
40A
100
AcDbEntity
  8
0
100
AcDbSpline
 62
7
  6
CONTINUOUS
 70
0
 71
3
 72
9
 73
5
 74
0
 42
0.0000001
 43
0.0000001
 44
0.0000000001
 40
0.0
 40
0.0
 40
0.0
 40
0.0
 40
0.2460967469
 40
1.0
 40
1.0
 40
1.0
 40
1.0
 10
154.5651390859
 20
101.2527312748
 30
0.0
 10
154.6312666544
 20
101.225130085
 30
0.0
 10
154.9011355032
 20
101.1157723463
 30
0.0
 10
155.1754523143
 20
101.0174691102
 30
0.0
 10
155.3840337882
 20
100.9490504794
 30
0.0
  0
SPLINE
  5
40B
100
AcDbEntity
  8
0
100
AcDbSpline
 62
7
  6
CONTINUOUS
 70
0
 71
3
 72
14
 73
10
 74
0
 42
0.0000001
 43
0.0000001
 44
0.0000000001
 40
0.0
 40
0.0
 40
0.0
 40
0.0
 40
0.1174791208
 40
0.2352817582
 40
0.355793049
 40
0.4817912412
 40
0.6130411684
 40
0.7461083045
 40
1.0
 40
1.0
 40
1.0
 40
1.0
 10
236.5505497175
 20
102.4378105402
 30
0.0
 10
236.242897584
 20
102.3016556389
 30
0.0
 10
235.5645516292
 20
102.1539393766
 30
0.0
 10
234.5397270534
 20
102.3132527202
 30
0.0
 10
233.5916252093
 20
102.777866612
 30
0.0
 10
232.7523134025
 20
103.4726260073
 30
0.0
 10
232.0417730669
 20
104.3449438756
 30
0.0
 10
231.3197563952
 20
105.6443536282
 30
0.0
 10
231.0380136025
 20
106.759053556
 30
0.0
 10
231.0380136025
 20
107.4861432461
 30
0.0
  0
SPLINE
  5
40C
100
AcDbEntity
  8
0
100
AcDbSpline
 62
7
  6
CONTINUOUS
 70
0
 71
3
 72
15
 73
11
 74
0
 42
0.0000001
 43
0.0000001
 44
0.0000000001
 40
0.0
 40
0.0
 40
0.0
 40
0.0
 40
0.1288316397
 40
0.2705711911
 40
0.417888617
 40
0.5623863661
 40
0.6962007393
 40
0.8135914539
 40
0.9130639241
 40
1.0
 40
1.0
 40
1.0
 40
1.0
 10
182.9469083096
 20
102.2474827259
 30
0.0
 10
183.2430138708
 20
102.0765299679
 30
0.0
 10
183.8177844913
 20
101.6342517071
 30
0.0
 10
184.5533928122
 20
100.7972967256
 30
0.0
 10
185.1589470235
 20
99.8123980897
 30
0.0
 10
185.5842483757
 20
98.7599418722
 30
0.0
 10
185.7954884518
 20
97.7240111724
 30
0.0
 10
185.7732616795
 20
96.7836702704
 30
0.0
 10
185.5094082277
 20
96.0030096662
 30
0.0
 10
185.1467182805
 20
95.6327159205
 30
0.0
 10
184.946890199
 20
95.5173822243
 30
0.0
  0
SPLINE
  5
40D
100
AcDbEntity
  8
0
100
AcDbSpline
 62
7
  6
CONTINUOUS
 70
0
 71
3
 72
10
 73
6
 74
0
 42
0.0000001
 43
0.0000001
 44
0.0000000001
 40
0.0
 40
0.0
 40
0.0
 40
0.0
 40
0.5019799682
 40
0.7504455341
 40
1.0
 40
1.0
 40
1.0
 40
1.0
 10
231.0380136025
 20
107.4861432461
 30
0.0
 10
231.0380136025
 20
107.963436717
 30
0.0
 10
231.1649752419
 20
108.6933275568
 30
0.0
 10
231.65039926
 20
109.5208004587
 30
0.0
 10
231.9951521084
 20
109.8561832843
 30
0.0
 10
232.1868065797
 20
109.9960804704
 30
0.0
  0
SPLINE
  5
40E
100
AcDbEntity
  8
0
100
AcDbSpline
 62
7
  6
CONTINUOUS
 70
0
 71
3
 72
9
 73
5
 74
0
 42
0.0000001
 43
0.0000001
 44
0.0000000001
 40
0.0
 40
0.0
 40
0.0
 40
0.0
 40
0.2576555153
 40
1.0
 40
1.0
 40
1.0
 40
1.0
 10
183.5322548563
 20
94.856622723
 30
0.0
 10
183.5846780974
 20
94.8614081577
 30
0.0
 10
183.7870637111
 20
94.8898371782
 30
0.0
 10
183.9838294122
 20
94.9613699122
 30
0.0
 10
184.115183062
 20
95.0371932596
 30
0.0
  0
SPLINE
  5
40F
100
AcDbEntity
  8
0
100
AcDbSpline
 62
7
  6
CONTINUOUS
 70
0
 71
3
 72
9
 73
5
 74
0
 42
0.0000001
 43
0.0000001
 44
0.0000000001
 40
0.0
 40
0.0
 40
0.0
 40
0.0
 40
0.264891444
 40
1.0
 40
1.0
 40
1.0
 40
1.0
 10
182.3695494513
 20
94.6406677785
 30
0.0
 10
182.4345862767
 20
94.6319028818
 30
0.0
 10
182.6813572655
 20
94.6109550523
 30
0.0
 10
182.9346124578
 20
94.6457121455
 30
0.0
 10
183.105740308
 20
94.7080178715
 30
0.0
  0
SPLINE
  5
410
100
AcDbEntity
  8
0
100
AcDbSpline
 62
7
  6
CONTINUOUS
 70
0
 71
3
 72
9
 73
5
 74
0
 42
0.0000001
 43
0.0000001
 44
0.0000000001
 40
0.0
 40
0.0
 40
0.0
 40
0.0
 40
0.2456974681
 40
1.0
 40
1.0
 40
1.0
 40
1.0
 10
233.237366879
 20
110.8753834893
 30
0.0
 10
233.1874189966
 20
110.8465512821
 30
0.0
 10
232.99077767
 20
110.7177953176
 30
0.0
 10
232.8249445978
 20
110.543927115
 30
0.0
 10
232.7228097623
 20
110.39929844
 30
0.0
  0
SPLINE
  5
411
100
AcDbEntity
  8
0
100
AcDbSpline
 62
7
  6
CONTINUOUS
 70
0
 71
3
 72
9
 73
5
 74
0
 42
0.0000001
 43
0.0000001
 44
0.0000000001
 40
0.0
 40
0.0
 40
0.0
 40
0.0
 40
0.262767191
 40
1.0
 40
1.0
 40
1.0
 40
1.0
 10
179.8387536868
 20
96.6154431071
 30
0.0
 10
179.8426026855
 20
96.4750472011
 30
0.0
 10
179.8700522719
 20
95.9413258986
 30
0.0
 10
179.9570940587
 20
95.4095469001
 30
0.0
 10
180.0621310133
 20
95.0297542209
 30
0.0
  0
SPLINE
  5
412
100
AcDbEntity
  8
0
100
AcDbSpline
 62
7
  6
CONTINUOUS
 70
0
 71
3
 72
11
 73
7
 74
0
 42
0.0000001
 43
0.0000001
 44
0.0000000001
 40
0.0
 40
0.0
 40
0.0
 40
0.0
 40
0.2177849011
 40
0.4509184398
 40
0.7103088704
 40
1.0
 40
1.0
 40
1.0
 40
1.0
 10
234.6637080154
 20
112.1607559183
 30
0.0
 10
234.8286512273
 20
112.2559553025
 30
0.0
 10
235.2075879298
 20
112.3935180573
 30
0.0
 10
235.8370401945
 20
112.4094415847
 30
0.0
 10
236.5078613547
 20
112.247438877
 30
0.0
 10
236.9443027247
 20
112.0398139555
 30
0.0
 10
237.1636889833
 20
111.9131541054
 30
0.0
  0
SPLINE
  5
413
100
AcDbEntity
  8
0
100
AcDbSpline
 62
7
  6
CONTINUOUS
 70
0
 71
3
 72
9
 73
5
 74
0
 42
0.0000001
 43
0.0000001
 44
0.0000000001
 40
0.0
 40
0.0
 40
0.0
 40
0.0
 40
0.2454327383
 40
1.0
 40
1.0
 40
1.0
 40
1.0
 10
233.8827599232
 20
111.7072832879
 30
0.0
 10
233.8361201318
 20
111.6770147261
 30
0.0
 10
233.6522606854
 20
111.5442728897
 30
0.0
 10
233.4959051766
 20
111.3746651912
 30
0.0
 10
233.397297847
 20
111.2350316631
 30
0.0
  0
SPLINE
  5
414
100
AcDbEntity
  8
0
100
AcDbSpline
 62
7
  6
CONTINUOUS
 70
0
 71
3
 72
8
 73
4
 74
0
 42
0.0000001
 43
0.0000001
 44
0.0000000001
 40
0.0
 40
0.0
 40
0.0
 40
0.0
 40
1.0
 40
1.0
 40
1.0
 40
1.0
 10
233.397297847
 20
111.2350316631
 30
0.0
 10
233.3418971642
 20
111.1565811784
 30
0.0
 10
233.2920651741
 20
111.073971106
 30
0.0
 10
233.2476990566
 20
110.9887926942
 30
0.0
  0
SPLINE
  5
415
100
AcDbEntity
  8
0
100
AcDbSpline
 62
7
  6
CONTINUOUS
 70
0
 71
3
 72
9
 73
5
 74
0
 42
0.0000001
 43
0.0000001
 44
0.0000000001
 40
0.0
 40
0.0
 40
0.0
 40
0.0
 40
0.2376930253
 40
1.0
 40
1.0
 40
1.0
 40
1.0
 10
178.0822561075
 20
98.459053764
 30
0.0
 10
178.1713799022
 20
98.3684903196
 30
0.0
 10
178.5594090867
 20
98.0003326036
 30
0.0
 10
178.9967357138
 20
97.6861931895
 30
0.0
 10
179.3439285349
 20
97.4728508852
 30
0.0
  0
SPLINE
  5
416
100
AcDbEntity
  8
0
100
AcDbSpline
 62
7
  6
CONTINUOUS
 70
0
 71
3
 72
9
 73
5
 74
0
 42
0.0000001
 43
0.0000001
 44
0.0000000001
 40
0.0
 40
0.0
 40
0.0
 40
0.0
 40
0.253816332
 40
1.0
 40
1.0
 40
1.0
 40
1.0
 10
180.0621311547
 20
99.0306161465
 30
0.0
 10
180.0469754129
 20
98.9583157679
 30
0.0
 10
179.9898835218
 20
98.6729232528
 30
0.0
 10
179.9435424367
 20
98.3853528702
 30
0.0
 10
179.9157647083
 20
98.1699641877
 30
0.0
  0
SPLINE
  5
417
100
AcDbEntity
  8
0
100
AcDbSpline
 62
7
  6
CONTINUOUS
 70
0
 71
3
 72
9
 73
5
 74
0
 42
0.0000001
 43
0.0000001
 44
0.0000000001
 40
0.0
 40
0.0
 40
0.0
 40
0.0
 40
0.2460967469
 40
1.0
 40
1.0
 40
1.0
 40
1.0
 10
180.7281989163
 20
96.7623547802
 30
0.0
 10
180.7943264849
 20
96.7347535905
 30
0.0
 10
181.0641953336
 20
96.6253958517
 30
0.0
 10
181.3385121447
 20
96.5270926156
 30
0.0
 10
181.5470936187
 20
96.4586739849
 30
0.0
  0
SPLINE
  5
418
100
AcDbEntity
  8
0
100
AcDbSpline
 62
7
  6
CONTINUOUS
 70
0
 71
3
 72
10
 73
6
 74
0
 42
0.0000001
 43
0.0000001
 44
0.0000000001
 40
0.0
 40
0.0
 40
0.0
 40
0.0
 40
0.5013160199
 40
0.750056251
 40
1.0
 40
1.0
 40
1.0
 40
1.0
 10
177.9067810275
 20
98.5424720985
 30
0.0
 10
177.9067810275
 20
98.9174981429
 30
0.0
 10
178.0076528814
 20
99.4914261536
 30
0.0
 10
178.390740988
 20
100.1417287111
 30
0.0
 10
178.6625267047
 20
100.4056869233
 30
0.0
 10
178.8135506749
 20
100.5159266305
 30
0.0
  0
SPLINE
  5
419
100
AcDbEntity
  8
0
100
AcDbSpline
 62
7
  6
CONTINUOUS
 70
0
 71
3
 72
16
 73
12
 74
0
 42
0.0000001
 43
0.0000001
 44
0.0000000001
 40
0.0
 40
0.0
 40
0.0
 40
0.0
 40
0.1287480916
 40
0.2703957241
 40
0.4176176139
 40
0.5620216554
 40
0.6957492491
 40
0.8130638352
 40
0.9124717969
 40
0.9571193719
 40
1.0
 40
1.0
 40
1.0
 40
1.0
 10
237.1636889833
 20
111.9131541054
 30
0.0
 10
237.5338214687
 20
111.6994628497
 30
0.0
 10
238.2522828115
 20
111.1466128091
 30
0.0
 10
239.171809215
 20
110.100424578
 30
0.0
 10
239.9286964913
 20
108.869272502
 30
0.0
 10
240.4605273202
 20
107.5537974017
 30
0.0
 10
240.723903945
 20
106.2585605303
 30
0.0
 10
240.6981961885
 20
105.084123461
 30
0.0
 10
240.4089469025
 20
104.2415024278
 30
0.0
 10
240.0205578312
 20
103.7506212453
 30
0.0
 10
239.7869548823
 20
103.5716720428
 30
0.0
 10
239.6636699512
 20
103.5005163438
 30
0.0
  0
SPLINE
  5
41A
100
AcDbEntity
  8
0
100
AcDbSpline
 62
7
  6
CONTINUOUS
 70
0
 71
3
 72
9
 73
5
 74
0
 42
0.0000001
 43
0.0000001
 44
0.0000000001
 40
0.0
 40
0.0
 40
0.0
 40
0.0
 40
0.252679269
 40
1.0
 40
1.0
 40
1.0
 40
1.0
 10
182.2090827968
 20
94.6346573703
 30
0.0
 10
182.1487933511
 20
94.6079757699
 30
0.0
 10
181.9051600555
 20
94.5139774564
 30
0.0
 10
181.643514877
 20
94.4680330918
 30
0.0
 10
181.4486617423
 20
94.4606550593
 30
0.0
  0
SPLINE
  5
41B
100
AcDbEntity
  8
0
100
AcDbSpline
 62
7
  6
CONTINUOUS
 70
0
 71
3
 72
9
 73
5
 74
0
 42
0.0000001
 43
0.0000001
 44
0.0000000001
 40
0.0
 40
0.0
 40
0.0
 40
0.0
 40
0.495659807
 40
1.0
 40
1.0
 40
1.0
 40
1.0
 10
181.4486617423
 20
94.4606550593
 30
0.0
 10
181.1957178995
 20
94.4510774465
 30
0.0
 10
180.6793716524
 20
94.520849448
 30
0.0
 10
180.2096773234
 20
94.736781974
 30
0.0
 10
179.9892638234
 20
94.8700262166
 30
0.0
  0
SPLINE
  5
41C
100
AcDbEntity
  8
0
100
AcDbSpline
 62
7
  6
CONTINUOUS
 70
0
 71
3
 72
11
 73
7
 74
0
 42
0.0000001
 43
0.0000001
 44
0.0000000001
 40
0.0
 40
0.0
 40
0.0
 40
0.0
 40
0.2441799466
 40
0.4995028347
 40
0.7550127619
 40
1.0
 40
1.0
 40
1.0
 40
1.0
 10
179.9892638234
 20
94.8700262166
 30
0.0
 10
179.6919426309
 20
95.0497626534
 30
0.0
 10
179.1389768575
 20
95.5122391376
 30
0.0
 10
178.4958451927
 20
96.3828638857
 30
0.0
 10
178.0529246392
 20
97.3717523125
 30
0.0
 10
177.9205022355
 20
98.0816027528
 30
0.0
 10
177.9086994882
 20
98.4299778767
 30
0.0
  0
SPLINE
  5
41D
100
AcDbEntity
  8
0
100
AcDbSpline
 62
7
  6
CONTINUOUS
 70
0
 71
3
 72
8
 73
4
 74
0
 42
0.0000001
 43
0.0000001
 44
0.0000000001
 40
0.0
 40
0.0
 40
0.0
 40
0.0
 40
1.0
 40
1.0
 40
1.0
 40
1.0
 10
237.9414735926
 20
102.8601108983
 30
0.0
 10
238.0368871968
 20
102.8560095155
 30
0.0
 10
238.1328000234
 20
102.8578709553
 30
0.0
 10
238.227906304
 20
102.8665526942
 30
0.0
  0
SPLINE
  5
41E
100
AcDbEntity
  8
0
100
AcDbSpline
 62
7
  6
CONTINUOUS
 70
0
 71
3
 72
9
 73
5
 74
0
 42
0.0000001
 43
0.0000001
 44
0.0000000001
 40
0.0
 40
0.0
 40
0.0
 40
0.0
 40
0.2571385947
 40
1.0
 40
1.0
 40
1.0
 40
1.0
 10
238.227906304
 20
102.8665526942
 30
0.0
 10
238.2859772932
 20
102.8718536813
 30
0.0
 10
238.5107657486
 20
102.9022068976
 30
0.0
 10
238.7303042442
 20
102.9744134696
 30
0.0
 10
238.8803965597
 20
103.0509099502
 30
0.0
  0
SPLINE
  5
41F
100
AcDbEntity
  8
0
100
AcDbSpline
 62
7
  6
CONTINUOUS
 70
0
 71
3
 72
9
 73
5
 74
0
 42
0.0000001
 43
0.0000001
 44
0.0000000001
 40
0.0
 40
0.0
 40
0.0
 40
0.0
 40
0.2576555153
 40
1.0
 40
1.0
 40
1.0
 40
1.0
 10
237.1669635585
 20
102.7003081556
 30
0.0
 10
237.2272502915
 20
102.705811406
 30
0.0
 10
237.4599937696
 20
102.7385047828
 30
0.0
 10
237.6862743476
 20
102.8207674347
 30
0.0
 10
237.8373310593
 20
102.9079642926
 30
0.0
  0
SPLINE
  5
420
100
AcDbEntity
  8
0
100
AcDbSpline
 62
7
  6
CONTINUOUS
 70
0
 71
3
 72
9
 73
5
 74
0
 42
0.0000001
 43
0.0000001
 44
0.0000000001
 40
0.0
 40
0.0
 40
0.0
 40
0.0
 40
0.2588622315
 40
1.0
 40
1.0
 40
1.0
 40
1.0
 10
233.4611656854
 20
105.1214493146
 30
0.0
 10
233.46506275
 20
104.9813735148
 30
0.0
 10
233.4908844272
 20
104.4406550646
 30
0.0
 10
233.5585461102
 20
103.9015526935
 30
0.0
 10
233.6364353441
 20
103.5079856192
 30
0.0
  0
SPLINE
  5
421
100
AcDbEntity
  8
0
100
AcDbSpline
 62
7
  6
CONTINUOUS
 70
0
 71
3
 72
9
 73
5
 74
0
 42
0.0000001
 43
0.0000001
 44
0.0000000001
 40
0.0
 40
0.0
 40
0.0
 40
0.0
 40
0.2544338088
 40
1.0
 40
1.0
 40
1.0
 40
1.0
 10
233.6364353441
 20
107.5088474632
 30
0.0
 10
233.6197677736
 20
107.4053818373
 30
0.0
 10
233.5583886442
 20
106.9980822997
 30
0.0
 10
233.5138607915
 20
106.5882010499
 30
0.0
 10
233.4912111313
 20
106.2819438515
 30
0.0
  0
SPLINE
  5
422
100
AcDbEntity
  8
0
100
AcDbSpline
 62
7
  6
CONTINUOUS
 70
0
 71
3
 72
9
 73
5
 74
0
 42
0.0000001
 43
0.0000001
 44
0.0000000001
 40
0.0
 40
0.0
 40
0.0
 40
0.0
 40
0.2413620585
 40
1.0
 40
1.0
 40
1.0
 40
1.0
 10
231.6565281137
 20
106.9372664999
 30
0.0
 10
231.7548466947
 20
106.8512132798
 30
0.0
 10
232.1704181217
 20
106.5041283622
 30
0.0
 10
232.6163752867
 20
106.1939178954
 30
0.0
 10
232.9661888778
 20
105.9787695347
 30
0.0
  0
SPLINE
  5
423
100
AcDbEntity
  8
0
100
AcDbSpline
 62
7
  6
CONTINUOUS
 70
0
 71
3
 72
9
 73
5
 74
0
 42
0.0000001
 43
0.0000001
 44
0.0000000001
 40
0.0
 40
0.0
 40
0.0
 40
0.0
 40
0.2425645925
 40
1.0
 40
1.0
 40
1.0
 40
1.0
 10
179.2869999106
 20
101.2223238905
 30
0.0
 10
179.256177527
 20
101.1943371704
 30
0.0
 10
179.1345447359
 20
101.0730090775
 30
0.0
 10
179.0359863079
 20
100.929363088
 30
0.0
 10
178.9750909735
 20
100.8145047658
 30
0.0
  0
SPLINE
  5
424
100
AcDbEntity
  8
0
100
AcDbSpline
 62
7
  6
CONTINUOUS
 70
0
 71
3
 72
9
 73
5
 74
0
 42
0.0000001
 43
0.0000001
 44
0.0000000001
 40
0.0
 40
0.0
 40
0.0
 40
0.0
 40
0.2438463502
 40
1.0
 40
1.0
 40
1.0
 40
1.0
 10
178.9750909735
 20
100.8145047658
 30
0.0
 10
178.963411357
 20
100.7924751444
 30
0.0
 10
178.9174815567
 20
100.7010959867
 30
0.0
 10
178.8793192095
 20
100.6058729932
 30
0.0
 10
178.8545038613
 20
100.5326436209
 30
0.0
  0
SPLINE
  5
425
100
AcDbEntity
  8
0
100
AcDbSpline
 62
7
  6
CONTINUOUS
 70
0
 71
3
 72
11
 73
7
 74
0
 42
0.0000001
 43
0.0000001
 44
0.0000000001
 40
0.0
 40
0.0
 40
0.0
 40
0.0
 40
0.2177849011
 40
0.4509184398
 40
0.7103088704
 40
1.0
 40
1.0
 40
1.0
 40
1.0
 10
180.9469264201
 20
102.4455638904
 30
0.0
 10
181.0788807993
 20
102.521723288
 30
0.0
 10
181.382029724
 20
102.631773333
 30
0.0
 10
181.8855908095
 20
102.6445121366
 30
0.0
 10
182.4222469635
 20
102.5149101574
 30
0.0
 10
182.7713995559
 20
102.3488104597
 30
0.0
 10
182.9469083096
 20
102.2474827259
 30
0.0
  0
SPLINE
  5
426
100
AcDbEntity
  8
0
100
AcDbSpline
 62
7
  6
CONTINUOUS
 70
0
 71
3
 72
9
 73
5
 74
0
 42
0.0000001
 43
0.0000001
 44
0.0000000001
 40
0.0
 40
0.0
 40
0.0
 40
0.0
 40
0.2455062602
 40
1.0
 40
1.0
 40
1.0
 40
1.0
 10
180.0781287588
 20
101.9431620115
 30
0.0
 10
180.0385443012
 20
101.9185591876
 30
0.0
 10
179.8825744549
 20
101.8099573858
 30
0.0
 10
179.7503980033
 20
101.6683969544
 30
0.0
 10
179.667773665
 20
101.5513962414
 30
0.0
  0
SPLINE
  5
427
100
AcDbEntity
  8
0
100
AcDbSpline
 62
7
  6
CONTINUOUS
 70
0
 71
3
 72
10
 73
6
 74
0
 42
0.0000001
 43
0.0000001
 44
0.0000000001
 40
0.0
 40
0.0
 40
0.0
 40
0.0
 40
0.5013160199
 40
0.750056251
 40
1.0
 40
1.0
 40
1.0
 40
1.0
 10
151.7437211971
 20
103.0328485931
 30
0.0
 10
151.7437211971
 20
103.4078746374
 30
0.0
 10
151.844593051
 20
103.9818026482
 30
0.0
 10
152.2276811576
 20
104.6321052057
 30
0.0
 10
152.4994668743
 20
104.8960634178
 30
0.0
 10
152.6504908444
 20
105.0063031251
 30
0.0
  0
SPLINE
  5
428
100
AcDbEntity
  8
0
100
AcDbSpline
 62
7
  6
CONTINUOUS
 70
0
 71
3
 72
9
 73
5
 74
0
 42
0.0000001
 43
0.0000001
 44
0.0000000001
 40
0.0
 40
0.0
 40
0.0
 40
0.0
 40
0.252679269
 40
1.0
 40
1.0
 40
1.0
 40
1.0
 10
156.0460229664
 20
99.1250338648
 30
0.0
 10
155.9857335207
 20
99.0983522645
 30
0.0
 10
155.7421002251
 20
99.004353951
 30
0.0
 10
155.4804550466
 20
98.9584095863
 30
0.0
 10
155.2856019119
 20
98.9510315539
 30
0.0
  0
SPLINE
  5
429
100
AcDbEntity
  8
0
100
AcDbSpline
 62
7
  6
CONTINUOUS
 70
0
 71
3
 72
9
 73
5
 74
0
 42
0.0000001
 43
0.0000001
 44
0.0000000001
 40
0.0
 40
0.0
 40
0.0
 40
0.0
 40
0.495659807
 40
1.0
 40
1.0
 40
1.0
 40
1.0
 10
155.2856019119
 20
98.9510315539
 30
0.0
 10
155.0326580691
 20
98.9414539411
 30
0.0
 10
154.5163118219
 20
99.0112259425
 30
0.0
 10
154.046617493
 20
99.2271584686
 30
0.0
 10
153.826203993
 20
99.3604027112
 30
0.0
  0
SPLINE
  5
42A
100
AcDbEntity
  8
0
100
AcDbSpline
 62
7
  6
CONTINUOUS
 70
0
 71
3
 72
11
 73
7
 74
0
 42
0.0000001
 43
0.0000001
 44
0.0000000001
 40
0.0
 40
0.0
 40
0.0
 40
0.0
 40
0.2441799466
 40
0.4995028347
 40
0.7550127619
 40
1.0
 40
1.0
 40
1.0
 40
1.0
 10
153.826203993
 20
99.3604027112
 30
0.0
 10
153.5288828005
 20
99.5401391479
 30
0.0
 10
152.9759170271
 20
100.0026156321
 30
0.0
 10
152.3327853623
 20
100.8732403802
 30
0.0
 10
151.8898648088
 20
101.8621288071
 30
0.0
 10
151.7574424051
 20
102.5719792473
 30
0.0
 10
151.7456396578
 20
102.9203543712
 30
0.0
  0
SPLINE
  5
42B
100
AcDbEntity
  8
0
100
AcDbSpline
 62
7
  6
CONTINUOUS
 70
0
 71
3
 72
10
 73
6
 74
0
 42
0.0000001
 43
0.0000001
 44
0.0000000001
 40
0.0
 40
0.0
 40
0.0
 40
0.0
 40
0.5146692743
 40
0.7596163283
 40
1.0
 40
1.0
 40
1.0
 40
1.0
 10
181.0148450207
 20
81.0055441977
 30
0.0
 10
181.0078893358
 20
80.304035988
 30
0.0
 10
181.1985098881
 20
79.2435071568
 30
0.0
 10
181.8911350312
 20
78.0578199189
 30
0.0
 10
182.3583408595
 20
77.5778411482
 30
0.0
 10
182.6143546999
 20
77.373337729
 30
0.0
  0
SPLINE
  5
42C
100
AcDbEntity
  8
0
100
AcDbSpline
 62
7
  6
CONTINUOUS
 70
0
 71
3
 72
9
 73
5
 74
0
 42
0.0000001
 43
0.0000001
 44
0.0000000001
 40
0.0
 40
0.0
 40
0.0
 40
0.0
 40
0.5106772915
 40
1.0
 40
1.0
 40
1.0
 40
1.0
 10
185.7812524514
 20
77.4138533583
 30
0.0
 10
185.4070372829
 20
77.3862115944
 30
0.0
 10
184.6622826873
 20
77.4290233996
 30
0.0
 10
183.9620063109
 20
77.6936193935
 30
0.0
 10
183.6506304983
 20
77.8733882358
 30
0.0
  0
SPLINE
  5
42D
100
AcDbEntity
  8
0
100
AcDbSpline
 62
7
  6
CONTINUOUS
 70
0
 71
3
 72
9
 73
5
 74
0
 42
0.0000001
 43
0.0000001
 44
0.0000000001
 40
0.0
 40
0.0
 40
0.0
 40
0.0
 40
0.2425645925
 40
1.0
 40
1.0
 40
1.0
 40
1.0
 10
153.1239400801
 20
105.7127003851
 30
0.0
 10
153.0931176966
 20
105.6847136649
 30
0.0
 10
152.9714849054
 20
105.5633855721
 30
0.0
 10
152.8729264775
 20
105.4197395826
 30
0.0
 10
152.8120311431
 20
105.3048812603
 30
0.0
  0
SPLINE
  5
42E
100
AcDbEntity
  8
0
100
AcDbSpline
 62
7
  6
CONTINUOUS
 70
0
 71
3
 72
9
 73
5
 74
0
 42
0.0000001
 43
0.0000001
 44
0.0000000001
 40
0.0
 40
0.0
 40
0.0
 40
0.0
 40
0.2438463502
 40
1.0
 40
1.0
 40
1.0
 40
1.0
 10
152.8120311431
 20
105.3048812603
 30
0.0
 10
152.8003515265
 20
105.2828516389
 30
0.0
 10
152.7544217263
 20
105.1914724812
 30
0.0
 10
152.7162593791
 20
105.0962494878
 30
0.0
 10
152.6914440308
 20
105.0230201154
 30
0.0
  0
SPLINE
  5
42F
100
AcDbEntity
  8
0
100
AcDbSpline
 62
7
  6
CONTINUOUS
 70
0
 71
3
 72
9
 73
5
 74
0
 42
0.0000001
 43
0.0000001
 44
0.0000000001
 40
0.0
 40
0.0
 40
0.0
 40
0.0
 40
0.2550296143
 40
1.0
 40
1.0
 40
1.0
 40
1.0
 10
190.1181607701
 20
72.1558424572
 30
0.0
 10
189.9794486606
 20
72.1745418926
 30
0.0
 10
189.439243283
 20
72.2725569591
 30
0.0
 10
188.9172519012
 20
72.4746383459
 30
0.0
 10
188.5631676088
 20
72.6790643827
 30
0.0
  0
SPLINE
  5
430
100
AcDbEntity
  8
0
100
AcDbSpline
 62
7
  6
CONTINUOUS
 70
0
 71
3
 72
11
 73
7
 74
0
 42
0.0000001
 43
0.0000001
 44
0.0000000001
 40
0.0
 40
0.0
 40
0.0
 40
0.0
 40
0.2177849011
 40
0.4509184398
 40
0.7103088704
 40
1.0
 40
1.0
 40
1.0
 40
1.0
 10
154.7838665897
 20
106.935940385
 30
0.0
 10
154.9158209689
 20
107.0120997825
 30
0.0
 10
155.2189698936
 20
107.1221498276
 30
0.0
 10
155.722530979
 20
107.1348886311
 30
0.0
 10
156.2591871331
 20
107.005286652
 30
0.0
 10
156.6083397254
 20
106.8391869543
 30
0.0
 10
156.7838484792
 20
106.7378592204
 30
0.0
  0
SPLINE
  5
431
100
AcDbEntity
  8
0
100
AcDbSpline
 62
7
  6
CONTINUOUS
 70
0
 71
3
 72
9
 73
5
 74
0
 42
0.0000001
 43
0.0000001
 44
0.0000000001
 40
0.0
 40
0.0
 40
0.0
 40
0.0
 40
0.2455062602
 40
1.0
 40
1.0
 40
1.0
 40
1.0
 10
153.9150689284
 20
106.4335385061
 30
0.0
 10
153.8754844708
 20
106.4089356822
 30
0.0
 10
153.7195146245
 20
106.3003338803
 30
0.0
 10
153.5873381729
 20
106.1587734489
 30
0.0
 10
153.5047138345
 20
106.041772736
 30
0.0
  0
SPLINE
  5
432
100
AcDbEntity
  8
0
100
AcDbSpline
 62
7
  6
CONTINUOUS
 70
0
 71
3
 72
10
 73
6
 74
0
 42
0.0000001
 43
0.0000001
 44
0.0000000001
 40
0.0
 40
0.0
 40
0.0
 40
0.0
 40
0.5203806481
 40
0.7644913855
 40
1.0
 40
1.0
 40
1.0
 40
1.0
 10
237.0601000421
 20
49.338722633
 30
0.0
 10
236.4305196122
 20
49.0266388641
 30
0.0
 10
235.388788093
 20
48.7438922223
 30
0.0
 10
234.0347796572
 20
48.8937965098
 30
0.0
 10
233.4237190005
 20
49.1375322826
 30
0.0
 10
233.1483087319
 20
49.2965368782
 30
0.0
  0
SPLINE
  5
433
100
AcDbEntity
  8
0
100
AcDbSpline
 62
7
  6
CONTINUOUS
 70
0
 71
3
 72
9
 73
5
 74
0
 42
0.0000001
 43
0.0000001
 44
0.0000000001
 40
0.0
 40
0.0
 40
0.0
 40
0.0
 40
0.5048341147
 40
1.0
 40
1.0
 40
1.0
 40
1.0
 10
230.9207306705
 20
50.3569673575
 30
0.0
 10
231.0553237045
 20
50.0526076965
 30
0.0
 10
231.3913697875
 20
49.4774956399
 30
0.0
 10
231.8569357429
 20
49.0001333493
 30
0.0
 10
232.1119936512
 20
48.7964322071
 30
0.0
  0
SPLINE
  5
434
100
AcDbEntity
  8
0
100
AcDbSpline
 62
7
  6
CONTINUOUS
 70
0
 71
3
 72
11
 73
7
 74
0
 42
0.0000001
 43
0.0000001
 44
0.0000000001
 40
0.0
 40
0.0
 40
0.0
 40
0.0
 40
0.2669930226
 40
0.5219505423
 40
0.7652622316
 40
1.0
 40
1.0
 40
1.0
 40
1.0
 10
242.7549901662
 20
44.1528258706
 30
0.0
 10
242.3660927913
 20
43.9600504469
 30
0.0
 10
241.5649064328
 20
43.6584473779
 30
0.0
 10
240.3213495618
 20
43.4874355261
 30
0.0
 10
239.1241178721
 20
43.6187070985
 30
0.0
 10
238.3913401534
 20
43.9114063622
 30
0.0
 10
238.060848369
 20
44.1022115663
 30
0.0
  0
SPLINE
  5
435
100
AcDbEntity
  8
0
100
AcDbSpline
 62
7
  6
CONTINUOUS
 70
0
 71
3
 72
11
 73
7
 74
0
 42
0.0000001
 43
0.0000001
 44
0.0000000001
 40
0.0
 40
0.0
 40
0.0
 40
0.0
 40
0.2177249355
 40
0.4508743929
 40
0.7104693359
 40
1.0
 40
1.0
 40
1.0
 40
1.0
 10
242.7726594278
 20
113.9555721785
 30
0.0
 10
242.8550982568
 20
114.003172223
 30
0.0
 10
243.0444871997
 20
114.0720941512
 30
0.0
 10
243.3593124553
 20
114.0800333124
 30
0.0
 10
243.6946850625
 20
113.9988493274
 30
0.0
 10
243.9129663319
 20
113.8951497731
 30
0.0
 10
244.0225964066
 20
113.8318562518
 30
0.0
  0
SPLINE
  5
436
100
AcDbEntity
  8
0
100
AcDbSpline
 62
7
  6
CONTINUOUS
 70
0
 71
3
 72
9
 73
5
 74
0
 42
0.0000001
 43
0.0000001
 44
0.0000000001
 40
0.0
 40
0.0
 40
0.0
 40
0.0
 40
0.542855343
 40
1.0
 40
1.0
 40
1.0
 40
1.0
 10
232.5391066976
 20
115.3504273545
 30
0.0
 10
232.5377599623
 20
115.0057775416
 30
0.0
 10
232.4619832313
 20
114.3651516882
 30
0.0
 10
232.149034478
 20
113.7845416008
 30
0.0
 10
231.9480819447
 20
113.575126068
 30
0.0
  0
SPLINE
  5
437
100
AcDbEntity
  8
0
100
AcDbSpline
 62
7
  6
CONTINUOUS
 70
0
 71
3
 72
8
 73
4
 74
0
 42
0.0000001
 43
0.0000001
 44
0.0000000001
 40
0.0
 40
0.0
 40
0.0
 40
0.0
 40
1.0
 40
1.0
 40
1.0
 40
1.0
 10
231.9480819447
 20
113.575126068
 30
0.0
 10
231.8564279369
 20
113.4796121046
 30
0.0
 10
231.7520178125
 20
113.3947118431
 30
0.0
 10
231.6390491419
 20
113.3257085546
 30
0.0
  0
SPLINE
  5
438
100
AcDbEntity
  8
0
100
AcDbSpline
 62
7
  6
CONTINUOUS
 70
0
 71
3
 72
11
 73
7
 74
0
 42
0.0000001
 43
0.0000001
 44
0.0000000001
 40
0.0
 40
0.0
 40
0.0
 40
0.0
 40
0.2890537003
 40
0.5486032574
 40
0.7822378757
 40
1.0
 40
1.0
 40
1.0
 40
1.0
 10
155.9521389971
 20
106.2576743934
 30
0.0
 10
155.7805868368
 20
106.3567178387
 30
0.0
 10
155.4392400177
 20
106.5198176434
 30
0.0
 10
154.914785183
 20
106.6507268292
 30
0.0
 10
154.4213946415
 20
106.6464957575
 30
0.0
 10
154.1215896093
 20
106.5471341715
 30
0.0
 10
153.9899805817
 20
106.4767796275
 30
0.0
  0
SPLINE
  5
439
100
AcDbEntity
  8
0
100
AcDbSpline
 62
7
  6
CONTINUOUS
 70
0
 71
3
 72
13
 73
9
 74
0
 42
0.0000001
 43
0.0000001
 44
0.0000000001
 40
0.0
 40
0.0
 40
0.0
 40
0.0
 40
0.1227409927
 40
0.2570241807
 40
0.5378711378
 40
0.6731410585
 40
0.7974151386
 40
1.0
 40
1.0
 40
1.0
 40
1.0
 10
155.9521389971
 20
106.09437391
 30
0.0
 10
156.1957306583
 20
105.9537393805
 30
0.0
 10
156.6724050984
 20
105.5996892963
 30
0.0
 10
157.5213966481
 20
104.7010237103
 30
0.0
 10
158.1722368716
 20
103.5952412418
 30
0.0
 10
158.5488782645
 20
102.4085492335
 30
0.0
 10
158.6951506439
 20
101.3629415944
 30
0.0
 10
158.5742570826
 20
100.5687446535
 30
0.0
 10
158.3299746568
 20
100.1739675368
 30
0.0
  0
SPLINE
  5
43A
100
AcDbEntity
  8
0
100
AcDbSpline
 62
7
  6
CONTINUOUS
 70
0
 71
3
 72
9
 73
5
 74
0
 42
0.0000001
 43
0.0000001
 44
0.0000000001
 40
0.0
 40
0.0
 40
0.0
 40
0.0
 40
0.2582953681
 40
1.0
 40
1.0
 40
1.0
 40
1.0
 10
158.3299746568
 20
100.1739675368
 30
0.0
 10
158.3069087122
 20
100.1366913918
 30
0.0
 10
158.2118621731
 20
99.9960719281
 30
0.0
 10
158.0922247579
 20
99.8715983753
 30
0.0
 10
157.9924928317
 20
99.7947992732
 30
0.0
  0
SPLINE
  5
43B
100
AcDbEntity
  8
0
100
AcDbSpline
 62
7
  6
CONTINUOUS
 70
0
 71
3
 72
11
 73
7
 74
0
 42
0.0000001
 43
0.0000001
 44
0.0000000001
 40
0.0
 40
0.0
 40
0.0
 40
0.0
 40
0.2896403952
 40
0.5491094116
 40
0.7822346475
 40
1.0
 40
1.0
 40
1.0
 40
1.0
 10
155.2450351599
 20
105.6861297561
 30
0.0
 10
155.0783315936
 20
105.7823739277
 30
0.0
 10
154.7465925358
 20
105.9401143494
 30
0.0
 10
154.2367940939
 20
106.0633140164
 30
0.0
 10
153.7583409623
 20
106.0512817273
 30
0.0
 10
153.4704417137
 20
105.9465745568
 30
0.0
 10
153.345077549
 20
105.8742630856
 30
0.0
  0
SPLINE
  5
43C
100
AcDbEntity
  8
0
100
AcDbSpline
 62
7
  6
CONTINUOUS
 70
0
 71
3
 72
13
 73
9
 74
0
 42
0.0000001
 43
0.0000001
 44
0.0000000001
 40
0.0
 40
0.0
 40
0.0
 40
0.0
 40
0.1239488608
 40
0.2597116246
 40
0.5427887935
 40
0.6781049768
 40
0.8014223164
 40
1.0
 40
1.0
 40
1.0
 40
1.0
 10
155.2450351599
 20
105.441179031
 30
0.0
 10
155.4757209825
 20
105.3079955222
 30
0.0
 10
155.9265604242
 20
104.9709697408
 30
0.0
 10
156.7242523958
 20
104.1149935795
 30
0.0
 10
157.3281638199
 20
103.063510895
 30
0.0
 10
157.6608132685
 20
101.9405690619
 30
0.0
 10
157.7710599797
 20
100.9679890771
 30
0.0
 10
157.6222643291
 20
100.2325303289
 30
0.0
 10
157.3683578671
 20
99.8895304662
 30
0.0
  0
SPLINE
  5
43D
100
AcDbEntity
  8
0
100
AcDbSpline
 62
7
  6
CONTINUOUS
 70
0
 71
3
 72
9
 73
5
 74
0
 42
0.0000001
 43
0.0000001
 44
0.0000000001
 40
0.0
 40
0.0
 40
0.0
 40
0.0
 40
0.2554291646
 40
1.0
 40
1.0
 40
1.0
 40
1.0
 10
157.3683578671
 20
99.8895304662
 30
0.0
 10
157.3506063569
 20
99.8655501174
 30
0.0
 10
157.2781198546
 20
99.7739363983
 30
0.0
 10
157.1932159982
 20
99.6920018757
 30
0.0
 10
157.1243084286
 20
99.638939234
 30
0.0
  0
SPLINE
  5
43E
100
AcDbEntity
  8
0
100
AcDbSpline
 62
7
  6
CONTINUOUS
 70
0
 71
3
 72
11
 73
7
 74
0
 42
0.0000001
 43
0.0000001
 44
0.0000000001
 40
0.0
 40
0.0
 40
0.0
 40
0.0
 40
0.2915352532
 40
0.5501283784
 40
0.7815937419
 40
1.0
 40
1.0
 40
1.0
 40
1.0
 10
154.4534923838
 20
104.9042192299
 30
0.0
 10
154.2931510947
 20
104.996790222
 30
0.0
 10
153.9743874643
 20
105.1462722708
 30
0.0
 10
153.4837635294
 20
105.2515476873
 30
0.0
 10
153.0275355482
 20
105.2140171759
 30
0.0
 10
152.7625113112
 20
105.0880922393
 30
0.0
 10
152.6505047053
 20
105.0062809907
 30
0.0
  0
SPLINE
  5
43F
100
AcDbEntity
  8
0
100
AcDbSpline
 62
7
  6
CONTINUOUS
 70
0
 71
3
 72
11
 73
7
 74
0
 42
0.0000001
 43
0.0000001
 44
0.0000000001
 40
0.0
 40
0.0
 40
0.0
 40
0.0
 40
0.2372383316
 40
0.5000010919
 40
0.7627632579
 40
1.0
 40
1.0
 40
1.0
 40
1.0
 10
156.8591248255
 20
100.7375647465
 30
0.0
 10
156.8591248255
 20
101.131927758
 30
0.0
 10
156.7112078287
 20
101.9636191593
 30
0.0
 10
156.1956616909
 20
103.1322948425
 30
0.0
 10
155.4413288311
 20
104.1631031784
 30
0.0
 10
154.7950204133
 20
104.7070423908
 30
0.0
 10
154.4534923838
 20
104.9042192299
 30
0.0
  0
SPLINE
  5
440
100
AcDbEntity
  8
0
100
AcDbSpline
 62
7
  6
CONTINUOUS
 70
0
 71
3
 72
11
 73
7
 74
0
 42
0.0000001
 43
0.0000001
 44
0.0000000001
 40
0.0
 40
0.0
 40
0.0
 40
0.0
 40
0.2894597621
 40
0.5486605468
 40
0.7819461552
 40
1.0
 40
1.0
 40
1.0
 40
1.0
 10
243.8458688994
 20
46.6656782167
 30
0.0
 10
243.8465364331
 20
46.5355117581
 30
0.0
 10
243.8676184115
 20
46.2880560649
 30
0.0
 10
243.9697910077
 20
45.9482961863
 30
0.0
 10
244.1405898066
 20
45.6730829725
 30
0.0
 10
244.3001256633
 20
45.5404381328
 30
0.0
 10
244.3852883626
 20
45.4918318863
 30
0.0
  0
SPLINE
  5
441
100
AcDbEntity
  8
0
100
AcDbSpline
 62
7
  6
CONTINUOUS
 70
0
 71
3
 72
11
 73
7
 74
0
 42
0.0000001
 43
0.0000001
 44
0.0000000001
 40
0.0
 40
0.0
 40
0.0
 40
0.0
 40
0.2372160676
 40
0.4999212767
 40
0.7626692595
 40
1.0
 40
1.0
 40
1.0
 40
1.0
 10
243.8458688994
 20
110.0556835004
 30
0.0
 10
243.8458688994
 20
110.2873358507
 30
0.0
 10
243.759084356
 20
110.7758624885
 30
0.0
 10
243.4563097354
 20
111.4623404854
 30
0.0
 10
243.0135505608
 20
112.068193407
 30
0.0
 10
242.6340316481
 20
112.3880279413
 30
0.0
 10
242.4334440642
 20
112.5041284475
 30
0.0
  0
SPLINE
  5
442
100
AcDbEntity
  8
0
100
AcDbSpline
 62
7
  6
CONTINUOUS
 70
0
 71
3
 72
9
 73
5
 74
0
 42
0.0000001
 43
0.0000001
 44
0.0000000001
 40
0.0
 40
0.0
 40
0.0
 40
0.0
 40
0.2589146311
 40
1.0
 40
1.0
 40
1.0
 40
1.0
 10
155.2848815932
 20
100.4104997669
 30
0.0
 10
155.1414530669
 20
100.4589338301
 30
0.0
 10
154.59111723
 20
100.6564437353
 30
0.0
 10
154.0567256807
 20
100.8993019838
 30
0.0
 10
153.675845512
 20
101.1059071596
 30
0.0
  0
SPLINE
  5
443
100
AcDbEntity
  8
0
100
AcDbSpline
 62
7
  6
CONTINUOUS
 70
0
 71
3
 72
10
 73
6
 74
0
 42
0.0000001
 43
0.0000001
 44
0.0000000001
 40
0.0
 40
0.0
 40
0.0
 40
0.0
 40
0.5356524194
 40
0.7705812266
 40
1.0
 40
1.0
 40
1.0
 40
1.0
 10
153.8969470134
 20
99.5289127734
 30
0.0
 10
154.0941864708
 20
99.447738867
 30
0.0
 10
154.4103590411
 20
99.3762533144
 30
0.0
 10
154.8032464146
 20
99.4725346625
 30
0.0
 10
154.9613065868
 20
99.5763325467
 30
0.0
 10
155.0285410565
 20
99.6381762699
 30
0.0
  0
SPLINE
  5
444
100
AcDbEntity
  8
0
100
AcDbSpline
 62
7
  6
CONTINUOUS
 70
0
 71
3
 72
9
 73
5
 74
0
 42
0.0000001
 43
0.0000001
 44
0.0000000001
 40
0.0
 40
0.0
 40
0.0
 40
0.0
 40
0.4659247508
 40
1.0
 40
1.0
 40
1.0
 40
1.0
 10
155.0285410565
 20
99.6381762699
 30
0.0
 10
155.123593942
 20
99.7256079752
 30
0.0
 10
155.2845292702
 20
99.9616230189
 30
0.0
 10
155.3535545093
 20
100.2345282364
 30
0.0
 10
155.373209731
 20
100.3812566663
 30
0.0
  0
SPLINE
  5
445
100
AcDbEntity
  8
0
100
AcDbSpline
 62
7
  6
CONTINUOUS
 70
0
 71
3
 72
11
 73
7
 74
0
 42
0.0000001
 43
0.0000001
 44
0.0000000001
 40
0.0
 40
0.0
 40
0.0
 40
0.0
 40
0.218405273
 40
0.4498702026
 40
0.7084637006
 40
1.0
 40
1.0
 40
1.0
 40
1.0
 10
182.2090705536
 20
94.6346804505
 30
0.0
 10
182.3359273669
 20
94.690775888
 30
0.0
 10
182.5774994096
 20
94.8573346802
 30
0.0
 10
182.8381199068
 20
95.2336849785
 30
0.0
 10
182.9922606493
 20
95.7112294169
 30
0.0
 10
183.022184656
 20
96.06203783
 30
0.0
 10
183.022184656
 20
96.2471882519
 30
0.0
  0
SPLINE
  5
446
100
AcDbEntity
  8
0
100
AcDbSpline
 62
7
  6
CONTINUOUS
 70
0
 71
3
 72
9
 73
5
 74
0
 42
0.0000001
 43
0.0000001
 44
0.0000000001
 40
0.0
 40
0.0
 40
0.0
 40
0.0
 40
0.2796618703
 40
1.0
 40
1.0
 40
1.0
 40
1.0
 10
236.4565837131
 20
111.5049091242
 30
0.0
 10
236.3073707983
 20
111.5910552919
 30
0.0
 10
235.7599393064
 20
111.8691816906
 30
0.0
 10
235.1272125162
 20
112.0185729621
 30
0.0
 10
234.6852611222
 20
111.9782296055
 30
0.0
  0
SPLINE
  5
447
100
AcDbEntity
  8
0
100
AcDbSpline
 62
7
  6
CONTINUOUS
 70
0
 71
3
 72
9
 73
5
 74
0
 42
0.0000001
 43
0.0000001
 44
0.0000000001
 40
0.0
 40
0.0
 40
0.0
 40
0.0
 40
0.2576555153
 40
1.0
 40
1.0
 40
1.0
 40
1.0
 10
234.6852611222
 20
111.9782296055
 30
0.0
 10
234.6197319763
 20
111.9722478036
 30
0.0
 10
234.3667495942
 20
111.9367114766
 30
0.0
 10
234.1207921131
 20
111.8472954302
 30
0.0
 10
233.956599814
 20
111.7525161092
 30
0.0
  0
SPLINE
  5
448
100
AcDbEntity
  8
0
100
AcDbSpline
 62
7
  6
CONTINUOUS
 70
0
 71
3
 72
14
 73
10
 74
0
 42
0.0000001
 43
0.0000001
 44
0.0000000001
 40
0.0
 40
0.0
 40
0.0
 40
0.0
 40
0.1233625077
 40
0.2583940743
 40
0.3997489094
 40
0.5411586071
 40
0.6763557533
 40
0.7999695654
 40
1.0
 40
1.0
 40
1.0
 40
1.0
 10
236.4565837131
 20
111.1783026288
 30
0.0
 10
236.756412415
 20
111.0052003631
 30
0.0
 10
237.3424229909
 20
110.5682090762
 30
0.0
 10
238.1129780483
 20
109.7467680243
 30
0.0
 10
238.776551298
 20
108.7743503597
 30
0.0
 10
239.2898820493
 20
107.7156884007
 30
0.0
 10
239.6192539251
 20
106.6335366221
 30
0.0
 10
239.7773904162
 20
105.3605379769
 30
0.0
 10
239.6022427116
 20
104.3956708188
 30
0.0
 10
239.2839880012
 20
103.9332254275
 30
0.0
  0
SPLINE
  5
449
100
AcDbEntity
  8
0
100
AcDbSpline
 62
7
  6
CONTINUOUS
 70
0
 71
3
 72
9
 73
5
 74
0
 42
0.0000001
 43
0.0000001
 44
0.0000000001
 40
0.0
 40
0.0
 40
0.0
 40
0.0
 40
0.2577197534
 40
1.0
 40
1.0
 40
1.0
 40
1.0
 10
239.2727226135
 20
103.9170412211
 30
0.0
 10
239.2377668457
 20
103.8673900721
 30
0.0
 10
239.0928871697
 20
103.6814940531
 30
0.0
 10
238.9080345239
 20
103.5261102511
 30
0.0
 10
238.7565631065
 20
103.4386863098
 30
0.0
  0
SPLINE
  5
44A
100
AcDbEntity
  8
0
100
AcDbSpline
 62
7
  6
CONTINUOUS
 70
0
 71
3
 72
11
 73
7
 74
0
 42
0.0000001
 43
0.0000001
 44
0.0000000001
 40
0.0
 40
0.0
 40
0.0
 40
0.0
 40
0.28970066
 40
0.5490882258
 40
0.7822179595
 40
1.0
 40
1.0
 40
1.0
 40
1.0
 10
235.5373489692
 20
110.6475853699
 30
0.0
 10
235.3355070702
 20
110.7641162083
 30
0.0
 10
234.9339766024
 20
110.9551325995
 30
0.0
 10
234.3168167594
 20
111.1041762153
 30
0.0
 10
233.737733629
 20
111.0895103181
 30
0.0
 10
233.3891072298
 20
110.9629749749
 30
0.0
 10
233.237366879
 20
110.8753834893
 30
0.0
  0
SPLINE
  5
44B
100
AcDbEntity
  8
0
100
AcDbSpline
 62
7
  6
CONTINUOUS
 70
0
 71
3
 72
13
 73
9
 74
0
 42
0.0000001
 43
0.0000001
 44
0.0000000001
 40
0.0
 40
0.0
 40
0.0
 40
0.0
 40
0.1229548669
 40
0.257472189
 40
0.5387158683
 40
0.6740001524
 40
0.7981134267
 40
1.0
 40
1.0
 40
1.0
 40
1.0
 10
235.5373489692
 20
110.565933746
 30
0.0
 10
235.8272308328
 20
110.3985741602
 30
0.0
 10
236.3943314138
 20
109.9769455138
 30
0.0
 10
237.4031833457
 20
108.9064358578
 30
0.0
 10
238.1750177762
 20
107.5896876572
 30
0.0
 10
238.6180529276
 20
106.1776822737
 30
0.0
 10
238.785990102
 20
104.9371718062
 30
0.0
 10
238.634605181
 20
103.9957828002
 30
0.0
 10
238.3390837924
 20
103.5323916416
 30
0.0
  0
SPLINE
  5
44C
100
AcDbEntity
  8
0
100
AcDbSpline
 62
7
  6
CONTINUOUS
 70
0
 71
3
 72
9
 73
5
 74
0
 42
0.0000001
 43
0.0000001
 44
0.0000000001
 40
0.0
 40
0.0
 40
0.0
 40
0.0
 40
0.2582509819
 40
1.0
 40
1.0
 40
1.0
 40
1.0
 10
238.3032869121
 20
103.4783608741
 30
0.0
 10
238.2674492066
 20
103.4262862897
 30
0.0
 10
238.1184999505
 20
103.2319362009
 30
0.0
 10
237.9250805285
 20
103.0709235945
 30
0.0
 10
237.7663849964
 20
102.9827092898
 30
0.0
  0
SPLINE
  5
44D
100
AcDbEntity
  8
0
100
AcDbSpline
 62
7
  6
CONTINUOUS
 70
0
 71
3
 72
11
 73
7
 74
0
 42
0.0000001
 43
0.0000001
 44
0.0000000001
 40
0.0
 40
0.0
 40
0.0
 40
0.0
 40
0.2183984598
 40
0.4498501533
 40
0.7085254476
 40
1.0
 40
1.0
 40
1.0
 40
1.0
 10
179.5532037301
 20
101.0558030665
 30
0.0
 10
179.6684753066
 20
101.1399034079
 30
0.0
 10
179.9410481332
 20
101.2695275406
 30
0.0
 10
180.4104768513
 20
101.3081354428
 30
0.0
 10
180.9151974995
 20
101.1997444874
 30
0.0
 10
181.2431734609
 20
101.0460178718
 30
0.0
 10
181.4080949904
 20
100.9508025364
 30
0.0
  0
SPLINE
  5
44E
100
AcDbEntity
  8
0
100
AcDbSpline
 62
7
  6
CONTINUOUS
 70
0
 71
3
 72
11
 73
7
 74
0
 42
0.0000001
 43
0.0000001
 44
0.0000000001
 40
0.0
 40
0.0
 40
0.0
 40
0.0
 40
0.2915352177
 40
0.550128365
 40
0.7815937654
 40
1.0
 40
1.0
 40
1.0
 40
1.0
 10
234.5039184265
 20
109.8648865293
 30
0.0
 10
234.2978573269
 20
109.9838532692
 30
0.0
 10
233.8882012397
 20
110.1759587821
 30
0.0
 10
233.2576805163
 20
110.3112528702
 30
0.0
 10
232.671363307
 20
110.2630216393
 30
0.0
 10
232.3307695335
 20
110.1011911199
 30
0.0
 10
232.1868250462
 20
109.9960525028
 30
0.0
  0
SPLINE
  5
44F
100
AcDbEntity
  8
0
100
AcDbSpline
 62
7
  6
CONTINUOUS
 70
0
 71
3
 72
11
 73
7
 74
0
 42
0.0000001
 43
0.0000001
 44
0.0000000001
 40
0.0
 40
0.0
 40
0.0
 40
0.0
 40
0.2372383316
 40
0.5000010919
 40
0.7627632579
 40
1.0
 40
1.0
 40
1.0
 40
1.0
 10
237.5954990624
 20
104.5101415175
 30
0.0
 10
237.5954990624
 20
105.0169542079
 30
0.0
 10
237.4054046343
 20
106.0857962251
 30
0.0
 10
236.7428543508
 20
107.587711085
 30
0.0
 10
235.7734290878
 20
108.9124467493
 30
0.0
 10
234.9428306328
 20
109.6114861814
 30
0.0
 10
234.5039184265
 20
109.8648865293
 30
0.0
  0
SPLINE
  5
450
100
AcDbEntity
  8
0
100
AcDbSpline
 62
7
  6
CONTINUOUS
 70
0
 71
3
 72
15
 73
11
 74
0
 42
0.0000001
 43
0.0000001
 44
0.0000000001
 40
0.0
 40
0.0
 40
0.0
 40
0.0
 40
0.08693032
 40
0.1864002924
 40
0.3037886505
 40
0.4376014476
 40
0.5821005512
 40
0.7294188911
 40
0.8711712459
 40
1.0
 40
1.0
 40
1.0
 40
1.0
 10
183.3080526013
 20
94.8022015619
 30
0.0
 10
183.497905431
 20
94.911710826
 30
0.0
 10
183.8424354729
 20
95.2635118475
 30
0.0
 10
184.0931156922
 20
96.0050829889
 30
0.0
 10
184.1142651696
 20
96.8983952488
 30
0.0
 10
183.9136087782
 20
97.8825255642
 30
0.0
 10
183.509571934
 20
98.8823578914
 30
0.0
 10
182.9343051358
 20
99.8180621701
 30
0.0
 10
182.2354291348
 20
100.6131624972
 30
0.0
 10
181.6893885141
 20
101.0333520439
 30
0.0
 10
181.4080949904
 20
101.1957532616
 30
0.0
  0
SPLINE
  5
451
100
AcDbEntity
  8
0
100
AcDbSpline
 62
7
  6
CONTINUOUS
 70
0
 71
3
 72
9
 73
5
 74
0
 42
0.0000001
 43
0.0000001
 44
0.0000000001
 40
0.0
 40
0.0
 40
0.0
 40
0.0
 40
0.2558766529
 40
1.0
 40
1.0
 40
1.0
 40
1.0
 10
232.4846452513
 20
105.721822454
 30
0.0
 10
232.4110981358
 20
105.7728172996
 30
0.0
 10
232.1263230133
 20
105.9758992745
 30
0.0
 10
231.8523757447
 20
106.1942994038
 30
0.0
 10
231.6565281137
 20
106.3657148079
 30
0.0
  0
SPLINE
  5
452
100
AcDbEntity
  8
0
100
AcDbSpline
 62
7
  6
CONTINUOUS
 70
0
 71
3
 72
9
 73
5
 74
0
 42
0.0000001
 43
0.0000001
 44
0.0000000001
 40
0.0
 40
0.0
 40
0.0
 40
0.0
 40
0.2413623589
 40
1.0
 40
1.0
 40
1.0
 40
1.0
 10
233.1414585365
 20
103.7937541474
 30
0.0
 10
233.1160920883
 20
103.9219284575
 30
0.0
 10
233.0232875226
 20
104.4553712181
 30
0.0
 10
232.9776101618
 20
104.9966920564
 30
0.0
 10
232.9661888778
 20
105.4072178428
 30
0.0
  0
SPLINE
  5
453
100
AcDbEntity
  8
0
100
AcDbSpline
 62
7
  6
CONTINUOUS
 70
0
 71
3
 72
9
 73
5
 74
0
 42
0.0000001
 43
0.0000001
 44
0.0000000001
 40
0.0
 40
0.0
 40
0.0
 40
0.0
 40
0.2561905299
 40
1.0
 40
1.0
 40
1.0
 40
1.0
 10
234.9155140479
 20
104.4454286156
 30
0.0
 10
234.788199946
 20
104.4960312085
 30
0.0
 10
234.2940135804
 20
104.7003717583
 30
0.0
 10
233.8108747777
 20
104.9319251276
 30
0.0
 10
233.4611656854
 20
105.1214493146
 30
0.0
  0
SPLINE
  5
454
100
AcDbEntity
  8
0
100
AcDbSpline
 62
7
  6
CONTINUOUS
 70
0
 71
3
 72
9
 73
5
 74
0
 42
0.0000001
 43
0.0000001
 44
0.0000000001
 40
0.0
 40
0.0
 40
0.0
 40
0.0
 40
0.4746319109
 40
1.0
 40
1.0
 40
1.0
 40
1.0
 10
231.2455364445
 20
107.0311764776
 30
0.0
 10
231.2455364445
 20
106.6275509461
 30
0.0
 10
231.4088459141
 20
105.7771650594
 30
0.0
 10
231.7769007506
 20
105.001414329
 30
0.0
 10
232.014296997
 20
104.6229335151
 30
0.0
  0
SPLINE
  5
455
100
AcDbEntity
  8
0
100
AcDbSpline
 62
7
  6
CONTINUOUS
 70
0
 71
3
 72
13
 73
9
 74
0
 42
0.0000001
 43
0.0000001
 44
0.0000000001
 40
0.0
 40
0.0
 40
0.0
 40
0.0
 40
0.3157096694
 40
0.5895972928
 40
0.705776418
 40
0.8091075594
 40
0.9046086409
 40
1.0
 40
1.0
 40
1.0
 40
1.0
 10
232.052696367
 20
104.5625906694
 30
0.0
 10
232.2892158628
 20
104.1962088303
 30
0.0
 10
232.8114327196
 20
103.5607626048
 30
0.0
 10
233.6281686513
 20
102.9892927387
 30
0.0
 10
234.2877379045
 20
102.7941879055
 30
0.0
 10
234.7298154569
 20
102.78766223
 30
0.0
 10
235.122991484
 20
102.921443614
 30
0.0
 10
235.3283899191
 20
103.0976244289
 30
0.0
 10
235.4128055397
 20
103.1987977265
 30
0.0
  0
SPLINE
  5
456
100
AcDbEntity
  8
0
100
AcDbSpline
 62
7
  6
CONTINUOUS
 70
0
 71
3
 72
9
 73
5
 74
0
 42
0.0000001
 43
0.0000001
 44
0.0000000001
 40
0.0
 40
0.0
 40
0.0
 40
0.0
 40
0.2227871279
 40
1.0
 40
1.0
 40
1.0
 40
1.0
 10
235.4128055397
 20
103.1987977265
 30
0.0
 10
235.4739131438
 20
103.2720360414
 30
0.0
 10
235.7089869445
 20
103.6341613798
 30
0.0
 10
235.7790137284
 20
104.0810778699
 30
0.0
 10
235.7790137284
 20
104.4138313596
 30
0.0
  0
SPLINE
  5
457
100
AcDbEntity
  8
0
100
AcDbSpline
 62
7
  6
CONTINUOUS
 70
0
 71
3
 72
19
 73
15
 74
0
 42
0.0000001
 43
0.0000001
 44
0.0000000001
 40
0.0
 40
0.0
 40
0.0
 40
0.0
 40
0.138264675
 40
0.2913963479
 40
0.4445432846
 40
0.5827896393
 40
0.6432440323
 40
0.6973260218
 40
0.7459664743
 40
0.7913956991
 40
0.8368243046
 40
0.885455868
 40
0.9395808771
 40
1.0
 40
1.0
 40
1.0
 40
1.0
 10
235.7790137284
 20
104.4138313596
 30
0.0
 10
235.7790137284
 20
104.7854347851
 30
0.0
 10
235.6396291327
 20
105.5691123115
 30
0.0
 10
235.1538906281
 20
106.6702958614
 30
0.0
 10
234.4427548474
 20
107.6416357109
 30
0.0
 10
233.7085255054
 20
108.2603715501
 30
0.0
 10
233.0918900664
 20
108.5543079717
 30
0.0
 10
232.6617091391
 20
108.6581084478
 30
0.0
 10
232.2579674342
 20
108.647787875
 30
0.0
 10
231.8985899519
 20
108.5174663161
 30
0.0
 10
231.6060416465
 20
108.2714455562
 30
0.0
 10
231.3951632717
 20
107.9268364618
 30
0.0
 10
231.2702367231
 20
107.5024624904
 30
0.0
 10
231.2455364445
 20
107.1935603479
 30
0.0
 10
231.2455364445
 20
107.0311764776
 30
0.0
  0
SPLINE
  5
458
100
AcDbEntity
  8
0
100
AcDbSpline
 62
7
  6
CONTINUOUS
 70
0
 71
3
 72
9
 73
5
 74
0
 42
0.0000001
 43
0.0000001
 44
0.0000000001
 40
0.0
 40
0.0
 40
0.0
 40
0.0
 40
0.2430288198
 40
1.0
 40
1.0
 40
1.0
 40
1.0
 10
232.9661888778
 20
105.9787695348
 30
0.0
 10
232.9701726537
 20
106.1265621217
 30
0.0
 10
232.9981522211
 20
106.7343493145
 30
0.0
 10
233.0682191225
 20
107.3399749396
 30
0.0
 10
233.1414585365
 20
107.7946159913
 30
0.0
  0
SPLINE
  5
459
100
AcDbEntity
  8
0
100
AcDbSpline
 62
7
  6
CONTINUOUS
 70
0
 71
3
 72
9
 73
5
 74
0
 42
0.0000001
 43
0.0000001
 44
0.0000000001
 40
0.0
 40
0.0
 40
0.0
 40
0.0
 40
0.237714153
 40
1.0
 40
1.0
 40
1.0
 40
1.0
 10
153.4040945167
 20
99.8058993253
 30
0.0
 10
153.3702230115
 20
99.9283719324
 30
0.0
 10
153.2455204037
 20
100.4485044639
 30
0.0
 10
153.1918840475
 20
100.9842611749
 30
0.0
 10
153.1807170488
 20
101.3915881298
 30
0.0
  0
SPLINE
  5
45A
100
AcDbEntity
  8
0
100
AcDbSpline
 62
7
  6
CONTINUOUS
 70
0
 71
3
 72
9
 73
5
 74
0
 42
0.0000001
 43
0.0000001
 44
0.0000000001
 40
0.0
 40
0.0
 40
0.0
 40
0.0
 40
0.4831913844
 40
1.0
 40
1.0
 40
1.0
 40
1.0
 10
151.9257074883
 20
102.3716279859
 30
0.0
 10
151.957848492
 20
102.0945793995
 30
0.0
 10
152.1069008767
 20
101.5301005039
 30
0.0
 10
152.3716602862
 20
101.0122186384
 30
0.0
 10
152.5340562292
 20
100.7619844919
 30
0.0
  0
SPLINE
  5
45B
100
AcDbEntity
  8
0
100
AcDbSpline
 62
7
  6
CONTINUOUS
 70
0
 71
3
 72
9
 73
5
 74
0
 42
0.0000001
 43
0.0000001
 44
0.0000000001
 40
0.0
 40
0.0
 40
0.0
 40
0.0
 40
0.2613287152
 40
1.0
 40
1.0
 40
1.0
 40
1.0
 10
152.6233164752
 20
100.6299955179
 30
0.0
 10
152.6800016768
 20
100.5495286688
 30
0.0
 10
152.9076780038
 20
100.2495830979
 30
0.0
 10
153.1786616327
 20
99.9806273458
 30
0.0
 10
153.4019702058
 20
99.8146813016
 30
0.0
  0
SPLINE
  5
45C
100
AcDbEntity
  8
0
100
AcDbSpline
 62
7
  6
CONTINUOUS
 70
0
 71
3
 72
9
 73
5
 74
0
 42
0.0000001
 43
0.0000001
 44
0.0000000001
 40
0.0
 40
0.0
 40
0.0
 40
0.0
 40
0.2540243922
 40
1.0
 40
1.0
 40
1.0
 40
1.0
 10
153.1808687044
 20
101.3916756877
 30
0.0
 10
153.1395694429
 20
101.4170531698
 30
0.0
 10
152.9777182495
 20
101.5181305533
 30
0.0
 10
152.8195331491
 20
101.6251200333
 30
0.0
 10
152.7041546245
 20
101.7084906362
 30
0.0
  0
SPLINE
  5
45D
100
AcDbEntity
  8
0
100
AcDbSpline
 62
7
  6
CONTINUOUS
 70
0
 71
3
 72
9
 73
5
 74
0
 42
0.0000001
 43
0.0000001
 44
0.0000000001
 40
0.0
 40
0.0
 40
0.0
 40
0.0
 40
0.2585777657
 40
1.0
 40
1.0
 40
1.0
 40
1.0
 10
152.7041546245
 20
101.7084906362
 30
0.0
 10
152.6320361308
 20
101.7606022603
 30
0.0
 10
152.3569393686
 20
101.9673078883
 30
0.0
 10
152.09814295
 20
102.1960410753
 30
0.0
 10
151.919196135
 20
102.3778784846
 30
0.0
  0
SPLINE
  5
45E
100
AcDbEntity
  8
0
100
AcDbSpline
 62
7
  6
CONTINUOUS
 70
0
 71
3
 72
11
 73
7
 74
0
 42
0.0000001
 43
0.0000001
 44
0.0000000001
 40
0.0
 40
0.0
 40
0.0
 40
0.0
 40
0.2177669599
 40
0.450898211
 40
0.7103709681
 40
1.0
 40
1.0
 40
1.0
 40
1.0
 10
180.2152469408
 20
101.7921205608
 30
0.0
 10
180.3406115258
 20
101.8644330288
 30
0.0
 10
180.6285099299
 20
101.9691576751
 30
0.0
 10
181.1069730393
 20
101.9811757004
 30
0.0
 10
181.6167675747
 20
101.8579753885
 30
0.0
 10
181.9485020389
 20
101.700237674
 30
0.0
 10
182.1151988276
 20
101.6039974154
 30
0.0
  0
SPLINE
  5
45F
100
AcDbEntity
  8
0
100
AcDbSpline
 62
7
  6
CONTINUOUS
 70
0
 71
3
 72
9
 73
5
 74
0
 42
0.0000001
 43
0.0000001
 44
0.0000000001
 40
0.0
 40
0.0
 40
0.0
 40
0.0
 40
0.2455062602
 40
1.0
 40
1.0
 40
1.0
 40
1.0
 10
184.1522688964
 20
95.0594144492
 30
0.0
 10
184.1918533539
 20
95.0840172731
 30
0.0
 10
184.3478232002
 20
95.1926190749
 30
0.0
 10
184.4799996518
 20
95.3341795063
 30
0.0
 10
184.5626239902
 20
95.4511802193
 30
0.0
  0
SPLINE
  5
460
100
AcDbEntity
  8
0
100
AcDbSpline
 62
7
  6
CONTINUOUS
 70
0
 71
3
 72
13
 73
9
 74
0
 42
0.0000001
 43
0.0000001
 44
0.0000000001
 40
0.0
 40
0.0
 40
0.0
 40
0.0
 40
0.2037875231
 40
0.3283258787
 40
0.4635697586
 40
0.7437698943
 40
0.8776042591
 40
1.0
 40
1.0
 40
1.0
 40
1.0
 10
184.6395183666
 20
95.5707180294
 30
0.0
 10
184.8864899087
 20
95.9926051533
 30
0.0
 10
185.0020191035
 20
96.8265996359
 30
0.0
 10
184.8398578018
 20
97.9236491239
 30
0.0
 10
184.4389071681
 20
99.1624413291
 30
0.0
 10
183.7554160257
 20
100.3151205701
 30
0.0
 10
182.8672259067
 20
101.2515500318
 30
0.0
 10
182.3694751562
 20
101.6204947132
 30
0.0
 10
182.1151988276
 20
101.7672978989
 30
0.0
  0
SPLINE
  5
461
100
AcDbEntity
  8
0
100
AcDbSpline
 62
7
  6
CONTINUOUS
 70
0
 71
3
 72
9
 73
5
 74
0
 42
0.0000001
 43
0.0000001
 44
0.0000000001
 40
0.0
 40
0.0
 40
0.0
 40
0.0
 40
0.24059644
 40
1.0
 40
1.0
 40
1.0
 40
1.0
 10
153.1807170488
 20
101.9631398218
 30
0.0
 10
153.1846766454
 20
102.1121420141
 30
0.0
 10
153.2156430798
 20
102.7310468815
 30
0.0
 10
153.3075720087
 20
103.3463016972
 30
0.0
 10
153.4040943752
 20
103.8067610875
 30
0.0
  0
SPLINE
  5
462
100
AcDbEntity
  8
0
100
AcDbSpline
 62
7
  6
CONTINUOUS
 70
0
 71
3
 72
11
 73
7
 74
0
 42
0.0000001
 43
0.0000001
 44
0.0000000001
 40
0.0
 40
0.0
 40
0.0
 40
0.0
 40
0.2692147187
 40
0.4999981417
 40
0.7307827162
 40
1.0
 40
1.0
 40
1.0
 40
1.0
 10
153.4019702058
 20
103.7955262647
 30
0.0
 10
153.2342348952
 20
103.8645577383
 30
0.0
 10
152.8987056508
 20
103.9518121618
 30
0.0
 10
152.3939982314
 20
103.8367269237
 30
0.0
 10
152.0419861553
 20
103.4571704564
 30
0.0
 10
151.9497902843
 20
103.1229631401
 30
0.0
 10
151.9257074883
 20
102.9431823718
 30
0.0
  0
SPLINE
  5
463
100
AcDbEntity
  8
0
100
AcDbSpline
 62
7
  6
CONTINUOUS
 70
0
 71
3
 72
9
 73
5
 74
0
 42
0.0000001
 43
0.0000001
 44
0.0000000001
 40
0.0
 40
0.0
 40
0.0
 40
0.0
 40
0.2599948727
 40
1.0
 40
1.0
 40
1.0
 40
1.0
 10
188.4251750034
 20
76.6882040386
 30
0.0
 10
188.4631625083
 20
76.6910104121
 30
0.0
 10
188.6097226369
 20
76.6922893343
 30
0.0
 10
188.7573838793
 20
76.6505119742
 30
0.0
 10
188.8512752552
 20
76.5963049894
 30
0.0
  0
SPLINE
  5
464
100
AcDbEntity
  8
0
100
AcDbSpline
 62
7
  6
CONTINUOUS
 70
0
 71
3
 72
9
 73
5
 74
0
 42
0.0000001
 43
0.0000001
 44
0.0000000001
 40
0.0
 40
0.0
 40
0.0
 40
0.0
 40
0.4893227096
 40
1.0
 40
1.0
 40
1.0
 40
1.0
 10
183.1089565849
 20
77.0358186499
 30
0.0
 10
183.4826083415
 20
76.820095588
 30
0.0
 10
184.3229417438
 20
76.5025794951
 30
0.0
 10
185.2166490944
 20
76.4512058294
 30
0.0
 10
185.6657082611
 20
76.4843756468
 30
0.0
  0
SPLINE
  5
465
100
AcDbEntity
  8
0
100
AcDbSpline
 62
7
  6
CONTINUOUS
 70
0
 71
3
 72
9
 73
5
 74
0
 42
0.0000001
 43
0.0000001
 44
0.0000000001
 40
0.0
 40
0.0
 40
0.0
 40
0.0
 40
0.4951658838
 40
1.0
 40
1.0
 40
1.0
 40
1.0
 10
232.7361065094
 20
49.5777582648
 30
0.0
 10
232.5235586977
 20
49.7475088625
 30
0.0
 10
232.135588026
 20
50.1453100213
 30
0.0
 10
231.855549832
 20
50.6245688928
 30
0.0
 10
231.7433894332
 20
50.878201516
 30
0.0
  0
SPLINE
  5
466
100
AcDbEntity
  8
0
100
AcDbSpline
 62
7
  6
CONTINUOUS
 70
0
 71
3
 72
10
 73
6
 74
0
 42
0.0000001
 43
0.0000001
 44
0.0000000001
 40
0.0
 40
0.0
 40
0.0
 40
0.0
 40
0.2403836063
 40
0.4853306307
 40
1.0
 40
1.0
 40
1.0
 40
1.0
 10
183.2384631212
 20
78.1546535495
 30
0.0
 10
183.0251177923
 20
78.3250734354
 30
0.0
 10
182.6357789032
 20
78.7250568911
 30
0.0
 10
182.0585913638
 20
79.7131329537
 30
0.0
 10
181.8997429648
 20
80.5969098874
 30
0.0
 10
181.9055413226
 20
81.1815015768
 30
0.0
  0
SPLINE
  5
467
100
AcDbEntity
  8
0
100
AcDbSpline
 62
7
  6
CONTINUOUS
 70
0
 71
3
 72
11
 73
7
 74
0
 42
0.0000001
 43
0.0000001
 44
0.0000000001
 40
0.0
 40
0.0
 40
0.0
 40
0.0
 40
0.218405273
 40
0.4498702026
 40
0.7084637006
 40
1.0
 40
1.0
 40
1.0
 40
1.0
 10
156.0460107231
 20
99.1250569451
 30
0.0
 10
156.1728675365
 20
99.1811523825
 30
0.0
 10
156.4144395792
 20
99.3477111748
 30
0.0
 10
156.6750600763
 20
99.724061473
 30
0.0
 10
156.8292008189
 20
100.2016059114
 30
0.0
 10
156.8591248255
 20
100.5524143246
 30
0.0
 10
156.8591248255
 20
100.7375647465
 30
0.0
  0
SPLINE
  5
468
100
AcDbEntity
  8
0
100
AcDbSpline
 62
7
  6
CONTINUOUS
 70
0
 71
3
 72
11
 73
7
 74
0
 42
0.0000001
 43
0.0000001
 44
0.0000000001
 40
0.0
 40
0.0
 40
0.0
 40
0.0
 40
0.2414329746
 40
0.5000009401
 40
0.7585684081
 40
1.0
 40
1.0
 40
1.0
 40
1.0
 10
155.373209731
 20
100.9528110521
 30
0.0
 10
155.3451863577
 20
101.1943665429
 30
0.0
 10
155.2239252574
 20
101.6880022684
 30
0.0
 10
154.901154246
 20
102.3849071017
 30
0.0
 10
154.4590001169
 20
103.0128840636
 30
0.0
 10
154.092128628
 20
103.3647135208
 30
0.0
 10
153.8969470134
 20
103.5097577365
 30
0.0
  0
SPLINE
  5
469
100
AcDbEntity
  8
0
100
AcDbSpline
 62
7
  6
CONTINUOUS
 70
0
 71
3
 72
11
 73
7
 74
0
 42
0.0000001
 43
0.0000001
 44
0.0000000001
 40
0.0
 40
0.0
 40
0.0
 40
0.0
 40
0.2183984598
 40
0.4498501533
 40
0.7085254476
 40
1.0
 40
1.0
 40
1.0
 40
1.0
 10
153.3901438997
 20
105.5461795611
 30
0.0
 10
153.5054154762
 20
105.6302799024
 30
0.0
 10
153.7779883027
 20
105.7599040352
 30
0.0
 10
154.2474170209
 20
105.7985119373
 30
0.0
 10
154.7521376691
 20
105.690120982
 30
0.0
 10
155.0801136305
 20
105.5363943664
 30
0.0
 10
155.2450351599
 20
105.441179031
 30
0.0
  0
SPLINE
  5
46A
100
AcDbEntity
  8
0
100
AcDbSpline
 62
7
  6
CONTINUOUS
 70
0
 71
3
 72
11
 73
7
 74
0
 42
0.0000001
 43
0.0000001
 44
0.0000000001
 40
0.0
 40
0.0
 40
0.0
 40
0.0
 40
0.2453331727
 40
0.5164742572
 40
0.7783831184
 40
1.0
 40
1.0
 40
1.0
 40
1.0
 10
238.1889910983
 20
111.3211787282
 30
0.0
 10
238.6015313829
 20
111.0830038721
 30
0.0
 10
239.367822169
 20
110.4045594523
 30
0.0
 10
240.2063775138
 20
109.1301205436
 30
0.0
 10
240.6946893592
 20
107.7343832708
 30
0.0
 10
240.729322511
 20
106.7666241881
 30
0.0
 10
240.6323063601
 20
106.3473948957
 30
0.0
  0
SPLINE
  5
46B
100
AcDbEntity
  8
0
100
AcDbSpline
 62
7
  6
CONTINUOUS
 70
0
 71
3
 72
15
 73
11
 74
0
 42
0.0000001
 43
0.0000001
 44
0.0000000001
 40
0.0
 40
0.0
 40
0.0
 40
0.0
 40
0.08693032
 40
0.1864002924
 40
0.3037886505
 40
0.4376014476
 40
0.5821005512
 40
0.7294188911
 40
0.8711712459
 40
1.0
 40
1.0
 40
1.0
 40
1.0
 10
157.1449927709
 20
99.2925780565
 30
0.0
 10
157.3348456005
 20
99.4020873206
 30
0.0
 10
157.6793756424
 20
99.753888342
 30
0.0
 10
157.9300558617
 20
100.4954594834
 30
0.0
 10
157.9512053392
 20
101.3887717434
 30
0.0
 10
157.7505489477
 20
102.3729020587
 30
0.0
 10
157.3465121036
 20
103.372734386
 30
0.0
 10
156.7712453054
 20
104.3084386647
 30
0.0
 10
156.0723693044
 20
105.1035389917
 30
0.0
 10
155.5263286836
 20
105.5237285385
 30
0.0
 10
155.2450351599
 20
105.6861297561
 30
0.0
  0
SPLINE
  5
46C
100
AcDbEntity
  8
0
100
AcDbSpline
 62
7
  6
CONTINUOUS
 70
0
 71
3
 72
9
 73
5
 74
0
 42
0.0000001
 43
0.0000001
 44
0.0000000001
 40
0.0
 40
0.0
 40
0.0
 40
0.0
 40
0.4922823685
 40
1.0
 40
1.0
 40
1.0
 40
1.0
 10
236.550534724
 20
102.4378405284
 30
0.0
 10
236.6750041896
 20
102.492880646
 30
0.0
 10
236.9131692346
 20
102.6413840171
 30
0.0
 10
237.1005736206
 20
102.8495184821
 30
0.0
 10
237.181305795
 20
102.9643404627
 30
0.0
  0
SPLINE
  5
46D
100
AcDbEntity
  8
0
100
AcDbSpline
 62
7
  6
CONTINUOUS
 70
0
 71
3
 72
9
 73
5
 74
0
 42
0.0000001
 43
0.0000001
 44
0.0000000001
 40
0.0
 40
0.0
 40
0.0
 40
0.0
 40
0.22541951
 40
1.0
 40
1.0
 40
1.0
 40
1.0
 10
237.2186351089
 20
103.0196142205
 30
0.0
 10
237.2820147689
 20
103.117329709
 30
0.0
 10
237.5214051121
 20
103.5782448081
 30
0.0
 10
237.5954990624
 20
104.1099298721
 30
0.0
 10
237.5954990624
 20
104.5101415175
 30
0.0
  0
SPLINE
  5
46E
100
AcDbEntity
  8
0
100
AcDbSpline
 62
7
  6
CONTINUOUS
 70
0
 71
3
 72
11
 73
7
 74
0
 42
0.0000001
 43
0.0000001
 44
0.0000000001
 40
0.0
 40
0.0
 40
0.0
 40
0.0
 40
0.2177669599
 40
0.450898211
 40
0.7103709681
 40
1.0
 40
1.0
 40
1.0
 40
1.0
 10
154.0521871104
 20
106.2824970553
 30
0.0
 10
154.1775516953
 20
106.3548095234
 30
0.0
 10
154.4654500995
 20
106.4595341697
 30
0.0
 10
154.9439132089
 20
106.4715521949
 30
0.0
 10
155.4537077442
 20
106.3483518831
 30
0.0
 10
155.7854422085
 20
106.1906141686
 30
0.0
 10
155.9521389971
 20
106.09437391
 30
0.0
  0
SPLINE
  5
46F
100
AcDbEntity
  8
0
100
AcDbSpline
 62
7
  6
CONTINUOUS
 70
0
 71
3
 72
9
 73
5
 74
0
 42
0.0000001
 43
0.0000001
 44
0.0000000001
 40
0.0
 40
0.0
 40
0.0
 40
0.0
 40
0.2455062602
 40
1.0
 40
1.0
 40
1.0
 40
1.0
 10
157.9892090659
 20
99.5497909437
 30
0.0
 10
158.0287935235
 20
99.5743937677
 30
0.0
 10
158.1847633698
 20
99.6829955695
 30
0.0
 10
158.3169398214
 20
99.8245560009
 30
0.0
 10
158.3995641598
 20
99.9415567139
 30
0.0
  0
SPLINE
  5
470
100
AcDbEntity
  8
0
100
AcDbSpline
 62
7
  6
CONTINUOUS
 70
0
 71
3
 72
13
 73
9
 74
0
 42
0.0000001
 43
0.0000001
 44
0.0000000001
 40
0.0
 40
0.0
 40
0.0
 40
0.0
 40
0.2037875231
 40
0.3283258787
 40
0.4635697586
 40
0.7437698943
 40
0.8776042591
 40
1.0
 40
1.0
 40
1.0
 40
1.0
 10
158.4764585361
 20
100.0610945239
 30
0.0
 10
158.7234300783
 20
100.4829816479
 30
0.0
 10
158.8389592731
 20
101.3169761304
 30
0.0
 10
158.6767979714
 20
102.4140256185
 30
0.0
 10
158.2758473376
 20
103.6528178237
 30
0.0
 10
157.5923561952
 20
104.8054970647
 30
0.0
 10
156.7041660763
 20
105.7419265264
 30
0.0
 10
156.2064153257
 20
106.1108712078
 30
0.0
 10
155.9521389971
 20
106.2576743934
 30
0.0
  0
SPLINE
  5
471
100
AcDbEntity
  8
0
100
AcDbSpline
 62
7
  6
CONTINUOUS
 70
0
 71
3
 72
11
 73
7
 74
0
 42
0.0000001
 43
0.0000001
 44
0.0000000001
 40
0.0
 40
0.0
 40
0.0
 40
0.0
 40
0.2110723651
 40
0.4292133786
 40
0.6896634293
 40
1.0
 40
1.0
 40
1.0
 40
1.0
 10
189.1073529769
 20
76.3917534318
 30
0.0
 10
189.0928083818
 20
76.3961426314
 30
0.0
 10
189.0595684838
 20
76.396269556
 30
0.0
 10
189.0171864545
 20
76.3669180578
 30
0.0
 10
188.9837768817
 20
76.3204117046
 30
0.0
 10
188.9668259437
 20
76.2827413762
 30
0.0
 10
188.9589520097
 20
76.2618379622
 30
0.0
  0
SPLINE
  5
472
100
AcDbEntity
  8
0
100
AcDbSpline
 62
7
  6
CONTINUOUS
 70
0
 71
3
 72
17
 73
13
 74
0
 42
0.0000001
 43
0.0000001
 44
0.0000000001
 40
0.0
 40
0.0
 40
0.0
 40
0.0
 40
0.2322545715
 40
0.4347113333
 40
0.605777902
 40
0.7445041286
 40
0.8504347248
 40
0.923933246
 40
0.9493238204
 40
0.9683722645
 40
0.983732141
 40
1.0
 40
1.0
 40
1.0
 40
1.0
 10
200.2144147173
 20
69.4196925777
 30
0.0
 10
200.301538626
 20
69.3500954964
 30
0.0
 10
200.4635501239
 20
69.218499941
 30
0.0
 10
200.6852803944
 20
69.0302097398
 30
0.0
 10
200.8679308577
 20
68.8655116174
 30
0.0
 10
201.010646564
 20
68.7256726253
 30
0.0
 10
201.112150384
 20
68.6116930676
 30
0.0
 10
201.169875877
 20
68.5309765253
 30
0.0
 10
201.1915593193
 20
68.4784450743
 30
0.0
 10
201.19570493
 20
68.449352485
 30
0.0
 10
201.1865985715
 20
68.4252931662
 30
0.0
 10
201.1729848174
 20
68.4166732164
 30
0.0
 10
201.1657616643
 20
68.4137017623
 30
0.0
  0
SPLINE
  5
473
100
AcDbEntity
  8
0
100
AcDbSpline
 62
7
  6
CONTINUOUS
 70
0
 71
3
 72
10
 73
6
 74
0
 42
0.0000001
 43
0.0000001
 44
0.0000000001
 40
0.0
 40
0.0
 40
0.0
 40
0.0
 40
0.561968178
 40
0.8039577249
 40
1.0
 40
1.0
 40
1.0
 40
1.0
 10
195.1053065528
 20
72.985615989
 30
0.0
 10
196.0871023291
 20
72.3539134344
 30
0.0
 10
197.4779090807
 20
71.4281354479
 30
0.0
 10
199.1698338441
 20
70.2225030352
 30
0.0
 10
199.8962093515
 20
69.6738841659
 30
0.0
 10
200.2144147173
 20
69.4196925777
 30
0.0
  0
SPLINE
  5
474
100
AcDbEntity
  8
0
100
AcDbSpline
 62
7
  6
CONTINUOUS
 70
0
 71
3
 72
11
 73
7
 74
0
 42
0.0000001
 43
0.0000001
 44
0.0000000001
 40
0.0
 40
0.0
 40
0.0
 40
0.0
 40
0.2890537003
 40
0.5486032574
 40
0.7822378757
 40
1.0
 40
1.0
 40
1.0
 40
1.0
 10
182.1151988276
 20
101.7672978989
 30
0.0
 10
181.9436466673
 20
101.8663413441
 30
0.0
 10
181.6022998481
 20
102.0294411488
 30
0.0
 10
181.0778450134
 20
102.1603503346
 30
0.0
 10
180.5844544719
 20
102.1561192629
 30
0.0
 10
180.2846494397
 20
102.056757677
 30
0.0
 10
180.1530404121
 20
101.9864031329
 30
0.0
  0
SPLINE
  5
475
100
AcDbEntity
  8
0
100
AcDbSpline
 62
7
  6
CONTINUOUS
 70
0
 71
3
 72
11
 73
7
 74
0
 42
0.0000001
 43
0.0000001
 44
0.0000000001
 40
0.0
 40
0.0
 40
0.0
 40
0.0
 40
0.2178198161
 40
0.4507190868
 40
0.7100226348
 40
1.0
 40
1.0
 40
1.0
 40
1.0
 10
233.267908659
 20
110.7773454707
 30
0.0
 10
233.4164576515
 20
110.866106101
 30
0.0
 10
233.759115133
 20
110.9956213444
 30
0.0
 10
234.330881346
 20
111.0145723621
 30
0.0
 10
234.9409783957
 20
110.8695308006
 30
0.0
 10
235.3378393723
 20
110.6811180596
 30
0.0
 10
235.5373489692
 20
110.565933746
 30
0.0
  0
SPLINE
  5
476
100
AcDbEntity
  8
0
100
AcDbSpline
 62
7
  6
CONTINUOUS
 70
0
 71
3
 72
13
 73
9
 74
0
 42
0.0000001
 43
0.0000001
 44
0.0000000001
 40
0.0
 40
0.0
 40
0.0
 40
0.0
 40
0.1227409927
 40
0.2570241807
 40
0.5378711378
 40
0.6731410585
 40
0.7974151386
 40
1.0
 40
1.0
 40
1.0
 40
1.0
 10
182.1151988276
 20
101.6039974154
 30
0.0
 10
182.3587904887
 20
101.4633628859
 30
0.0
 10
182.8354649289
 20
101.1093128017
 30
0.0
 10
183.6844564786
 20
100.2106472157
 30
0.0
 10
184.335296702
 20
99.1048647472
 30
0.0
 10
184.7119380949
 20
97.918172739
 30
0.0
 10
184.8582104743
 20
96.8725650998
 30
0.0
 10
184.737316913
 20
96.0783681589
 30
0.0
 10
184.4930344872
 20
95.6835910422
 30
0.0
  0
SPLINE
  5
477
100
AcDbEntity
  8
0
100
AcDbSpline
 62
7
  6
CONTINUOUS
 70
0
 71
3
 72
9
 73
5
 74
0
 42
0.0000001
 43
0.0000001
 44
0.0000000001
 40
0.0
 40
0.0
 40
0.0
 40
0.0
 40
0.2582953681
 40
1.0
 40
1.0
 40
1.0
 40
1.0
 10
184.4930344872
 20
95.6835910422
 30
0.0
 10
184.4699685426
 20
95.6463148972
 30
0.0
 10
184.3749220035
 20
95.5056954335
 30
0.0
 10
184.2552845884
 20
95.3812218807
 30
0.0
 10
184.1555526622
 20
95.3044227787
 30
0.0
  0
SPLINE
  5
478
100
AcDbEntity
  8
0
100
AcDbSpline
 62
7
  6
CONTINUOUS
 70
0
 71
3
 72
11
 73
7
 74
0
 42
0.0000001
 43
0.0000001
 44
0.0000000001
 40
0.0
 40
0.0
 40
0.0
 40
0.0
 40
0.2896403952
 40
0.5491094116
 40
0.7822346475
 40
1.0
 40
1.0
 40
1.0
 40
1.0
 10
181.4080949904
 20
101.1957532616
 30
0.0
 10
181.2413914241
 20
101.2919974331
 30
0.0
 10
180.9096523662
 20
101.4497378548
 30
0.0
 10
180.3998539243
 20
101.5729375218
 30
0.0
 10
179.9214007927
 20
101.5609052327
 30
0.0
 10
179.6335015442
 20
101.4561980622
 30
0.0
 10
179.5081373794
 20
101.383886591
 30
0.0
  0
SPLINE
  5
479
100
AcDbEntity
  8
0
100
AcDbSpline
 62
7
  6
CONTINUOUS
 70
0
 71
3
 72
13
 73
9
 74
0
 42
0.0000001
 43
0.0000001
 44
0.0000000001
 40
0.0
 40
0.0
 40
0.0
 40
0.0
 40
0.1239488608
 40
0.2597116246
 40
0.5427887935
 40
0.6781049768
 40
0.8014223164
 40
1.0
 40
1.0
 40
1.0
 40
1.0
 10
181.4080949904
 20
100.9508025364
 30
0.0
 10
181.638780813
 20
100.8176190277
 30
0.0
 10
182.0896202546
 20
100.4805932463
 30
0.0
 10
182.8873122262
 20
99.624617085
 30
0.0
 10
183.4912236504
 20
98.5731344004
 30
0.0
 10
183.8238730989
 20
97.4501925673
 30
0.0
 10
183.9341198102
 20
96.4776125826
 30
0.0
 10
183.7853241596
 20
95.7421538343
 30
0.0
 10
183.5314176975
 20
95.3991539717
 30
0.0
  0
SPLINE
  5
47A
100
AcDbEntity
  8
0
100
AcDbSpline
 62
7
  6
CONTINUOUS
 70
0
 71
3
 72
9
 73
5
 74
0
 42
0.0000001
 43
0.0000001
 44
0.0000000001
 40
0.0
 40
0.0
 40
0.0
 40
0.0
 40
0.2554291646
 40
1.0
 40
1.0
 40
1.0
 40
1.0
 10
183.5314176975
 20
95.3991539717
 30
0.0
 10
183.5136661874
 20
95.3751736228
 30
0.0
 10
183.441179685
 20
95.2835599037
 30
0.0
 10
183.3562758287
 20
95.2016253811
 30
0.0
 10
183.2873682591
 20
95.1485627394
 30
0.0
  0
SPLINE
  5
47B
100
AcDbEntity
  8
0
100
AcDbSpline
 62
7
  6
CONTINUOUS
 70
0
 71
3
 72
11
 73
7
 74
0
 42
0.0000001
 43
0.0000001
 44
0.0000000001
 40
0.0
 40
0.0
 40
0.0
 40
0.0
 40
0.2347377684
 40
0.4780494577
 40
0.7330069774
 40
1.0
 40
1.0
 40
1.0
 40
1.0
 10
232.6066373452
 20
48.4589658335
 30
0.0
 10
232.9371291295
 20
48.2681606294
 30
0.0
 10
233.6699068482
 20
47.9754613657
 30
0.0
 10
234.8671385379
 20
47.8441897933
 30
0.0
 10
236.110695409
 20
48.0152016451
 30
0.0
 10
236.9118817675
 20
48.3168047141
 30
0.0
 10
237.3007791424
 20
48.5095801378
 30
0.0
  0
SPLINE
  5
47C
100
AcDbEntity
  8
0
100
AcDbSpline
 62
7
  6
CONTINUOUS
 70
0
 71
3
 72
11
 73
7
 74
0
 42
0.0000001
 43
0.0000001
 44
0.0000000001
 40
0.0
 40
0.0
 40
0.0
 40
0.0
 40
0.2177849011
 40
0.4509184398
 40
0.7103088704
 40
1.0
 40
1.0
 40
1.0
 40
1.0
 10
234.1566043197
 20
111.4060959899
 30
0.0
 10
234.3083518703
 20
111.4936793054
 30
0.0
 10
234.6569731671
 20
111.6202368694
 30
0.0
 10
235.2360684709
 20
111.6348864949
 30
0.0
 10
235.8532231072
 20
111.4858442045
 30
0.0
 10
236.254748627
 20
111.2948295339
 30
0.0
 10
236.4565837131
 20
111.1783026288
 30
0.0
  0
SPLINE
  5
47D
100
AcDbEntity
  8
0
100
AcDbSpline
 62
7
  6
CONTINUOUS
 70
0
 71
3
 72
11
 73
7
 74
0
 42
0.0000001
 43
0.0000001
 44
0.0000000001
 40
0.0
 40
0.0
 40
0.0
 40
0.0
 40
0.2915352532
 40
0.5501283784
 40
0.7815937419
 40
1.0
 40
1.0
 40
1.0
 40
1.0
 10
180.6165522142
 20
100.4138427353
 30
0.0
 10
180.4562109252
 20
100.5064137275
 30
0.0
 10
180.1374472947
 20
100.6558957762
 30
0.0
 10
179.6468233598
 20
100.7611711928
 30
0.0
 10
179.1905953787
 20
100.7236406813
 30
0.0
 10
178.9255711416
 20
100.5977157447
 30
0.0
 10
178.8135645357
 20
100.5159044961
 30
0.0
  0
SPLINE
  5
47E
100
AcDbEntity
  8
0
100
AcDbSpline
 62
7
  6
CONTINUOUS
 70
0
 71
3
 72
11
 73
7
 74
0
 42
0.0000001
 43
0.0000001
 44
0.0000000001
 40
0.0
 40
0.0
 40
0.0
 40
0.0
 40
0.2372383316
 40
0.5000010919
 40
0.7627632579
 40
1.0
 40
1.0
 40
1.0
 40
1.0
 10
183.022184656
 20
96.2471882519
 30
0.0
 10
183.022184656
 20
96.6415512634
 30
0.0
 10
182.8742676591
 20
97.4732426648
 30
0.0
 10
182.3587215214
 20
98.6419183479
 30
0.0
 10
181.6043886616
 20
99.6727266839
 30
0.0
 10
180.9580802438
 20
100.2166658963
 30
0.0
 10
180.6165522142
 20
100.4138427353
 30
0.0
  0
SPLINE
  5
47F
100
AcDbEntity
  8
0
100
AcDbSpline
 62
7
  6
CONTINUOUS
 70
0
 71
3
 72
16
 73
12
 74
0
 42
0.0000001
 43
0.0000001
 44
0.0000000001
 40
0.0
 40
0.0
 40
0.0
 40
0.0
 40
0.0428779298
 40
0.0875235409
 40
0.1869290574
 40
0.3042406573
 40
0.4379643597
 40
0.5823688186
 40
0.7295967893
 40
0.8712508928
 40
1.0
 40
1.0
 40
1.0
 40
1.0
 10
237.8373310593
 20
102.9079642926
 30
0.0
 10
237.9507419115
 20
102.9734302349
 30
0.0
 10
238.1656548464
 20
103.138039248
 30
0.0
 10
238.5229508863
 20
103.5896414294
 30
0.0
 10
238.7890778239
 20
104.3648150748
 30
0.0
 10
238.8127470873
 20
105.4452700729
 30
0.0
 10
238.5704693156
 20
106.6368705743
 30
0.0
 10
238.0812010142
 20
107.8471214981
 30
0.0
 10
237.3848601566
 20
108.9798235706
 30
0.0
 10
236.5388736295
 20
109.9423510834
 30
0.0
 10
235.8778730658
 20
110.4509881386
 30
0.0
 10
235.5373489692
 20
110.6475853699
 30
0.0
  0
SPLINE
  5
480
100
AcDbEntity
  8
0
100
AcDbSpline
 62
7
  6
CONTINUOUS
 70
0
 71
3
 72
9
 73
5
 74
0
 42
0.0000001
 43
0.0000001
 44
0.0000000001
 40
0.0
 40
0.0
 40
0.0
 40
0.0
 40
0.2589146311
 40
1.0
 40
1.0
 40
1.0
 40
1.0
 10
181.4479414237
 20
95.9201232723
 30
0.0
 10
181.3045128974
 20
95.9685573355
 30
0.0
 10
180.7541770604
 20
96.1660672407
 30
0.0
 10
180.2197855111
 20
96.4089254892
 30
0.0
 10
179.8389053425
 20
96.615530665
 30
0.0
  0
SPLINE
  5
481
100
AcDbEntity
  8
0
100
AcDbSpline
 62
7
  6
CONTINUOUS
 70
0
 71
3
 72
10
 73
6
 74
0
 42
0.0000001
 43
0.0000001
 44
0.0000000001
 40
0.0
 40
0.0
 40
0.0
 40
0.0
 40
0.5356524194
 40
0.7705812266
 40
1.0
 40
1.0
 40
1.0
 40
1.0
 10
180.0600068439
 20
95.0385362788
 30
0.0
 10
180.2572463013
 20
94.9573623724
 30
0.0
 10
180.5734188715
 20
94.8858768199
 30
0.0
 10
180.9663062451
 20
94.9821581679
 30
0.0
 10
181.1243664173
 20
95.0859560521
 30
0.0
 10
181.191600887
 20
95.1477997753
 30
0.0
  0
SPLINE
  5
482
100
AcDbEntity
  8
0
100
AcDbSpline
 62
7
  6
CONTINUOUS
 70
0
 71
3
 72
9
 73
5
 74
0
 42
0.0000001
 43
0.0000001
 44
0.0000000001
 40
0.0
 40
0.0
 40
0.0
 40
0.0
 40
0.4659247508
 40
1.0
 40
1.0
 40
1.0
 40
1.0
 10
181.191600887
 20
95.1477997753
 30
0.0
 10
181.2866537725
 20
95.2352314807
 30
0.0
 10
181.4475891007
 20
95.4712465243
 30
0.0
 10
181.5166143398
 20
95.7441517418
 30
0.0
 10
181.5362695614
 20
95.8908801717
 30
0.0
  0
SPLINE
  5
483
100
AcDbEntity
  8
0
100
AcDbSpline
 62
7
  6
CONTINUOUS
 70
0
 71
3
 72
10
 73
6
 74
0
 42
0.0000001
 43
0.0000001
 44
0.0000000001
 40
0.0
 40
0.0
 40
0.0
 40
0.0
 40
0.5566498084
 40
0.7951755926
 40
1.0
 40
1.0
 40
1.0
 40
1.0
 10
227.7338103129
 20
55.1053370871
 30
0.0
 10
227.0890960932
 20
55.4775286299
 30
0.0
 10
226.1889508523
 20
56.0448570518
 30
0.0
 10
225.0204438713
 20
56.695641866
 30
0.0
 10
224.496863974
 20
56.974130533
 30
0.0
 10
224.2596465616
 20
57.1111010601
 30
0.0
  0
LINE
  5
484
100
AcDbEntity
  8
0
100
AcDbLine
 62
7
  6
CONTINUOUS
 10
229.6399078406
 20
53.0054190505
 11
229.748681932
 21
52.9342728789
  0
SPLINE
  5
485
100
AcDbEntity
  8
0
100
AcDbSpline
 62
7
  6
CONTINUOUS
 70
0
 71
3
 72
10
 73
6
 74
0
 42
0.0000001
 43
0.0000001
 44
0.0000000001
 40
0.0
 40
0.0
 40
0.0
 40
0.0
 40
0.5566498084
 40
0.7951755926
 40
1.0
 40
1.0
 40
1.0
 40
1.0
 10
193.7925435058
 20
74.7008933041
 30
0.0
 10
193.1478292862
 20
75.0730848469
 30
0.0
 10
192.2476840452
 20
75.6404132688
 30
0.0
 10
191.0791770642
 20
76.291198083
 30
0.0
 10
190.555597167
 20
76.56968675
 30
0.0
 10
190.3183797545
 20
76.7066572771
 30
0.0
  0
SPLINE
  5
486
100
AcDbEntity
  8
0
100
AcDbSpline
 62
7
  6
CONTINUOUS
 70
0
 71
3
 72
9
 73
5
 74
0
 42
0.0000001
 43
0.0000001
 44
0.0000000001
 40
0.0
 40
0.0
 40
0.0
 40
0.0
 40
0.237714153
 40
1.0
 40
1.0
 40
1.0
 40
1.0
 10
179.5671543471
 20
95.3155228307
 30
0.0
 10
179.533282842
 20
95.4379954379
 30
0.0
 10
179.4085802341
 20
95.9581279694
 30
0.0
 10
179.354943878
 20
96.4938846803
 30
0.0
 10
179.3437768792
 20
96.9012116353
 30
0.0
  0
SPLINE
  5
487
100
AcDbEntity
  8
0
100
AcDbSpline
 62
7
  6
CONTINUOUS
 70
0
 71
3
 72
9
 73
5
 74
0
 42
0.0000001
 43
0.0000001
 44
0.0000000001
 40
0.0
 40
0.0
 40
0.0
 40
0.0
 40
0.4831913844
 40
1.0
 40
1.0
 40
1.0
 40
1.0
 10
178.0887673187
 20
97.8812514913
 30
0.0
 10
178.1209083225
 20
97.604202905
 30
0.0
 10
178.2699607071
 20
97.0397240093
 30
0.0
 10
178.5347201167
 20
96.5218421438
 30
0.0
 10
178.6971160597
 20
96.2716079974
 30
0.0
  0
SPLINE
  5
488
100
AcDbEntity
  8
0
100
AcDbSpline
 62
7
  6
CONTINUOUS
 70
0
 71
3
 72
9
 73
5
 74
0
 42
0.0000001
 43
0.0000001
 44
0.0000000001
 40
0.0
 40
0.0
 40
0.0
 40
0.0
 40
0.2613287152
 40
1.0
 40
1.0
 40
1.0
 40
1.0
 10
178.7863763056
 20
96.1396190233
 30
0.0
 10
178.8430615073
 20
96.0591521742
 30
0.0
 10
179.0707378342
 20
95.7592066033
 30
0.0
 10
179.3417214632
 20
95.4902508512
 30
0.0
 10
179.5650300362
 20
95.324304807
 30
0.0
  0
SPLINE
  5
489
100
AcDbEntity
  8
0
100
AcDbSpline
 62
7
  6
CONTINUOUS
 70
0
 71
3
 72
9
 73
5
 74
0
 42
0.0000001
 43
0.0000001
 44
0.0000000001
 40
0.0
 40
0.0
 40
0.0
 40
0.0
 40
0.2540243922
 40
1.0
 40
1.0
 40
1.0
 40
1.0
 10
179.3439285348
 20
96.9012991931
 30
0.0
 10
179.3026292733
 20
96.9266766753
 30
0.0
 10
179.1407780799
 20
97.0277540587
 30
0.0
 10
178.9825929796
 20
97.1347435387
 30
0.0
 10
178.867214455
 20
97.2181141416
 30
0.0
  0
SPLINE
  5
48A
100
AcDbEntity
  8
0
100
AcDbSpline
 62
7
  6
CONTINUOUS
 70
0
 71
3
 72
9
 73
5
 74
0
 42
0.0000001
 43
0.0000001
 44
0.0000000001
 40
0.0
 40
0.0
 40
0.0
 40
0.0
 40
0.2585777657
 40
1.0
 40
1.0
 40
1.0
 40
1.0
 10
178.867214455
 20
97.2181141416
 30
0.0
 10
178.7950959613
 20
97.2702257657
 30
0.0
 10
178.5199991991
 20
97.4769313938
 30
0.0
 10
178.2612027804
 20
97.7056645808
 30
0.0
 10
178.0822559655
 20
97.88750199
 30
0.0
  0
SPLINE
  5
48B
100
AcDbEntity
  8
0
100
AcDbSpline
 62
7
  6
CONTINUOUS
 70
0
 71
3
 72
20
 73
16
 74
0
 42
0.0000001
 43
0.0000001
 44
0.0000000001
 40
0.0
 40
0.0
 40
0.0
 40
0.0
 40
0.4029930384
 40
0.57676586
 40
0.7250499669
 40
0.7882354944
 40
0.84349437
 40
0.8904431621
 40
0.928799225
 40
0.9583581338
 40
0.979149566
 40
0.9864079021
 40
0.9918244024
 40
0.9959708204
 40
1.0
 40
1.0
 40
1.0
 40
1.0
 10
231.1091665854
 20
52.935361428
 30
0.0
 10
231.7944789912
 20
52.4761478619
 30
0.0
 10
232.7679616723
 20
51.8076683606
 30
0.0
 10
233.9692539192
 20
50.9359251542
 30
0.0
 10
234.5974430401
 20
50.458995845
 30
0.0
 10
235.0239282161
 20
50.1180334249
 30
0.0
 10
235.2839853497
 20
49.9011742849
 30
0.0
 10
235.4998008373
 20
49.7108508588
 30
0.0
 10
235.670264657
 20
49.548628868
 30
0.0
 10
235.7937762097
 20
49.4156236028
 30
0.0
 10
235.8659603209
 20
49.3213995918
 30
0.0
 10
235.8961945496
 20
49.2596523258
 30
0.0
 10
235.9046662491
 20
49.2258051961
 30
0.0
 10
235.8993978829
 20
49.1969630277
 30
0.0
 10
235.8858578719
 20
49.1851530293
 30
0.0
 10
235.8785794315
 20
49.1812733425
 30
0.0
  0
SPLINE
  5
48C
100
AcDbEntity
  8
0
100
AcDbSpline
 62
7
  6
CONTINUOUS
 70
0
 71
3
 72
14
 73
10
 74
0
 42
0.0000001
 43
0.0000001
 44
0.0000000001
 40
0.0
 40
0.0
 40
0.0
 40
0.0
 40
0.1187556749
 40
0.2112546744
 40
0.3279008076
 40
0.4676458376
 40
0.628273393
 40
0.8069603992
 40
1.0
 40
1.0
 40
1.0
 40
1.0
 10
235.7158825252
 20
49.0970067387
 30
0.0
 10
235.4971734784
 20
48.9868194104
 30
0.0
 10
235.0046667612
 20
49.114688845
 30
0.0
 10
234.4381839206
 20
49.4497254474
 30
0.0
 10
233.8599522435
 20
49.890648776
 30
0.0
 10
233.2281802259
 20
50.4720652006
 30
0.0
 10
232.5439021227
 20
51.1863189356
 30
0.0
 10
231.8263746578
 20
52.0174190168
 30
0.0
 10
231.3504256265
 20
52.6187126459
 30
0.0
 10
231.1091665854
 20
52.935361428
 30
0.0
  0
SPLINE
  5
48D
100
AcDbEntity
  8
0
100
AcDbSpline
 62
7
  6
CONTINUOUS
 70
0
 71
3
 72
14
 73
10
 74
0
 42
0.0000001
 43
0.0000001
 44
0.0000000001
 40
0.0
 40
0.0
 40
0.0
 40
0.0
 40
0.0501556191
 40
0.1017095382
 40
0.1740842585
 40
0.2752501517
 40
0.4079731344
 40
0.5730498422
 40
1.0
 40
1.0
 40
1.0
 40
1.0
 10
222.7949443688
 20
56.7806923077
 30
0.0
 10
222.7946368379
 20
56.7902546224
 30
0.0
 10
222.7990805719
 20
56.8112571601
 30
0.0
 10
222.8299225216
 20
56.8293381659
 30
0.0
 10
222.8731174023
 20
56.8326352812
 30
0.0
 10
222.9313990779
 20
56.8264386685
 30
0.0
 10
223.0056930491
 20
56.8094447497
 30
0.0
 10
223.138026074
 20
56.7692331841
 30
0.0
 10
223.2433804842
 20
56.7281254976
 30
0.0
 10
223.3186424433
 20
56.6970074155
 30
0.0
  0
SPLINE
  5
48E
100
AcDbEntity
  8
0
100
AcDbSpline
 62
7
  6
CONTINUOUS
 70
0
 71
3
 72
9
 73
5
 74
0
 42
0.0000001
 43
0.0000001
 44
0.0000000001
 40
0.0
 40
0.0
 40
0.0
 40
0.0
 40
0.24059644
 40
1.0
 40
1.0
 40
1.0
 40
1.0
 10
179.3437768792
 20
97.4727633273
 30
0.0
 10
179.3477364758
 20
97.6217655195
 30
0.0
 10
179.3787029102
 20
98.240670387
 30
0.0
 10
179.4706318391
 20
98.8559252026
 30
0.0
 10
179.5671542057
 20
99.316384593
 30
0.0
  0
SPLINE
  5
48F
100
AcDbEntity
  8
0
100
AcDbSpline
 62
7
  6
CONTINUOUS
 70
0
 71
3
 72
11
 73
7
 74
0
 42
0.0000001
 43
0.0000001
 44
0.0000000001
 40
0.0
 40
0.0
 40
0.0
 40
0.0
 40
0.2692147187
 40
0.4999981417
 40
0.7307827162
 40
1.0
 40
1.0
 40
1.0
 40
1.0
 10
179.5650300362
 20
99.3051497701
 30
0.0
 10
179.3972947257
 20
99.3741812437
 30
0.0
 10
179.0617654813
 20
99.4614356673
 30
0.0
 10
178.5570580618
 20
99.3463504292
 30
0.0
 10
178.2050459857
 20
98.9667939618
 30
0.0
 10
178.1128501147
 20
98.6325866455
 30
0.0
 10
178.0887673187
 20
98.4528058772
 30
0.0
  0
SPLINE
  5
490
100
AcDbEntity
  8
0
100
AcDbSpline
 62
7
  6
CONTINUOUS
 70
0
 71
3
 72
9
 73
5
 74
0
 42
0.0000001
 43
0.0000001
 44
0.0000000001
 40
0.0
 40
0.0
 40
0.0
 40
0.0
 40
0.2454327383
 40
1.0
 40
1.0
 40
1.0
 40
1.0
 10
239.030407503
 20
103.1374990118
 30
0.0
 10
239.0770472944
 20
103.1677675736
 30
0.0
 10
239.2609067408
 20
103.3005094101
 30
0.0
 10
239.4172622496
 20
103.4701171085
 30
0.0
 10
239.5158695792
 20
103.6097506366
 30
0.0
  0
SPLINE
  5
491
100
AcDbEntity
  8
0
100
AcDbSpline
 62
7
  6
CONTINUOUS
 70
0
 71
3
 72
14
 73
10
 74
0
 42
0.0000001
 43
0.0000001
 44
0.0000000001
 40
0.0
 40
0.0
 40
0.0
 40
0.0
 40
0.1994491406
 40
0.3229183912
 40
0.4581162161
 40
0.599654389
 40
0.7412140285
 40
0.8764641551
 40
1.0
 40
1.0
 40
1.0
 40
1.0
 10
239.5158695792
 20
103.6097506366
 30
0.0
 10
239.8677429831
 20
104.1080231791
 30
0.0
 10
240.0659426476
 20
105.1575181378
 30
0.0
 10
239.8991459029
 20
106.543082799
 30
0.0
 10
239.543509865
 20
107.7234625792
 30
0.0
 10
238.9859033757
 20
108.8792025658
 30
0.0
 10
238.2633205913
 20
109.9413899432
 30
0.0
 10
237.4231927503
 20
110.8387456217
 30
0.0
 10
236.7837873727
 20
111.316002277
 30
0.0
 10
236.4565837131
 20
111.5049091242
 30
0.0
  0
SPLINE
  5
492
100
AcDbEntity
  8
0
100
AcDbSpline
 62
7
  6
CONTINUOUS
 70
0
 71
3
 72
9
 73
5
 74
0
 42
0.0000001
 43
0.0000001
 44
0.0000000001
 40
0.0
 40
0.0
 40
0.0
 40
0.0
 40
0.2366754326
 40
1.0
 40
1.0
 40
1.0
 40
1.0
 10
237.5214260595
 20
111.6021912057
 30
0.0
 10
237.5768358633
 20
111.5878266769
 30
0.0
 10
237.8084974883
 20
111.5177286901
 30
0.0
 10
238.0291089639
 20
111.4134846333
 30
0.0
 10
238.1889910983
 20
111.3211787282
 30
0.0
  0
SPLINE
  5
493
100
AcDbEntity
  8
0
100
AcDbSpline
 62
7
  6
CONTINUOUS
 70
0
 71
3
 72
11
 73
7
 74
0
 42
0.0000001
 43
0.0000001
 44
0.0000000001
 40
0.0
 40
0.0
 40
0.0
 40
0.0
 40
0.2414329746
 40
0.5000009401
 40
0.7585684081
 40
1.0
 40
1.0
 40
1.0
 40
1.0
 10
181.5362695614
 20
96.4624345576
 30
0.0
 10
181.5082461882
 20
96.7039900483
 30
0.0
 10
181.3869850878
 20
97.1976257738
 30
0.0
 10
181.0642140765
 20
97.8945306071
 30
0.0
 10
180.6220599473
 20
98.5225075691
 30
0.0
 10
180.2551884584
 20
98.8743370262
 30
0.0
 10
180.0600068439
 20
99.0193812419
 30
0.0
  0
SPLINE
  5
494
100
AcDbEntity
  8
0
100
AcDbSpline
 62
7
  6
CONTINUOUS
 70
0
 71
3
 72
9
 73
5
 74
0
 42
0.0000001
 43
0.0000001
 44
0.0000000001
 40
0.0
 40
0.0
 40
0.0
 40
0.0
 40
0.492282426
 40
1.0
 40
1.0
 40
1.0
 40
1.0
 10
230.3703367289
 20
112.7500324982
 30
0.0
 10
230.49480805
 20
112.8050723426
 30
0.0
 10
230.7329767893
 20
112.9535761279
 30
0.0
 10
230.9203837299
 20
113.161712784
 30
0.0
 10
231.0011168268
 20
113.2765360766
 30
0.0
  0
SPLINE
  5
495
100
AcDbEntity
  8
0
100
AcDbSpline
 62
7
  6
CONTINUOUS
 70
0
 71
3
 72
9
 73
5
 74
0
 42
0.0000001
 43
0.0000001
 44
0.0000000001
 40
0.0
 40
0.0
 40
0.0
 40
0.0
 40
0.2254193383
 40
1.0
 40
1.0
 40
1.0
 40
1.0
 10
231.0384395399
 20
113.3317996608
 30
0.0
 10
231.1018201921
 20
113.4295152605
 30
0.0
 10
231.3412145103
 20
113.8904320116
 30
0.0
 10
231.4153095126
 20
114.422120746
 30
0.0
 10
231.4153095126
 20
114.8223349608
 30
0.0
  0
SPLINE
  5
496
100
AcDbEntity
  8
0
100
AcDbSpline
 62
7
  6
CONTINUOUS
 70
0
 71
3
 72
9
 73
5
 74
0
 42
0.0000001
 43
0.0000001
 44
0.0000000001
 40
0.0
 40
0.0
 40
0.0
 40
0.0
 40
0.2413028013
 40
1.0
 40
1.0
 40
1.0
 40
1.0
 10
231.4153095126
 20
114.8223349608
 30
0.0
 10
231.4153095126
 20
114.8818778535
 30
0.0
 10
231.4098976251
 20
115.1286220346
 30
0.0
 10
231.3839822886
 20
115.3747671288
 30
0.0
 10
231.3548113506
 20
115.5596935216
 30
0.0
  0
SPLINE
  5
497
100
AcDbEntity
  8
0
100
AcDbSpline
 62
7
  6
CONTINUOUS
 70
0
 71
3
 72
15
 73
11
 74
0
 42
0.0000001
 43
0.0000001
 44
0.0000000001
 40
0.0
 40
0.0
 40
0.0
 40
0.0
 40
0.1434462432
 40
0.2724519641
 40
0.3894199241
 40
0.4994478175
 40
0.6095644834
 40
0.726748813
 40
0.8561596803
 40
1.0
 40
1.0
 40
1.0
 40
1.0
 10
227.4342792761
 20
113.3609807183
 30
0.0
 10
227.5673410234
 20
113.2910718125
 30
0.0
 10
227.831473974
 20
113.1779314646
 30
0.0
 10
228.234707124
 20
113.0959796222
 30
0.0
 10
228.6121516558
 20
113.1167060743
 30
0.0
 10
228.9482901497
 20
113.2439947711
 30
0.0
 10
229.2249800392
 20
113.4737531311
 30
0.0
 10
229.4298439384
 20
113.7922810448
 30
0.0
 10
229.5586429961
 20
114.1841776735
 30
0.0
 10
229.5915003264
 20
114.4704587699
 30
0.0
 10
229.5969461028
 20
114.621081913
 30
0.0
  0
SPLINE
  5
498
100
AcDbEntity
  8
0
100
AcDbSpline
 62
7
  6
CONTINUOUS
 70
0
 71
3
 72
9
 73
5
 74
0
 42
0.0000001
 43
0.0000001
 44
0.0000000001
 40
0.0
 40
0.0
 40
0.0
 40
0.0
 40
0.2344519805
 40
1.0
 40
1.0
 40
1.0
 40
1.0
 10
315.0149607573
 20
411.4327317157
 30
0.0
 10
314.9971885024
 20
411.3801165822
 30
0.0
 10
314.9326089442
 20
411.1519241413
 30
0.0
 10
314.9097315345
 20
410.9131156136
 30
0.0
 10
314.9097315345
 20
410.7317770496
 30
0.0
  0
SPLINE
  5
499
100
AcDbEntity
  8
0
100
AcDbSpline
 62
7
  6
CONTINUOUS
 70
0
 71
3
 72
11
 73
7
 74
0
 42
0.0000001
 43
0.0000001
 44
0.0000000001
 40
0.0
 40
0.0
 40
0.0
 40
0.0
 40
0.2896413964
 40
0.5491107671
 40
0.7822355978
 40
1.0
 40
1.0
 40
1.0
 40
1.0
 10
320.5666197333
 20
398.4843596803
 30
0.0
 10
320.5666197333
 20
398.1297591342
 30
0.0
 10
320.5127203192
 20
397.4552249621
 30
0.0
 10
320.2397106697
 20
396.5284366891
 30
0.0
 10
319.7798269319
 20
395.7762162087
 30
0.0
 10
319.3476051308
 20
395.4133599222
 30
0.0
 10
319.1167730555
 20
395.2799660824
 30
0.0
  0
SPLINE
  5
49A
100
AcDbEntity
  8
0
100
AcDbSpline
 62
7
  6
CONTINUOUS
 70
0
 71
3
 72
10
 73
6
 74
0
 42
0.0000001
 43
0.0000001
 44
0.0000000001
 40
0.0
 40
0.0
 40
0.0
 40
0.0
 40
0.5195859531
 40
0.7710482801
 40
1.0
 40
1.0
 40
1.0
 40
1.0
 10
317.738182506
 20
405.2813358772
 30
0.0
 10
318.5997762597
 20
404.3119894706
 30
0.0
 10
319.6398304572
 20
402.6371834531
 30
0.0
 10
320.4136400253
 20
400.2569747477
 30
0.0
 10
320.5666197333
 20
399.0558336307
 30
0.0
 10
320.5666197333
 20
398.4843596803
 30
0.0
  0
SPLINE
  5
49B
100
AcDbEntity
  8
0
100
AcDbSpline
 62
7
  6
CONTINUOUS
 70
0
 71
3
 72
13
 73
9
 74
0
 42
0.0000001
 43
0.0000001
 44
0.0000000001
 40
0.0
 40
0.0
 40
0.0
 40
0.0
 40
0.0871378961
 40
0.1868510329
 40
0.3045312144
 40
0.4386675665
 40
0.7300816059
 40
1.0
 40
1.0
 40
1.0
 40
1.0
 10
314.116923316
 20
411.2885351739
 30
0.0
 10
314.2668223379
 20
411.3749377052
 30
0.0
 10
314.6431638507
 20
411.4719625751
 30
0.0
 10
315.2491804088
 20
411.3504774979
 30
0.0
 10
315.8683597917
 20
411.0124030501
 30
0.0
 10
316.6805180081
 20
410.291939223
 30
0.0
 10
317.4435081359
 20
409.1127270351
 30
0.0
 10
317.7381801892
 20
408.0017854012
 30
0.0
 10
317.7381802722
 20
407.4658457721
 30
0.0
  0
SPLINE
  5
49C
100
AcDbEntity
  8
0
100
AcDbSpline
 62
7
  6
CONTINUOUS
 70
0
 71
3
 72
11
 73
7
 74
0
 42
0.0000001
 43
0.0000001
 44
0.0000000001
 40
0.0
 40
0.0
 40
0.0
 40
0.0
 40
0.2372429915
 40
0.4999992358
 40
0.762755774
 40
1.0
 40
1.0
 40
1.0
 40
1.0
 10
322.6879352282
 20
411.9566474192
 30
0.0
 10
322.8887177244
 20
411.8407280328
 30
0.0
 10
323.2686541633
 20
411.5209368237
 30
0.0
 10
323.7121009633
 20
410.9149489006
 30
0.0
 10
324.0151782888
 20
410.2279172578
 30
0.0
 10
324.102158568
 20
409.73898621
 30
0.0
 10
324.1021586463
 20
409.5071425681
 30
0.0
  0
SPLINE
  5
49D
100
AcDbEntity
  8
0
100
AcDbSpline
 62
7
  6
CONTINUOUS
 70
0
 71
3
 72
13
 73
9
 74
0
 42
0.0000001
 43
0.0000001
 44
0.0000000001
 40
0.0
 40
0.0
 40
0.0
 40
0.0
 40
0.1247172642
 40
0.2614166013
 40
0.5458709488
 40
0.6811820526
 40
0.8038623609
 40
1.0
 40
1.0
 40
1.0
 40
1.0
 10
312.0812902833
 20
405.0162191127
 30
0.0
 10
312.0812902833
 20
404.474348862
 30
0.0
 10
312.2187546782
 20
403.3368499042
 30
0.0
 10
312.9246858541
 20
401.0649688704
 30
0.0
 10
314.1750155543
 20
398.942739898
 30
0.0
 10
315.828694646
 20
397.2422656979
 30
0.0
 10
317.427669973
 20
396.1006797225
 30
0.0
 10
318.8777894764
 20
395.6653163645
 30
0.0
 10
319.7180505091
 20
395.8073254976
 30
0.0
  0
SPLINE
  5
49E
100
AcDbEntity
  8
0
100
AcDbSpline
 62
7
  6
CONTINUOUS
 70
0
 71
3
 72
9
 73
5
 74
0
 42
0.0000001
 43
0.0000001
 44
0.0000000001
 40
0.0
 40
0.0
 40
0.0
 40
0.0
 40
0.2427282571
 40
1.0
 40
1.0
 40
1.0
 40
1.0
 10
74.599434187
 20
172.7681536291
 30
0.0
 10
74.1874464194
 20
174.1081459523
 30
0.0
 10
72.6045493508
 20
179.6635948097
 30
0.0
 10
71.4685931483
 20
185.3433405645
 30
0.0
 10
70.8299856311
 20
189.6701505452
 30
0.0
  0
SPLINE
  5
49F
100
AcDbEntity
  8
0
100
AcDbSpline
 62
7
  6
CONTINUOUS
 70
0
 71
3
 72
10
 73
6
 74
0
 42
0.0000001
 43
0.0000001
 44
0.0000000001
 40
0.0
 40
0.0
 40
0.0
 40
0.0
 40
0.5249714012
 40
0.7825951136
 40
1.0
 40
1.0
 40
1.0
 40
1.0
 10
76.3155174752
 20
170.673830171
 30
0.0
 10
75.9105025524
 20
170.9319251125
 30
0.0
 10
75.3808221644
 20
171.4374681243
 30
0.0
 10
74.8507884937
 20
172.1833663516
 30
0.0
 10
74.6593418371
 20
172.5785017064
 30
0.0
 10
74.5994342056
 20
172.7681536398
 30
0.0
  0
SPLINE
  5
4A0
100
AcDbEntity
  8
0
100
AcDbSpline
 62
7
  6
CONTINUOUS
 70
0
 71
3
 72
8
 73
4
 74
0
 42
0.0000001
 43
0.0000001
 44
0.0000000001
 40
0.0
 40
0.0
 40
0.0
 40
0.0
 40
1.0
 40
1.0
 40
1.0
 40
1.0
 10
88.2466622495
 20
157.5137371096
 30
0.0
 10
88.216524079
 20
157.5581684967
 30
0.0
 10
88.1879616036
 20
157.6037487662
 30
0.0
 10
88.1617802872
 20
157.6506208918
 30
0.0
  0
SPLINE
  5
4A1
100
AcDbEntity
  8
0
100
AcDbSpline
 62
7
  6
CONTINUOUS
 70
0
 71
3
 72
11
 73
7
 74
0
 42
0.0000001
 43
0.0000001
 44
0.0000000001
 40
0.0
 40
0.0
 40
0.0
 40
0.0
 40
0.2204613383
 40
0.4784155801
 40
0.7486120484
 40
1.0
 40
1.0
 40
1.0
 40
1.0
 10
85.7864499329
 20
162.8139809701
 30
0.0
 10
85.6373922394
 20
163.1736869727
 30
0.0
 10
85.2249661115
 20
163.9170472431
 30
0.0
 10
84.4287488334
 20
164.9763268479
 30
0.0
 10
83.4682124096
 20
165.9674017658
 30
0.0
 10
82.7392673585
 20
166.5388111623
 30
0.0
 10
82.36376307
 20
166.7757114265
 30
0.0
  0
SPLINE
  5
4A2
100
AcDbEntity
  8
0
100
AcDbSpline
 62
7
  6
CONTINUOUS
 70
0
 71
3
 72
8
 73
4
 74
0
 42
0.0000001
 43
0.0000001
 44
0.0000000001
 40
0.0
 40
0.0
 40
0.0
 40
0.0
 40
1.0
 40
1.0
 40
1.0
 40
1.0
 10
82.3637498065
 20
166.7757037689
 30
0.0
 10
80.3474454856
 20
168.0747246802
 30
0.0
 10
78.3313707999
 20
169.3741020936
 30
0.0
 10
76.3155250849
 20
170.6738345644
 30
0.0
  0
SPLINE
  5
4A3
100
AcDbEntity
  8
0
100
AcDbSpline
 62
7
  6
CONTINUOUS
 70
0
 71
3
 72
9
 73
5
 74
0
 42
0.0000001
 43
0.0000001
 44
0.0000000001
 40
0.0
 40
0.0
 40
0.0
 40
0.0
 40
0.2672876175
 40
1.0
 40
1.0
 40
1.0
 40
1.0
 10
154.0735591475
 20
288.6787415956
 30
0.0
 10
153.0665576298
 20
289.2591788309
 30
0.0
 10
149.2783344721
 20
291.3939299467
 30
0.0
 10
145.4009666612
 20
293.375381763
 30
0.0
 10
142.4991191134
 20
294.6911639496
 30
0.0
  0
SPLINE
  5
4A4
100
AcDbEntity
  8
0
100
AcDbSpline
 62
7
  6
CONTINUOUS
 70
0
 71
3
 72
9
 73
5
 74
0
 42
0.0000001
 43
0.0000001
 44
0.0000000001
 40
0.0
 40
0.0
 40
0.0
 40
0.0
 40
0.2610704823
 40
1.0
 40
1.0
 40
1.0
 40
1.0
 10
167.2678005664
 20
280.3825845877
 30
0.0
 10
166.1450175054
 20
281.1437731821
 30
0.0
 10
161.8198426862
 20
284.0229147632
 30
0.0
 10
157.3999173252
 20
286.7614235875
 30
0.0
 10
154.0735591475
 20
288.6787415956
 30
0.0
  0
SPLINE
  5
4A5
100
AcDbEntity
  8
0
100
AcDbSpline
 62
7
  6
CONTINUOUS
 70
0
 71
3
 72
9
 73
5
 74
0
 42
0.0000001
 43
0.0000001
 44
0.0000000001
 40
0.0
 40
0.0
 40
0.0
 40
0.0
 40
0.2865634646
 40
1.0
 40
1.0
 40
1.0
 40
1.0
 10
139.3911133617
 20
296.1151747872
 30
0.0
 10
139.3604271376
 20
296.0973112041
 30
0.0
 10
139.2561819826
 20
296.0307047289
 30
0.0
 10
139.1614453184
 20
295.9459507968
 30
0.0
 10
139.1102544582
 20
295.873881726
 30
0.0
  0
SPLINE
  5
4A6
100
AcDbEntity
  8
0
100
AcDbSpline
 62
7
  6
CONTINUOUS
 70
0
 71
3
 72
9
 73
5
 74
0
 42
0.0000001
 43
0.0000001
 44
0.0000000001
 40
0.0
 40
0.0
 40
0.0
 40
0.0
 40
0.2810183122
 40
1.0
 40
1.0
 40
1.0
 40
1.0
 10
139.1102544582
 20
295.873881726
 30
0.0
 10
139.0990027757
 20
295.8580410407
 30
0.0
 10
139.0619685236
 20
295.7999106862
 30
0.0
 10
139.0389095679
 20
295.7307028124
 30
0.0
 10
139.0386960351
 20
295.680991687
 30
0.0
  0
SPLINE
  5
4A7
100
AcDbEntity
  8
0
100
AcDbSpline
 62
7
  6
CONTINUOUS
 70
0
 71
3
 72
9
 73
5
 74
0
 42
0.0000001
 43
0.0000001
 44
0.0000000001
 40
0.0
 40
0.0
 40
0.0
 40
0.0
 40
0.2604339439
 40
1.0
 40
1.0
 40
1.0
 40
1.0
 10
137.0807814007
 20
266.071757775
 30
0.0
 10
137.1095002651
 20
266.1049138327
 30
0.0
 10
137.2113268574
 20
266.238594124
 30
0.0
 10
137.2730852144
 20
266.4080508762
 30
0.0
 10
137.2745773679
 20
266.5326060406
 30
0.0
  0
SPLINE
  5
4A8
100
AcDbEntity
  8
0
100
AcDbSpline
 62
7
  6
CONTINUOUS
 70
0
 71
3
 72
9
 73
5
 74
0
 42
0.0000001
 43
0.0000001
 44
0.0000000001
 40
0.0
 40
0.0
 40
0.0
 40
0.0
 40
0.2549785293
 40
1.0
 40
1.0
 40
1.0
 40
1.0
 10
133.3941523862
 20
262.384592954
 30
0.0
 10
133.6882484819
 20
262.7163065915
 30
0.0
 10
134.8605144175
 20
264.0003420674
 30
0.0
 10
136.1086771837
 20
265.2156873555
 30
0.0
 10
137.0807814007
 20
266.071757775
 30
0.0
  0
SPLINE
  5
4A9
100
AcDbEntity
  8
0
100
AcDbSpline
 62
7
  6
CONTINUOUS
 70
0
 71
3
 72
9
 73
5
 74
0
 42
0.0000001
 43
0.0000001
 44
0.0000000001
 40
0.0
 40
0.0
 40
0.0
 40
0.0
 40
0.2621915339
 40
1.0
 40
1.0
 40
1.0
 40
1.0
 10
135.7133383135
 20
257.9719267652
 30
0.0
 10
135.5403696121
 20
258.0941058077
 30
0.0
 10
134.8931824785
 20
258.5771940912
 30
0.0
 10
134.2977867307
 20
259.1324713132
 30
0.0
 10
133.9079167614
 20
259.5831589286
 30
0.0
  0
SPLINE
  5
4AA
100
AcDbEntity
  8
0
100
AcDbSpline
 62
7
  6
CONTINUOUS
 70
0
 71
3
 72
9
 73
5
 74
0
 42
0.0000001
 43
0.0000001
 44
0.0000000001
 40
0.0
 40
0.0
 40
0.0
 40
0.0
 40
0.2539795724
 40
1.0
 40
1.0
 40
1.0
 40
1.0
 10
147.5831292009
 20
250.5363669916
 30
0.0
 10
146.556078303
 20
251.1293217214
 30
0.0
 10
142.532853505
 20
253.4994146169
 30
0.0
 10
138.593819943
 20
256.0130192873
 30
0.0
 10
135.7133383135
 20
257.9719267652
 30
0.0
  0
SPLINE
  5
4AB
100
AcDbEntity
  8
0
100
AcDbSpline
 62
7
  6
CONTINUOUS
 70
0
 71
3
 72
9
 73
5
 74
0
 42
0.0000001
 43
0.0000001
 44
0.0000000001
 40
0.0
 40
0.0
 40
0.0
 40
0.0
 40
0.2536597311
 40
1.0
 40
1.0
 40
1.0
 40
1.0
 10
160.462178799
 20
243.6834995282
 30
0.0
 10
159.3544221279
 20
244.2264429867
 30
0.0
 10
155.0048146591
 20
246.4023129355
 30
0.0
 10
150.7266277383
 20
248.7215082249
 30
0.0
 10
147.5831292009
 20
250.5363669916
 30
0.0
  0
SPLINE
  5
4AC
100
AcDbEntity
  8
0
100
AcDbSpline
 62
7
  6
CONTINUOUS
 70
0
 71
3
 72
9
 73
5
 74
0
 42
0.0000001
 43
0.0000001
 44
0.0000000001
 40
0.0
 40
0.0
 40
0.0
 40
0.0
 40
0.2577767318
 40
1.0
 40
1.0
 40
1.0
 40
1.0
 10
163.2529695435
 20
242.641167551
 30
0.0
 10
163.0068657241
 20
242.712128198
 30
0.0
 10
162.057352437
 20
243.0048646641
 30
0.0
 10
161.1291334908
 20
243.3687770784
 30
0.0
 10
160.462178799
 20
243.6834995282
 30
0.0
  0
SPLINE
  5
4AD
100
AcDbEntity
  8
0
100
AcDbSpline
 62
7
  6
CONTINUOUS
 70
0
 71
3
 72
9
 73
5
 74
0
 42
0.0000001
 43
0.0000001
 44
0.0000000001
 40
0.0
 40
0.0
 40
0.0
 40
0.0
 40
0.2539795726
 40
1.0
 40
1.0
 40
1.0
 40
1.0
 10
147.5831292009
 20
198.9155122653
 30
0.0
 10
146.5560783033
 20
199.508466963
 30
0.0
 10
142.5328535087
 20
201.8785597304
 30
0.0
 10
138.5938199455
 20
204.3921642726
 30
0.0
 10
135.7133383135
 20
206.3510716548
 30
0.0
  0
SPLINE
  5
4AE
100
AcDbEntity
  8
0
100
AcDbSpline
 62
7
  6
CONTINUOUS
 70
0
 71
3
 72
9
 73
5
 74
0
 42
0.0000001
 43
0.0000001
 44
0.0000000001
 40
0.0
 40
0.0
 40
0.0
 40
0.0
 40
0.2536597313
 40
1.0
 40
1.0
 40
1.0
 40
1.0
 10
160.462178799
 20
192.0626451858
 30
0.0
 10
159.3544221282
 20
192.6055886124
 30
0.0
 10
155.0048146627
 20
194.7814584335
 30
0.0
 10
150.7266277408
 20
197.1006535946
 30
0.0
 10
147.5831292009
 20
198.9155122653
 30
0.0
  0
SPLINE
  5
4AF
100
AcDbEntity
  8
0
100
AcDbSpline
 62
7
  6
CONTINUOUS
 70
0
 71
3
 72
9
 73
5
 74
0
 42
0.0000001
 43
0.0000001
 44
0.0000000001
 40
0.0
 40
0.0
 40
0.0
 40
0.0
 40
0.2527811686
 40
1.0
 40
1.0
 40
1.0
 40
1.0
 10
160.462178799
 20
212.7061009156
 30
0.0
 10
159.6101975902
 20
213.1236814268
 30
0.0
 10
156.2501316705
 20
214.7966641551
 30
0.0
 10
152.9322329969
 20
216.5545253874
 30
0.0
 10
150.4808860864
 20
217.9172935556
 30
0.0
  0
SPLINE
  5
4B0
100
AcDbEntity
  8
0
100
AcDbSpline
 62
7
  6
CONTINUOUS
 70
0
 71
3
 72
9
 73
5
 74
0
 42
0.0000001
 43
0.0000001
 44
0.0000000001
 40
0.0
 40
0.0
 40
0.0
 40
0.0
 40
0.4897557323
 40
1.0
 40
1.0
 40
1.0
 40
1.0
 10
161.7195936485
 20
211.2765382883
 30
0.0
 10
161.7186763542
 20
211.5406177124
 30
0.0
 10
161.4849372524
 20
212.0690394592
 30
0.0
 10
161.0608912356
 20
212.4353586395
 30
0.0
 10
160.809476426
 20
212.5471010146
 30
0.0
  0
SPLINE
  5
4B1
100
AcDbEntity
  8
0
100
AcDbSpline
 62
7
  6
CONTINUOUS
 70
0
 71
3
 72
9
 73
5
 74
0
 42
0.0000001
 43
0.0000001
 44
0.0000000001
 40
0.0
 40
0.0
 40
0.0
 40
0.0
 40
0.4792451632
 40
1.0
 40
1.0
 40
1.0
 40
1.0
 10
164.2244634798
 20
241.5690657637
 30
0.0
 10
164.2244634798
 20
241.8106761074
 30
0.0
 10
163.9532675045
 20
242.2993825118
 30
0.0
 10
163.5052300407
 20
242.5684317165
 30
0.0
 10
163.2529695435
 20
242.641167551
 30
0.0
  0
SPLINE
  5
4B2
100
AcDbEntity
  8
0
100
AcDbSpline
 62
7
  6
CONTINUOUS
 70
0
 71
3
 72
9
 73
5
 74
0
 42
0.0000001
 43
0.0000001
 44
0.0000000001
 40
0.0
 40
0.0
 40
0.0
 40
0.0
 40
0.2344519837
 40
1.0
 40
1.0
 40
1.0
 40
1.0
 10
315.0149588681
 20
170.5645197361
 30
0.0
 10
314.9971866209
 20
170.511904613
 30
0.0
 10
314.9326070912
 20
170.2837122223
 30
0.0
 10
314.9097296906
 20
170.0449037518
 30
0.0
 10
314.9097296906
 20
169.8635652313
 30
0.0
  0
SPLINE
  5
4B3
100
AcDbEntity
  8
0
100
AcDbSpline
 62
7
  6
CONTINUOUS
 70
0
 71
3
 72
13
 73
9
 74
0
 42
0.0000001
 43
0.0000001
 44
0.0000000001
 40
0.0
 40
0.0
 40
0.0
 40
0.0
 40
0.0871378966
 40
0.1868510358
 40
0.3045312211
 40
0.4386675772
 40
0.7300816177
 40
1.0
 40
1.0
 40
1.0
 40
1.0
 10
314.1169214289
 20
170.4203232601
 30
0.0
 10
314.2668204521
 20
170.5067257922
 30
0.0
 10
314.6431619758
 20
170.6037506558
 30
0.0
 10
315.2491785444
 20
170.4822655466
 30
0.0
 10
315.8683579264
 20
170.1441910565
 30
0.0
 10
316.680516136
 20
169.4237271717
 30
0.0
 10
317.4435060468
 20
168.2445149433
 30
0.0
 10
317.7381783592
 20
167.133573293
 30
0.0
 10
317.7381781333
 20
166.5976336861
 30
0.0
  0
SPLINE
  5
4B4
100
AcDbEntity
  8
0
100
AcDbSpline
 62
7
  6
CONTINUOUS
 70
0
 71
3
 72
9
 73
5
 74
0
 42
0.0000001
 43
0.0000001
 44
0.0000000001
 40
0.0
 40
0.0
 40
0.0
 40
0.0
 40
0.5051637972
 40
1.0
 40
1.0
 40
1.0
 40
1.0
 10
130.2543357932
 20
201.4525371227
 30
0.0
 10
130.2544458468
 20
201.7210696492
 30
0.0
 10
130.3188347892
 20
202.2525462857
 30
0.0
 10
130.45840205
 20
202.7670616328
 30
0.0
 10
130.5456815853
 20
203.0152021606
 30
0.0
  0
SPLINE
  5
4B5
100
AcDbEntity
  8
0
100
AcDbSpline
 62
7
  6
CONTINUOUS
 70
0
 71
3
 72
9
 73
5
 74
0
 42
0.0000001
 43
0.0000001
 44
0.0000000001
 40
0.0
 40
0.0
 40
0.0
 40
0.0
 40
0.5433181749
 40
1.0
 40
1.0
 40
1.0
 40
1.0
 10
61.2598572939
 20
388.4261543194
 30
0.0
 10
61.2339916733
 20
388.0997045881
 30
0.0
 10
61.1029573538
 20
387.4928139207
 30
0.0
 10
60.6804800235
 20
387.0111968424
 30
0.0
 10
60.4421020778
 20
386.873570117
 30
0.0
  0
SPLINE
  5
4B6
100
AcDbEntity
  8
0
100
AcDbSpline
 62
7
  6
CONTINUOUS
 70
0
 71
3
 72
9
 73
5
 74
0
 42
0.0000001
 43
0.0000001
 44
0.0000000001
 40
0.0
 40
0.0
 40
0.0
 40
0.0
 40
0.2261988646
 40
1.0
 40
1.0
 40
1.0
 40
1.0
 10
199.5017755895
 20
472.6488199429
 30
0.0
 10
199.407820829
 20
472.4943401434
 30
0.0
 10
199.0542681856
 20
471.7733822222
 30
0.0
 10
198.9437342598
 20
470.9532636174
 30
0.0
 10
198.9437342598
 20
470.334739836
 30
0.0
  0
SPLINE
  5
4B7
100
AcDbEntity
  8
0
100
AcDbSpline
 62
7
  6
CONTINUOUS
 70
0
 71
3
 72
9
 73
5
 74
0
 42
0.0000001
 43
0.0000001
 44
0.0000000001
 40
0.0
 40
0.0
 40
0.0
 40
0.0
 40
0.2344519805
 40
1.0
 40
1.0
 40
1.0
 40
1.0
 10
201.8774047338
 20
476.751252439
 30
0.0
 10
201.8596324789
 20
476.6986373055
 30
0.0
 10
201.7950529207
 20
476.4704448646
 30
0.0
 10
201.772175511
 20
476.2316363368
 30
0.0
 10
201.772175511
 20
476.0502977729
 30
0.0
  0
SPLINE
  5
4B8
100
AcDbEntity
  8
0
100
AcDbSpline
 62
7
  6
CONTINUOUS
 70
0
 71
3
 72
13
 73
9
 74
0
 42
0.0000001
 43
0.0000001
 44
0.0000000001
 40
0.0
 40
0.0
 40
0.0
 40
0.0
 40
0.0869190851
 40
0.18440405
 40
0.2977960953
 40
0.4269887299
 40
0.7147128115
 40
1.0
 40
1.0
 40
1.0
 40
1.0
 10
200.9793672925
 20
476.6070558971
 30
0.0
 10
201.1143165198
 20
476.6848412936
 30
0.0
 10
201.4443542239
 20
476.7802370826
 30
0.0
 10
201.9836875706
 20
476.7063256297
 30
0.0
 10
202.5431522569
 20
476.4489083027
 30
0.0
 10
203.3025663694
 20
475.8679256289
 30
0.0
 10
204.0782966891
 20
474.8501913851
 30
0.0
 10
204.4549696289
 20
473.8733558236
 30
0.0
 10
204.5454777757
 20
473.3701860116
 30
0.0
  0
SPLINE
  5
4B9
100
AcDbEntity
  8
0
100
AcDbSpline
 62
7
  6
CONTINUOUS
 70
0
 71
3
 72
9
 73
5
 74
0
 42
0.0000001
 43
0.0000001
 44
0.0000000001
 40
0.0
 40
0.0
 40
0.0
 40
0.0
 40
0.2680448338
 40
1.0
 40
1.0
 40
1.0
 40
1.0
 10
62.1222710506
 20
394.6164460926
 30
0.0
 10
62.0702782854
 20
394.5864330652
 30
0.0
 10
61.8851532576
 20
394.4644274343
 30
0.0
 10
61.7318511929
 20
394.2613596523
 30
0.0
 10
61.7118791071
 20
394.0986459755
 30
0.0
  0
SPLINE
  5
4BA
100
AcDbEntity
  8
0
100
AcDbSpline
 62
7
  6
CONTINUOUS
 70
0
 71
3
 72
9
 73
5
 74
0
 42
0.0000001
 43
0.0000001
 44
0.0000000001
 40
0.0
 40
0.0
 40
0.0
 40
0.0
 40
0.4495204723
 40
1.0
 40
1.0
 40
1.0
 40
1.0
 10
51.7269768245
 20
200.7002160207
 30
0.0
 10
51.6573904707
 20
200.7403041006
 30
0.0
 10
51.5371522687
 20
200.8903735772
 30
0.0
 10
51.5128189339
 20
201.0731330012
 30
0.0
 10
51.5125648207
 20
201.1714768123
 30
0.0
  0
SPLINE
  5
4BB
100
AcDbEntity
  8
0
100
AcDbSpline
 62
7
  6
CONTINUOUS
 70
0
 71
3
 72
9
 73
5
 74
0
 42
0.0000001
 43
0.0000001
 44
0.0000000001
 40
0.0
 40
0.0
 40
0.0
 40
0.0
 40
0.5053811594
 40
1.0
 40
1.0
 40
1.0
 40
1.0
 10
229.4734898618
 20
347.7580912257
 30
0.0
 10
229.8593760781
 20
347.4963178923
 30
0.0
 10
230.4649963774
 20
346.7559490891
 30
0.0
 10
230.7627097118
 20
345.8423989478
 30
0.0
 10
230.7644521341
 20
345.3860346929
 30
0.0
  0
SPLINE
  5
4BC
100
AcDbEntity
  8
0
100
AcDbSpline
 62
7
  6
CONTINUOUS
 70
0
 71
3
 72
10
 73
6
 74
0
 42
0.0000001
 43
0.0000001
 44
0.0000000001
 40
0.0
 40
0.0
 40
0.0
 40
0.0
 40
0.2407714586
 40
0.5017916308
 40
1.0
 40
1.0
 40
1.0
 40
1.0
 10
221.0171596728
 20
356.2037108856
 30
0.0
 10
221.0478766421
 20
355.7805726435
 30
0.0
 10
221.2404105687
 20
354.9056996043
 30
0.0
 10
221.9720463933
 20
353.2998142736
 30
0.0
 10
222.8749948678
 20
352.2342496797
 30
0.0
 10
223.601481233
 20
351.7414300782
 30
0.0
  0
SPLINE
  5
4BD
100
AcDbEntity
  8
0
100
AcDbSpline
 62
7
  6
CONTINUOUS
 70
0
 71
3
 72
9
 73
5
 74
0
 42
0.0000001
 43
0.0000001
 44
0.0000000001
 40
0.0
 40
0.0
 40
0.0
 40
0.0
 40
0.4948227865
 40
1.0
 40
1.0
 40
1.0
 40
1.0
 10
219.8634149525
 20
363.5455096799
 30
0.0
 10
220.057820521
 20
363.4267227782
 30
0.0
 10
220.3748631198
 20
363.0689086896
 30
0.0
 10
220.5456788047
 20
362.6250145118
 30
0.0
 10
220.5678355185
 20
362.3934807314
 30
0.0
  0
SPLINE
  5
4BE
100
AcDbEntity
  8
0
100
AcDbSpline
 62
7
  6
CONTINUOUS
 70
0
 71
3
 72
11
 73
7
 74
0
 42
0.0000001
 43
0.0000001
 44
0.0000000001
 40
0.0
 40
0.0
 40
0.0
 40
0.0
 40
0.285447761
 40
0.5440780778
 40
0.7793555138
 40
1.0
 40
1.0
 40
1.0
 40
1.0
 10
140.0840733444
 20
244.0202225648
 30
0.0
 10
140.0840733444
 20
244.5759644879
 30
0.0
 10
140.1656496405
 20
245.6384073465
 30
0.0
 10
140.5771599125
 20
247.1113502877
 30
0.0
 10
141.2740258975
 20
248.334237617
 30
0.0
 10
141.9337392381
 20
248.9538354203
 30
0.0
 10
142.2912451596
 20
249.1920049098
 30
0.0
  0
SPLINE
  5
4BF
100
AcDbEntity
  8
0
100
AcDbSpline
 62
7
  6
CONTINUOUS
 70
0
 71
3
 72
15
 73
11
 74
0
 42
0.0000001
 43
0.0000001
 44
0.0000000001
 40
0.0
 40
0.0
 40
0.0
 40
0.0
 40
0.0895128764
 40
0.1911726486
 40
0.3095153442
 40
0.4430631238
 40
0.5863963493
 40
0.7320790732
 40
0.8722077917
 40
1.0
 40
1.0
 40
1.0
 40
1.0
 10
153.6931601064
 20
229.4431910346
 30
0.0
 10
153.0919247979
 20
229.1456729996
 30
0.0
 10
151.6246955291
 20
228.8555963486
 30
0.0
 10
149.3218824789
 20
229.3937317128
 30
0.0
 10
146.99787687
 20
230.7206398055
 30
0.0
 10
144.7904488586
 20
232.723673492
 30
0.0
 10
142.8526467035
 20
235.2473084305
 30
0.0
 10
141.3321177791
 20
238.0983391121
 30
0.0
 10
140.3468104643
 20
241.0523030308
 30
0.0
 10
140.0840733444
 20
243.0625312644
 30
0.0
 10
140.0840733444
 20
244.0202225648
 30
0.0
  0
SPLINE
  5
4C0
100
AcDbEntity
  8
0
100
AcDbSpline
 62
7
  6
CONTINUOUS
 70
0
 71
3
 72
9
 73
5
 74
0
 42
0.0000001
 43
0.0000001
 44
0.0000000001
 40
0.0
 40
0.0
 40
0.0
 40
0.0
 40
0.2367221473
 40
1.0
 40
1.0
 40
1.0
 40
1.0
 10
133.2634084926
 20
262.0315384943
 30
0.0
 10
133.263384856
 20
262.0615505583
 30
0.0
 10
133.2764991521
 20
262.1883581305
 30
0.0
 10
133.3359426918
 20
262.3072883865
 30
0.0
 10
133.3941523862
 20
262.3845931238
 30
0.0
  0
SPLINE
  5
4C1
100
AcDbEntity
  8
0
100
AcDbSpline
 62
7
  6
CONTINUOUS
 70
0
 71
3
 72
9
 73
5
 74
0
 42
0.0000001
 43
0.0000001
 44
0.0000000001
 40
0.0
 40
0.0
 40
0.0
 40
0.0
 40
0.2587034769
 40
1.0
 40
1.0
 40
1.0
 40
1.0
 10
88.5577164887
 20
157.2386288156
 30
0.0
 10
88.5265885926
 20
157.2566358569
 30
0.0
 10
88.4094652506
 20
157.3311347075
 30
0.0
 10
88.3045061917
 20
157.4284603144
 30
0.0
 10
88.2466622495
 20
157.5137371096
 30
0.0
  0
SPLINE
  5
4C2
100
AcDbEntity
  8
0
100
AcDbSpline
 62
7
  6
CONTINUOUS
 70
0
 71
3
 72
9
 73
5
 74
0
 42
0.0000001
 43
0.0000001
 44
0.0000000001
 40
0.0
 40
0.0
 40
0.0
 40
0.0
 40
0.2261988646
 40
1.0
 40
1.0
 40
1.0
 40
1.0
 10
312.639331613
 20
407.3302992196
 30
0.0
 10
312.5453768525
 20
407.1758194202
 30
0.0
 10
312.1918242091
 20
406.454861499
 30
0.0
 10
312.0812902833
 20
405.6347428941
 30
0.0
 10
312.0812902833
 20
405.0162191127
 30
0.0
  0
SPLINE
  5
4C3
100
AcDbEntity
  8
0
100
AcDbSpline
 62
7
  6
CONTINUOUS
 70
0
 71
3
 72
10
 73
6
 74
0
 42
0.0000001
 43
0.0000001
 44
0.0000000001
 40
0.0
 40
0.0
 40
0.0
 40
0.0
 40
0.3246771505
 40
0.5985327077
 40
1.0
 40
1.0
 40
1.0
 40
1.0
 10
195.3856311878
 20
101.6329550029
 30
0.0
 10
195.2343816804
 20
101.7117238667
 30
0.0
 10
194.9454064456
 20
101.8419625057
 30
0.0
 10
194.4450227326
 20
101.9852186501
 30
0.0
 10
194.0554140319
 20
101.9753514423
 30
0.0
 10
193.8727986131
 20
101.8699223563
 30
0.0
  0
SPLINE
  5
4C4
100
AcDbEntity
  8
0
100
AcDbSpline
 62
7
  6
CONTINUOUS
 70
0
 71
3
 72
8
 73
4
 74
0
 42
0.0000001
 43
0.0000001
 44
0.0000000001
 40
0.0
 40
0.0
 40
0.0
 40
0.0
 40
1.0
 40
1.0
 40
1.0
 40
1.0
 10
201.1113211749
 20
98.7376988366
 30
0.0
 10
199.2025956838
 20
99.7024694685
 30
0.0
 10
197.2940277893
 20
100.6675519572
 30
0.0
 10
195.3856183297
 20
101.6329475793
 30
0.0
  0
SPLINE
  5
4C5
100
AcDbEntity
  8
0
100
AcDbSpline
 62
7
  6
CONTINUOUS
 70
0
 71
3
 72
9
 73
5
 74
0
 42
0.0000001
 43
0.0000001
 44
0.0000000001
 40
0.0
 40
0.0
 40
0.0
 40
0.0
 40
0.2633939114
 40
1.0
 40
1.0
 40
1.0
 40
1.0
 10
134.9741869353
 20
206.5948007714
 30
0.0
 10
134.8070958771
 20
206.7348620445
 30
0.0
 10
134.1895417772
 20
207.2858468357
 30
0.0
 10
133.642441013
 20
207.9196976704
 30
0.0
 10
133.3070230654
 20
208.4288889108
 30
0.0
  0
SPLINE
  5
4C6
100
AcDbEntity
  8
0
100
AcDbSpline
 62
7
  6
CONTINUOUS
 70
0
 71
3
 72
9
 73
5
 74
0
 42
0.0000001
 43
0.0000001
 44
0.0000000001
 40
0.0
 40
0.0
 40
0.0
 40
0.0
 40
0.2551639661
 40
1.0
 40
1.0
 40
1.0
 40
1.0
 10
63.0941858963
 20
394.8593054921
 30
0.0
 10
63.0086095078
 20
394.8571852122
 30
0.0
 10
62.6750652935
 20
394.828335527
 30
0.0
 10
62.3386810381
 20
394.7413696056
 30
0.0
 10
62.1222710506
 20
394.6164460926
 30
0.0
  0
SPLINE
  5
4C7
100
AcDbEntity
  8
0
100
AcDbSpline
 62
7
  6
CONTINUOUS
 70
0
 71
3
 72
13
 73
9
 74
0
 42
0.0000001
 43
0.0000001
 44
0.0000000001
 40
0.0
 40
0.0
 40
0.0
 40
0.0
 40
0.2834000084
 40
0.5624053951
 40
0.6887449034
 40
0.8044390747
 40
0.9083557618
 40
1.0
 40
1.0
 40
1.0
 40
1.0
 10
168.5984740768
 20
332.3891350152
 30
0.0
 10
168.5988054924
 20
332.5364587448
 30
0.0
 10
168.5887803632
 20
332.8286715417
 30
0.0
 10
168.5862887173
 20
333.1869354578
 30
0.0
 10
168.5847750784
 20
333.4573767277
 30
0.0
 10
168.5795895172
 20
333.6382536964
 30
0.0
 10
168.5818434655
 20
333.7966104689
 30
0.0
 10
168.5742229926
 20
333.9058635288
 30
0.0
 10
168.5976197073
 20
333.9473634112
 30
0.0
  0
SPLINE
  5
4C8
100
AcDbEntity
  8
0
100
AcDbSpline
 62
7
  6
CONTINUOUS
 70
0
 71
3
 72
8
 73
4
 74
0
 42
0.0000001
 43
0.0000001
 44
0.0000000001
 40
0.0
 40
0.0
 40
0.0
 40
0.0
 40
1.0
 40
1.0
 40
1.0
 40
1.0
 10
133.3070230654
 20
261.8523654864
 30
0.0
 10
133.2775412695
 20
261.9063022921
 30
0.0
 10
133.2634569032
 20
261.9700701857
 30
0.0
 10
133.2634084926
 20
262.0315384943
 30
0.0
  0
SPLINE
  5
4C9
100
AcDbEntity
  8
0
100
AcDbSpline
 62
7
  6
CONTINUOUS
 70
0
 71
3
 72
8
 73
4
 74
0
 42
0.0000001
 43
0.0000001
 44
0.0000000001
 40
0.0
 40
0.0
 40
0.0
 40
0.0
 40
1.0
 40
1.0
 40
1.0
 40
1.0
 10
153.6931413096
 20
229.4432252694
 30
0.0
 10
154.0086516961
 20
229.5992477437
 30
0.0
 10
154.3045693927
 20
229.8018943955
 30
0.0
 10
154.5657155284
 20
230.0378870063
 30
0.0
  0
SPLINE
  5
4CA
100
AcDbEntity
  8
0
100
AcDbSpline
 62
7
  6
CONTINUOUS
 70
0
 71
3
 72
11
 73
7
 74
0
 42
0.0000001
 43
0.0000001
 44
0.0000000001
 40
0.0
 40
0.0
 40
0.0
 40
0.0
 40
0.2189433436
 40
0.4553612261
 40
0.715211849
 40
1.0
 40
1.0
 40
1.0
 40
1.0
 10
154.5657155284
 20
230.0378870063
 30
0.0
 10
154.8461491354
 20
230.2913093245
 30
0.0
 10
155.3550574349
 20
230.9048567082
 30
0.0
 10
155.8886085067
 20
232.0294327011
 30
0.0
 10
156.2070342548
 20
233.3476100035
 30
0.0
 10
156.271390968
 20
234.2899540121
 30
0.0
 10
156.271390968
 20
234.7816021844
 30
0.0
  0
SPLINE
  5
4CB
100
AcDbEntity
  8
0
100
AcDbSpline
 62
7
  6
CONTINUOUS
 70
0
 71
3
 72
10
 73
6
 74
0
 42
0.0000001
 43
0.0000001
 44
0.0000000001
 40
0.0
 40
0.0
 40
0.0
 40
0.0
 40
0.2316139337
 40
0.4706219295
 40
1.0
 40
1.0
 40
1.0
 40
1.0
 10
143.2057418324
 20
249.8046086482
 30
0.0
 10
143.4797616893
 20
249.9882534893
 30
0.0
 10
144.088784975
 20
250.2893032419
 30
0.0
 10
145.4953534731
 20
250.5802652217
 30
0.0
 10
146.6162910803
 20
250.4095367725
 30
0.0
 10
147.3362460554
 20
250.1857075937
 30
0.0
  0
SPLINE
  5
4CC
100
AcDbEntity
  8
0
100
AcDbSpline
 62
7
  6
CONTINUOUS
 70
0
 71
3
 72
9
 73
5
 74
0
 42
0.0000001
 43
0.0000001
 44
0.0000000001
 40
0.0
 40
0.0
 40
0.0
 40
0.0
 40
0.2388436901
 40
1.0
 40
1.0
 40
1.0
 40
1.0
 10
147.3362460554
 20
250.1857075937
 30
0.0
 10
147.4885972461
 20
250.1383426291
 30
0.0
 10
148.1200653503
 20
249.9195919486
 30
0.0
 10
148.7242112149
 20
249.6252384785
 30
0.0
 10
149.1645368411
 20
249.3710221108
 30
0.0
  0
SPLINE
  5
4CD
100
AcDbEntity
  8
0
100
AcDbSpline
 62
7
  6
CONTINUOUS
 70
0
 71
3
 72
9
 73
5
 74
0
 42
0.0000001
 43
0.0000001
 44
0.0000000001
 40
0.0
 40
0.0
 40
0.0
 40
0.0
 40
0.2384018862
 40
1.0
 40
1.0
 40
1.0
 40
1.0
 10
133.9079167614
 20
230.1074200326
 30
0.0
 10
134.0339031912
 20
229.9617803996
 30
0.0
 10
134.5836632505
 20
229.3693649974
 30
0.0
 10
135.2108654173
 20
228.8511172073
 30
0.0
 10
135.7133383135
 20
228.4961879404
 30
0.0
  0
SPLINE
  5
4CE
100
AcDbEntity
  8
0
100
AcDbSpline
 62
7
  6
CONTINUOUS
 70
0
 71
3
 72
9
 73
5
 74
0
 42
0.0000001
 43
0.0000001
 44
0.0000000001
 40
0.0
 40
0.0
 40
0.0
 40
0.0
 40
0.2420398192
 40
1.0
 40
1.0
 40
1.0
 40
1.0
 10
160.462178799
 20
214.2077614714
 30
0.0
 10
160.679678662
 20
214.1051276846
 30
0.0
 10
161.5876303376
 20
213.701005241
 30
0.0
 10
162.5293113203
 20
213.3740865592
 30
0.0
 10
163.252966058
 20
213.1654305705
 30
0.0
  0
SPLINE
  5
4CF
100
AcDbEntity
  8
0
100
AcDbSpline
 62
7
  6
CONTINUOUS
 70
0
 71
3
 72
9
 73
5
 74
0
 42
0.0000001
 43
0.0000001
 44
0.0000000001
 40
0.0
 40
0.0
 40
0.0
 40
0.0
 40
0.2463427911
 40
1.0
 40
1.0
 40
1.0
 40
1.0
 10
147.5831292009
 20
221.0606285509
 30
0.0
 10
148.6206986141
 20
220.4616011227
 30
0.0
 10
152.8541025357
 20
218.0673094297
 30
0.0
 10
157.1708776764
 20
215.8209228782
 30
0.0
 10
160.462178799
 20
214.2077614714
 30
0.0
  0
SPLINE
  5
4D0
100
AcDbEntity
  8
0
100
AcDbSpline
 62
7
  6
CONTINUOUS
 70
0
 71
3
 72
9
 73
5
 74
0
 42
0.0000001
 43
0.0000001
 44
0.0000000001
 40
0.0
 40
0.0
 40
0.0
 40
0.0
 40
0.2460420457
 40
1.0
 40
1.0
 40
1.0
 40
1.0
 10
135.7133383135
 20
228.4961879404
 30
0.0
 10
136.6633411184
 20
227.8501267099
 30
0.0
 10
140.5497778452
 20
225.2616360915
 30
0.0
 10
144.5342411842
 20
222.8208650461
 30
0.0
 10
147.5831292009
 20
221.0606285509
 30
0.0
  0
SPLINE
  5
4D1
100
AcDbEntity
  8
0
100
AcDbSpline
 62
7
  6
CONTINUOUS
 70
0
 71
3
 72
8
 73
4
 74
0
 42
0.0000001
 43
0.0000001
 44
0.0000000001
 40
0.0
 40
0.0
 40
0.0
 40
0.0
 40
1.0
 40
1.0
 40
1.0
 40
1.0
 10
133.5889160875
 20
259.7371869513
 30
0.0
 10
133.5792514867
 20
259.731598942
 30
0.0
 10
133.5703076297
 20
259.7246411023
 30
0.0
 10
133.5622850331
 20
259.7168778363
 30
0.0
  0
SPLINE
  5
4D2
100
AcDbEntity
  8
0
100
AcDbSpline
 62
7
  6
CONTINUOUS
 70
0
 71
3
 72
9
 73
5
 74
0
 42
0.0000001
 43
0.0000001
 44
0.0000000001
 40
0.0
 40
0.0
 40
0.0
 40
0.0
 40
0.3964192196
 40
1.0
 40
1.0
 40
1.0
 40
1.0
 10
133.5622850331
 20
259.7168778363
 30
0.0
 10
133.5235848901
 20
259.6794286763
 30
0.0
 10
133.4732254142
 20
259.5440652537
 30
0.0
 10
133.4651883612
 20
259.4095329086
 30
0.0
 10
133.4651883284
 20
259.3275373685
 30
0.0
  0
SPLINE
  5
4D3
100
AcDbEntity
  8
0
100
AcDbSpline
 62
7
  6
CONTINUOUS
 70
0
 71
3
 72
8
 73
4
 74
0
 42
0.0000001
 43
0.0000001
 44
0.0000000001
 40
0.0
 40
0.0
 40
0.0
 40
0.0
 40
1.0
 40
1.0
 40
1.0
 40
1.0
 10
133.7954869877
 20
259.6461132933
 30
0.0
 10
133.7881592399
 20
259.6019136302
 30
0.0
 10
133.7849001812
 20
259.5569249431
 30
0.0
 10
133.7849001506
 20
259.5121219733
 30
0.0
  0
SPLINE
  5
4D4
100
AcDbEntity
  8
0
100
AcDbSpline
 62
7
  6
CONTINUOUS
 70
0
 71
3
 72
9
 73
5
 74
0
 42
0.0000001
 43
0.0000001
 44
0.0000000001
 40
0.0
 40
0.0
 40
0.0
 40
0.0
 40
0.5260223381
 40
1.0
 40
1.0
 40
1.0
 40
1.0
 10
133.4651881558
 20
231.4848045922
 30
0.0
 10
133.4651884247
 20
231.2281832307
 30
0.0
 10
133.5604377178
 20
230.745319598
 30
0.0
 10
133.7566373158
 20
230.2822983093
 30
0.0
 10
133.9079167614
 20
230.1074200326
 30
0.0
  0
SPLINE
  5
4D5
100
AcDbEntity
  8
0
100
AcDbSpline
 62
7
  6
CONTINUOUS
 70
0
 71
3
 72
9
 73
5
 74
0
 42
0.0000001
 43
0.0000001
 44
0.0000000001
 40
0.0
 40
0.0
 40
0.0
 40
0.0
 40
0.4543787107
 40
1.0
 40
1.0
 40
1.0
 40
1.0
 10
139.0386960351
 20
295.680991687
 30
0.0
 10
139.0384842588
 20
295.6316895006
 30
0.0
 10
139.0785699473
 20
295.521993443
 30
0.0
 10
139.1676314012
 20
295.4535842007
 30
0.0
 10
139.2186087116
 20
295.4234792861
 30
0.0
  0
SPLINE
  5
4D6
100
AcDbEntity
  8
0
100
AcDbSpline
 62
7
  6
CONTINUOUS
 70
0
 71
3
 72
15
 73
11
 74
0
 42
0.0000001
 43
0.0000001
 44
0.0000000001
 40
0.0
 40
0.0
 40
0.0
 40
0.0
 40
0.0869302718
 40
0.1864000368
 40
0.3037880336
 40
0.4376004358
 40
0.582099273
 40
0.7294176325
 40
0.8711704074
 40
1.0
 40
1.0
 40
1.0
 40
1.0
 10
319.1167730555
 20
395.2799660824
 30
0.0
 10
318.7672089654
 20
395.0779590772
 30
0.0
 10
317.8886541213
 20
394.852358765
 30
0.0
 10
316.4747416648
 20
395.1354704059
 30
0.0
 10
315.0301660817
 20
395.9245106962
 30
0.0
 10
313.6450014047
 20
397.1510438284
 30
0.0
 10
312.4221076404
 20
398.716492092
 30
0.0
 10
311.4592239741
 20
400.4960406206
 30
0.0
 10
310.83449064
 20
402.343284367
 30
0.0
 10
310.6670826089
 20
403.6014006286
 30
0.0
 10
310.6670826089
 20
404.199730805
 30
0.0
  0
SPLINE
  5
4D7
100
AcDbEntity
  8
0
100
AcDbSpline
 62
7
  6
CONTINUOUS
 70
0
 71
3
 72
9
 73
5
 74
0
 42
0.0000001
 43
0.0000001
 44
0.0000000001
 40
0.0
 40
0.0
 40
0.0
 40
0.0
 40
0.25816311
 40
1.0
 40
1.0
 40
1.0
 40
1.0
 10
197.5611430798
 20
120.3691841343
 30
0.0
 10
197.7994625655
 20
118.5347140352
 30
0.0
 10
198.8541482481
 20
111.4471654023
 30
0.0
 10
200.4518567533
 20
104.4357883918
 30
0.0
 10
201.9853202617
 20
99.346094837
 30
0.0
  0
SPLINE
  5
4D8
100
AcDbEntity
  8
0
100
AcDbSpline
 62
7
  6
CONTINUOUS
 70
0
 71
3
 72
9
 73
5
 74
0
 42
0.0000001
 43
0.0000001
 44
0.0000000001
 40
0.0
 40
0.0
 40
0.0
 40
0.0
 40
0.2412735239
 40
1.0
 40
1.0
 40
1.0
 40
1.0
 10
132.5252453776
 20
197.3042889908
 30
0.0
 10
132.2943996297
 20
197.5446837978
 30
0.0
 10
131.4060679907
 20
198.6071339929
 30
0.0
 10
130.7592815921
 20
199.8506737054
 30
0.0
 10
130.3548266395
 20
200.8175643312
 30
0.0
  0
SPLINE
  5
4D9
100
AcDbEntity
  8
0
100
AcDbSpline
 62
7
  6
CONTINUOUS
 70
0
 71
3
 72
9
 73
5
 74
0
 42
0.0000001
 43
0.0000001
 44
0.0000000001
 40
0.0
 40
0.0
 40
0.0
 40
0.0
 40
0.2462121546
 40
1.0
 40
1.0
 40
1.0
 40
1.0
 10
139.5495334124
 20
191.0759851579
 30
0.0
 10
138.9341614696
 20
191.5402982411
 30
0.0
 10
136.4755104111
 20
193.479959344
 30
0.0
 10
134.1760085494
 20
195.6174623739
 30
0.0
 10
132.5252453776
 20
197.3041974859
 30
0.0
  0
SPLINE
  5
4DA
100
AcDbEntity
  8
0
100
AcDbSpline
 62
7
  6
CONTINUOUS
 70
0
 71
3
 72
11
 73
7
 74
0
 42
0.0000001
 43
0.0000001
 44
0.0000000001
 40
0.0
 40
0.0
 40
0.0
 40
0.0
 40
0.2492625256
 40
0.5014498153
 40
0.7510460301
 40
1.0
 40
1.0
 40
1.0
 40
1.0
 10
144.6059400386
 20
187.4373052465
 30
0.0
 10
144.1576189615
 20
187.6961376855
 30
0.0
 10
143.3142901831
 20
188.3121144185
 30
0.0
 10
142.0550094843
 20
189.2305110872
 30
0.0
 10
140.7913391443
 20
190.1443966076
 30
0.0
 10
139.9631383739
 20
190.7657370312
 30
0.0
 10
139.5495334124
 20
191.0759851579
 30
0.0
  0
SPLINE
  5
4DB
100
AcDbEntity
  8
0
100
AcDbSpline
 62
7
  6
CONTINUOUS
 70
0
 71
3
 72
11
 73
7
 74
0
 42
0.0000001
 43
0.0000001
 44
0.0000000001
 40
0.0
 40
0.0
 40
0.0
 40
0.0
 40
0.251675256
 40
0.5020780116
 40
0.7497553291
 40
1.0
 40
1.0
 40
1.0
 40
1.0
 10
149.8726401086
 20
185.1160689377
 30
0.0
 10
149.4270893098
 20
185.3023541187
 30
0.0
 10
148.5376441536
 20
185.6724541567
 30
0.0
 10
147.2201366955
 20
186.2512873278
 30
0.0
 10
145.9011015731
 20
186.8155984892
 30
0.0
 10
145.0217914163
 20
187.1972187732
 30
0.0
 10
144.6059400386
 20
187.4373052465
 30
0.0
  0
SPLINE
  5
4DC
100
AcDbEntity
  8
0
100
AcDbSpline
 62
7
  6
CONTINUOUS
 70
0
 71
3
 72
9
 73
5
 74
0
 42
0.0000001
 43
0.0000001
 44
0.0000000001
 40
0.0
 40
0.0
 40
0.0
 40
0.0
 40
0.2477206354
 40
1.0
 40
1.0
 40
1.0
 40
1.0
 10
157.962360196
 20
182.6168213827
 30
0.0
 10
157.2782378458
 20
182.7635203019
 30
0.0
 10
154.5290677597
 20
183.4117738729
 30
0.0
 10
151.8358030585
 20
184.3032606961
 30
0.0
 10
149.8726401086
 20
185.1160689377
 30
0.0
  0
SPLINE
  5
4DD
100
AcDbEntity
  8
0
100
AcDbSpline
 62
7
  6
CONTINUOUS
 70
0
 71
3
 72
9
 73
5
 74
0
 42
0.0000001
 43
0.0000001
 44
0.0000000001
 40
0.0
 40
0.0
 40
0.0
 40
0.0
 40
0.5016522624
 40
1.0
 40
1.0
 40
1.0
 40
1.0
 10
161.2405900482
 20
182.9278992893
 30
0.0
 10
160.7146197404
 20
182.7493086143
 30
0.0
 10
159.6315153564
 20
182.4809124699
 30
0.0
 10
158.5033358787
 20
182.5081327246
 30
0.0
 10
157.962360196
 20
182.6169133334
 30
0.0
  0
SPLINE
  5
4DE
100
AcDbEntity
  8
0
100
AcDbSpline
 62
7
  6
CONTINUOUS
 70
0
 71
3
 72
9
 73
5
 74
0
 42
0.0000001
 43
0.0000001
 44
0.0000000001
 40
0.0
 40
0.0
 40
0.0
 40
0.0
 40
0.5017483546
 40
1.0
 40
1.0
 40
1.0
 40
1.0
 10
147.5831292009
 20
250.7761384974
 30
0.0
 10
145.578129161
 20
251.9336996227
 30
0.0
 10
141.7295667933
 20
254.4919834288
 30
0.0
 10
138.0051355137
 20
257.2143772871
 30
0.0
 10
136.1592945539
 20
258.5849233668
 30
0.0
  0
SPLINE
  5
4DF
100
AcDbEntity
  8
0
100
AcDbSpline
 62
7
  6
CONTINUOUS
 70
0
 71
3
 72
9
 73
5
 74
0
 42
0.0000001
 43
0.0000001
 44
0.0000000001
 40
0.0
 40
0.0
 40
0.0
 40
0.0
 40
0.5027208069
 40
1.0
 40
1.0
 40
1.0
 40
1.0
 10
160.1314440008
 20
244.772161697
 30
0.0
 10
158.011178915
 20
245.6963329476
 30
0.0
 10
153.7993755313
 20
247.545080801
 30
0.0
 10
149.6649912736
 20
249.5799395478
 30
0.0
 10
147.6811910946
 20
250.7196624052
 30
0.0
  0
SPLINE
  5
4E0
100
AcDbEntity
  8
0
100
AcDbSpline
 62
7
  6
CONTINUOUS
 70
0
 71
3
 72
9
 73
5
 74
0
 42
0.0000001
 43
0.0000001
 44
0.0000000001
 40
0.0
 40
0.0
 40
0.0
 40
0.0
 40
0.5508447784
 40
1.0
 40
1.0
 40
1.0
 40
1.0
 10
313.4955220162
 20
169.0470769236
 30
0.0
 10
313.4955220162
 20
169.3336114729
 30
0.0
 10
313.5650163753
 20
169.8659564523
 30
0.0
 10
313.9145018343
 20
170.3036476131
 30
0.0
 10
314.1169214289
 20
170.4203232601
 30
0.0
  0
SPLINE
  5
4E1
100
AcDbEntity
  8
0
100
AcDbSpline
 62
7
  6
CONTINUOUS
 70
0
 71
3
 72
9
 73
5
 74
0
 42
0.0000001
 43
0.0000001
 44
0.0000000001
 40
0.0
 40
0.0
 40
0.0
 40
0.0
 40
0.5427010895
 40
1.0
 40
1.0
 40
1.0
 40
1.0
 10
309.670060932
 20
165.4522710078
 30
0.0
 10
309.6634136403
 20
165.3711697971
 30
0.0
 10
309.6301350752
 20
165.2204452739
 30
0.0
 10
309.5252258033
 20
165.100551574
 30
0.0
 10
309.4658420545
 20
165.0662714879
 30
0.0
  0
SPLINE
  5
4E2
100
AcDbEntity
  8
0
100
AcDbSpline
 62
7
  6
CONTINUOUS
 70
0
 71
3
 72
9
 73
5
 74
0
 42
0.0000001
 43
0.0000001
 44
0.0000000001
 40
0.0
 40
0.0
 40
0.0
 40
0.0
 40
0.2585829692
 40
1.0
 40
1.0
 40
1.0
 40
1.0
 10
164.6237054199
 20
243.7724078309
 30
0.0
 10
164.2823253417
 20
243.7863860273
 30
0.0
 10
162.9649874293
 20
243.8830733369
 30
0.0
 10
161.6556605165
 20
244.1695621225
 30
0.0
 10
160.7393688523
 20
244.5161101923
 30
0.0
  0
SPLINE
  5
4E3
100
AcDbEntity
  8
0
100
AcDbSpline
 62
7
  6
CONTINUOUS
 70
0
 71
3
 72
9
 73
5
 74
0
 42
0.0000001
 43
0.0000001
 44
0.0000000001
 40
0.0
 40
0.0
 40
0.0
 40
0.0
 40
0.247223574
 40
1.0
 40
1.0
 40
1.0
 40
1.0
 10
150.4831329971
 20
202.6660863676
 30
0.0
 10
151.2939835908
 20
202.2146840749
 30
0.0
 10
154.5859740294
 20
200.4107107731
 30
0.0
 10
157.9255122883
 20
198.6936788975
 30
0.0
 10
160.4621607616
 20
197.4485010594
 30
0.0
  0
SPLINE
  5
4E4
100
AcDbEntity
  8
0
100
AcDbSpline
 62
7
  6
CONTINUOUS
 70
0
 71
3
 72
9
 73
5
 74
0
 42
0.0000001
 43
0.0000001
 44
0.0000000001
 40
0.0
 40
0.0
 40
0.0
 40
0.0
 40
0.2239980825
 40
1.0
 40
1.0
 40
1.0
 40
1.0
 10
196.9773938535
 20
125.5557703957
 30
0.0
 10
196.9920998868
 20
125.5463212259
 30
0.0
 10
197.0535454834
 20
125.496157008
 30
0.0
 10
197.0748252522
 20
125.4115139727
 30
0.0
 10
197.0788885465
 20
125.3510936866
 30
0.0
  0
SPLINE
  5
4E5
100
AcDbEntity
  8
0
100
AcDbSpline
 62
7
  6
CONTINUOUS
 70
0
 71
3
 72
9
 73
5
 74
0
 42
0.0000001
 43
0.0000001
 44
0.0000000001
 40
0.0
 40
0.0
 40
0.0
 40
0.0
 40
0.2537649896
 40
1.0
 40
1.0
 40
1.0
 40
1.0
 10
196.2762937076
 20
137.3107217925
 30
0.0
 10
196.3014658535
 20
136.314827977
 30
0.0
 10
196.4334956288
 20
132.3912811559
 30
0.0
 10
196.6987320887
 20
128.4720012171
 30
0.0
 10
196.9773938535
 20
125.5557703957
 30
0.0
  0
SPLINE
  5
4E6
100
AcDbEntity
  8
0
100
AcDbSpline
 62
7
  6
CONTINUOUS
 70
0
 71
3
 72
11
 73
7
 74
0
 42
0.0000001
 43
0.0000001
 44
0.0000000001
 40
0.0
 40
0.0
 40
0.0
 40
0.0
 40
0.237244226
 40
0.5000007642
 40
0.7627570085
 40
1.0
 40
1.0
 40
1.0
 40
1.0
 10
322.6879509719
 20
408.6906542603
 30
0.0
 10
322.6879508936
 20
408.9224979023
 30
0.0
 10
322.6009706144
 20
409.41142895
 30
0.0
 10
322.2978932888
 20
410.0984605929
 30
0.0
 10
321.8544464889
 20
410.704448516
 30
0.0
 10
321.47451005
 20
411.024239725
 30
0.0
 10
321.2737275538
 20
411.1401591114
 30
0.0
  0
SPLINE
  5
4E7
100
AcDbEntity
  8
0
100
AcDbSpline
 62
7
  6
CONTINUOUS
 70
0
 71
3
 72
9
 73
5
 74
0
 42
0.0000001
 43
0.0000001
 44
0.0000000001
 40
0.0
 40
0.0
 40
0.0
 40
0.0
 40
0.2448055537
 40
1.0
 40
1.0
 40
1.0
 40
1.0
 10
168.9007165408
 20
247.7009231565
 30
0.0
 10
168.580926633
 20
247.4193045032
 30
0.0
 10
167.2937494998
 20
246.2473169486
 30
0.0
 10
166.0820686453
 20
244.9930149749
 30
0.0
 10
165.2101394999
 20
244.0093046812
 30
0.0
  0
SPLINE
  5
4E8
100
AcDbEntity
  8
0
100
AcDbSpline
 62
7
  6
CONTINUOUS
 70
0
 71
3
 72
9
 73
5
 74
0
 42
0.0000001
 43
0.0000001
 44
0.0000000001
 40
0.0
 40
0.0
 40
0.0
 40
0.0
 40
0.2304480642
 40
1.0
 40
1.0
 40
1.0
 40
1.0
 10
169.0945139292
 20
248.1617729293
 30
0.0
 10
169.0940485115
 20
248.1229229169
 30
0.0
 10
169.0726884267
 20
247.9546428481
 30
0.0
 10
168.9856621506
 20
247.7989932437
 30
0.0
 10
168.9007165408
 20
247.7009231565
 30
0.0
  0
SPLINE
  5
4E9
100
AcDbEntity
  8
0
100
AcDbSpline
 62
7
  6
CONTINUOUS
 70
0
 71
3
 72
9
 73
5
 74
0
 42
0.0000001
 43
0.0000001
 44
0.0000000001
 40
0.0
 40
0.0
 40
0.0
 40
0.0
 40
0.5003106392
 40
1.0
 40
1.0
 40
1.0
 40
1.0
 10
151.257791336
 20
204.9093428128
 30
0.0
 10
151.2664521565
 20
204.6434853405
 30
0.0
 10
151.4508962061
 20
204.1223167736
 30
0.0
 10
151.8112116931
 20
203.7027648232
 30
0.0
 10
152.0374217173
 20
203.5634500221
 30
0.0
  0
SPLINE
  5
4EA
100
AcDbEntity
  8
0
100
AcDbSpline
 62
7
  6
CONTINUOUS
 70
0
 71
3
 72
9
 73
5
 74
0
 42
0.0000001
 43
0.0000001
 44
0.0000000001
 40
0.0
 40
0.0
 40
0.0
 40
0.0
 40
0.4993019135
 40
1.0
 40
1.0
 40
1.0
 40
1.0
 10
149.6908000993
 20
204.0046454008
 30
0.0
 10
149.6995734372
 20
203.7390621236
 30
0.0
 10
149.8869915529
 20
203.2174297954
 30
0.0
 10
150.2540410758
 20
202.8021471421
 30
0.0
 10
150.4831703651
 20
202.6661079419
 30
0.0
  0
LINE
  5
4EB
100
AcDbEntity
  8
0
100
AcDbLine
 62
7
  6
CONTINUOUS
 10
171.2072261905
 20
277.9764891662
 11
171.3140286269
 21
277.8822865849
  0
SPLINE
  5
4EC
100
AcDbEntity
  8
0
100
AcDbSpline
 62
7
  6
CONTINUOUS
 70
0
 71
3
 72
8
 73
4
 74
0
 42
0.0000001
 43
0.0000001
 44
0.0000000001
 40
0.0
 40
0.0
 40
0.0
 40
0.0
 40
1.0
 40
1.0
 40
1.0
 40
1.0
 10
163.8370608562
 20
213.5026558465
 30
0.0
 10
163.8788348088
 20
213.4785380275
 30
0.0
 10
163.9227041922
 20
213.4575682123
 30
0.0
 10
163.9681012306
 20
213.4412635744
 30
0.0
  0
SPLINE
  5
4ED
100
AcDbEntity
  8
0
100
AcDbSpline
 62
7
  6
CONTINUOUS
 70
0
 71
3
 72
8
 73
4
 74
0
 42
0.0000001
 43
0.0000001
 44
0.0000000001
 40
0.0
 40
0.0
 40
0.0
 40
0.0
 40
1.0
 40
1.0
 40
1.0
 40
1.0
 10
163.9681012306
 20
213.4412635744
 30
0.0
 10
164.0113754841
 20
213.4257213483
 30
0.0
 10
164.0565570629
 20
213.4142425697
 30
0.0
 10
164.1022563975
 20
213.4091639258
 30
0.0
  0
SPLINE
  5
4EE
100
AcDbEntity
  8
0
100
AcDbSpline
 62
7
  6
CONTINUOUS
 70
0
 71
3
 72
9
 73
5
 74
0
 42
0.0000001
 43
0.0000001
 44
0.0000000001
 40
0.0
 40
0.0
 40
0.0
 40
0.0
 40
0.50000125
 40
1.0
 40
1.0
 40
1.0
 40
1.0
 10
133.7848998556
 20
231.6693891263
 30
0.0
 10
133.7849002897
 20
231.4270405254
 30
0.0
 10
133.9505217327
 20
230.9485122967
 30
0.0
 10
134.2821308528
 20
230.5658166695
 30
0.0
 10
134.4920110137
 20
230.4446449935
 30
0.0
  0
SPLINE
  5
4EF
100
AcDbEntity
  8
0
100
AcDbSpline
 62
7
  6
CONTINUOUS
 70
0
 71
3
 72
9
 73
5
 74
0
 42
0.0000001
 43
0.0000001
 44
0.0000000001
 40
0.0
 40
0.0
 40
0.0
 40
0.0
 40
0.2446995496
 40
1.0
 40
1.0
 40
1.0
 40
1.0
 10
172.6881536053
 20
108.7623092614
 30
0.0
 10
172.2722405268
 20
109.7904450292
 30
0.0
 10
170.6411619047
 20
114.0196442179
 30
0.0
 10
169.2804935404
 20
118.3519577921
 30
0.0
 10
168.3938872669
 20
121.6584731582
 30
0.0
  0
SPLINE
  5
4F0
100
AcDbEntity
  8
0
100
AcDbSpline
 62
7
  6
CONTINUOUS
 70
0
 71
3
 72
9
 73
5
 74
0
 42
0.0000001
 43
0.0000001
 44
0.0000000001
 40
0.0
 40
0.0
 40
0.0
 40
0.0
 40
0.2562010782
 40
1.0
 40
1.0
 40
1.0
 40
1.0
 10
168.2771696062
 20
121.5873828376
 30
0.0
 10
168.5789746399
 20
120.4686169867
 30
0.0
 10
169.8278146012
 20
116.1214987541
 30
0.0
 10
171.3670983229
 20
111.856162434
 30
0.0
 10
172.6881536053
 20
108.7623092614
 30
0.0
  0
SPLINE
  5
4F1
100
AcDbEntity
  8
0
100
AcDbSpline
 62
7
  6
CONTINUOUS
 70
0
 71
3
 72
16
 73
12
 74
0
 42
0.0000001
 43
0.0000001
 44
0.0000000001
 40
0.0
 40
0.0
 40
0.0
 40
0.0
 40
0.1295444325
 40
0.2721564451
 40
0.4201902247
 40
0.5649278684
 40
0.698291641
 40
0.8145724067
 40
0.9127549876
 40
0.9570687084
 40
1.0
 40
1.0
 40
1.0
 40
1.0
 10
149.1645368411
 20
249.3710221108
 30
0.0
 10
150.0293150547
 20
248.8717534714
 30
0.0
 10
151.7061466547
 20
247.5756441683
 30
0.0
 10
153.8435440066
 20
245.121346384
 30
0.0
 10
155.5903457414
 20
242.2363229614
 30
0.0
 10
156.7981280069
 20
239.1636113966
 30
0.0
 10
157.3648765274
 20
236.1544775732
 30
0.0
 10
157.2450008572
 20
233.4472012171
 30
0.0
 10
156.5028198848
 20
231.53214273
 30
0.0
 10
155.5449439648
 20
230.4529225263
 30
0.0
 10
154.977937875
 20
230.0748134047
 30
0.0
 10
154.680914912
 20
229.9289115846
 30
0.0
  0
SPLINE
  5
4F2
100
AcDbEntity
  8
0
100
AcDbSpline
 62
7
  6
CONTINUOUS
 70
0
 71
3
 72
9
 73
5
 74
0
 42
0.0000001
 43
0.0000001
 44
0.0000000001
 40
0.0
 40
0.0
 40
0.0
 40
0.0
 40
0.2444788414
 40
1.0
 40
1.0
 40
1.0
 40
1.0
 10
148.0708040816
 20
230.1869960103
 30
0.0
 10
147.9920029986
 20
230.2324908076
 30
0.0
 10
147.6721133323
 20
230.4227766335
 30
0.0
 10
147.361893788
 20
230.6292042977
 30
0.0
 10
147.1331213891
 20
230.7927055912
 30
0.0
  0
SPLINE
  5
4F3
100
AcDbEntity
  8
0
100
AcDbSpline
 62
7
  6
CONTINUOUS
 70
0
 71
3
 72
11
 73
7
 74
0
 42
0.0000001
 43
0.0000001
 44
0.0000000001
 40
0.0
 40
0.0
 40
0.0
 40
0.0
 40
0.244235733
 40
0.5069937175
 40
0.7659955775
 40
1.0
 40
1.0
 40
1.0
 40
1.0
 10
147.1331213891
 20
230.7927055912
 30
0.0
 10
146.1152623417
 20
231.5201590414
 30
0.0
 10
144.2193889462
 20
233.3402313163
 30
0.0
 10
142.0186888187
 20
236.6194438451
 30
0.0
 10
140.5397254074
 20
240.2245548251
 30
0.0
 10
140.1241940574
 20
242.7521717256
 30
0.0
 10
140.1241940574
 20
243.9508519139
 30
0.0
  0
SPLINE
  5
4F4
100
AcDbEntity
  8
0
100
AcDbSpline
 62
7
  6
CONTINUOUS
 70
0
 71
3
 72
9
 73
5
 74
0
 42
0.0000001
 43
0.0000001
 44
0.0000000001
 40
0.0
 40
0.0
 40
0.0
 40
0.0
 40
0.5436279737
 40
1.0
 40
1.0
 40
1.0
 40
1.0
 10
156.0174141058
 20
234.7751046238
 30
0.0
 10
156.0174141058
 20
233.8980060492
 30
0.0
 10
155.8296493049
 20
232.2685579164
 30
0.0
 10
155.0260012297
 20
230.7944916121
 30
0.0
 10
154.5103845066
 20
230.2688452382
 30
0.0
  0
SPLINE
  5
4F5
100
AcDbEntity
  8
0
100
AcDbSpline
 62
7
  6
CONTINUOUS
 70
0
 71
3
 72
9
 73
5
 74
0
 42
0.0000001
 43
0.0000001
 44
0.0000000001
 40
0.0
 40
0.0
 40
0.0
 40
0.0
 40
0.2531087453
 40
1.0
 40
1.0
 40
1.0
 40
1.0
 10
154.5103845066
 20
230.2688452382
 30
0.0
 10
154.443328676
 20
230.2004850539
 30
0.0
 10
154.1689764886
 20
229.9398395813
 30
0.0
 10
153.8560738975
 20
229.7195384282
 30
0.0
 10
153.6078752888
 20
229.5844717185
 30
0.0
  0
SPLINE
  5
4F6
100
AcDbEntity
  8
0
100
AcDbSpline
 62
7
  6
CONTINUOUS
 70
0
 71
3
 72
9
 73
5
 74
0
 42
0.0000001
 43
0.0000001
 44
0.0000000001
 40
0.0
 40
0.0
 40
0.0
 40
0.0
 40
0.7463353161
 40
1.0
 40
1.0
 40
1.0
 40
1.0
 10
153.6078752888
 20
229.5844717185
 30
0.0
 10
153.3692052425
 20
229.4545903383
 30
0.0
 10
153.0287277764
 20
229.3153389342
 30
0.0
 10
152.6759000733
 20
229.225237094
 30
0.0
 10
152.5857066263
 20
229.2053831587
 30
0.0
  0
SPLINE
  5
4F7
100
AcDbEntity
  8
0
100
AcDbSpline
 62
7
  6
CONTINUOUS
 70
0
 71
3
 72
9
 73
5
 74
0
 42
0.0000001
 43
0.0000001
 44
0.0000000001
 40
0.0
 40
0.0
 40
0.0
 40
0.0
 40
0.243020459
 40
1.0
 40
1.0
 40
1.0
 40
1.0
 10
152.5857066263
 20
229.2053831587
 30
0.0
 10
152.4863590791
 20
229.1835141666
 30
0.0
 10
152.0742851673
 20
229.1085962966
 30
0.0
 10
151.6520044931
 20
229.0942596456
 30
0.0
 10
151.3356536346
 20
229.1122925968
 30
0.0
  0
SPLINE
  5
4F8
100
AcDbEntity
  8
0
100
AcDbSpline
 62
7
  6
CONTINUOUS
 70
0
 71
3
 72
9
 73
5
 74
0
 42
0.0000001
 43
0.0000001
 44
0.0000000001
 40
0.0
 40
0.0
 40
0.0
 40
0.0
 40
0.2334813473
 40
1.0
 40
1.0
 40
1.0
 40
1.0
 10
151.3356536346
 20
229.1122925968
 30
0.0
 10
151.1380123456
 20
229.1235587452
 30
0.0
 10
150.2942000254
 20
229.2196801715
 30
0.0
 10
149.4769757556
 20
229.4943124144
 30
0.0
 10
148.8860938731
 20
229.7649422609
 30
0.0
  0
SPLINE
  5
4F9
100
AcDbEntity
  8
0
100
AcDbSpline
 62
7
  6
CONTINUOUS
 70
0
 71
3
 72
9
 73
5
 74
0
 42
0.0000001
 43
0.0000001
 44
0.0000000001
 40
0.0
 40
0.0
 40
0.0
 40
0.0
 40
0.2452262743
 40
1.0
 40
1.0
 40
1.0
 40
1.0
 10
148.8860938731
 20
229.7649422609
 30
0.0
 10
148.817851527
 20
229.796197942
 30
0.0
 10
148.5411602951
 20
229.9271123949
 30
0.0
 10
148.2708772237
 20
230.071486341
 30
0.0
 10
148.0708040816
 20
230.1869960103
 30
0.0
  0
SPLINE
  5
4FA
100
AcDbEntity
  8
0
100
AcDbSpline
 62
7
  6
CONTINUOUS
 70
0
 71
3
 72
11
 73
7
 74
0
 42
0.0000001
 43
0.0000001
 44
0.0000000001
 40
0.0
 40
0.0
 40
0.0
 40
0.0
 40
0.2847871874
 40
0.5446374816
 40
0.7810557391
 40
1.0
 40
1.0
 40
1.0
 40
1.0
 10
148.2034185883
 20
248.755662687
 30
0.0
 10
147.7776514951
 20
249.0014738718
 30
0.0
 10
146.9294048127
 20
249.4168891303
 30
0.0
 10
145.6286577443
 20
249.8001909994
 30
0.0
 10
144.3880090782
 20
249.9004026705
 30
0.0
 10
143.6022305563
 20
249.7664548825
 30
0.0
 10
143.2425528708
 20
249.6503090349
 30
0.0
  0
SPLINE
  5
4FB
100
AcDbEntity
  8
0
100
AcDbSpline
 62
7
  6
CONTINUOUS
 70
0
 71
3
 72
8
 73
4
 74
0
 42
0.0000001
 43
0.0000001
 44
0.0000000001
 40
0.0
 40
0.0
 40
0.0
 40
0.0
 40
1.0
 40
1.0
 40
1.0
 40
1.0
 10
143.2425528708
 20
249.6503090349
 30
0.0
 10
142.9076015737
 20
249.5421477453
 30
0.0
 10
142.5841427117
 20
249.3871998995
 30
0.0
 10
142.2912653932
 20
249.1919715402
 30
0.0
  0
SPLINE
  5
4FC
100
AcDbEntity
  8
0
100
AcDbSpline
 62
7
  6
CONTINUOUS
 70
0
 71
3
 72
11
 73
7
 74
0
 42
0.0000001
 43
0.0000001
 44
0.0000000001
 40
0.0
 40
0.0
 40
0.0
 40
0.0
 40
0.2372383316
 40
0.5000010919
 40
0.7627632579
 40
1.0
 40
1.0
 40
1.0
 40
1.0
 10
156.271390968
 20
234.7816021844
 30
0.0
 10
156.271390968
 20
236.1042106715
 30
0.0
 10
155.7753092622
 20
238.8935242583
 30
0.0
 10
154.0462787057
 20
242.8130104479
 30
0.0
 10
151.516408983
 20
246.2701192892
 30
0.0
 10
149.348829941
 20
248.0943740945
 30
0.0
 10
148.2034185883
 20
248.755662687
 30
0.0
  0
SPLINE
  5
4FD
100
AcDbEntity
  8
0
100
AcDbSpline
 62
7
  6
CONTINUOUS
 70
0
 71
3
 72
11
 73
7
 74
0
 42
0.0000001
 43
0.0000001
 44
0.0000000001
 40
0.0
 40
0.0
 40
0.0
 40
0.0
 40
0.2372367421
 40
0.4999989081
 40
0.7627616684
 40
1.0
 40
1.0
 40
1.0
 40
1.0
 10
148.0708040816
 20
248.5389605273
 30
0.0
 10
149.1989856009
 20
247.8876193587
 30
0.0
 10
151.3339588672
 20
246.0908058794
 30
0.0
 10
153.8257730618
 20
242.6857005469
 30
0.0
 10
155.5287947017
 20
238.8251731705
 30
0.0
 10
156.0174141058
 20
236.0778177923
 30
0.0
 10
156.0174141058
 20
234.7751046238
 30
0.0
  0
SPLINE
  5
4FE
100
AcDbEntity
  8
0
100
AcDbSpline
 62
7
  6
CONTINUOUS
 70
0
 71
3
 72
11
 73
7
 74
0
 42
0.0000001
 43
0.0000001
 44
0.0000000001
 40
0.0
 40
0.0
 40
0.0
 40
0.0
 40
0.2888400792
 40
0.5481917762
 40
0.7818627311
 40
1.0
 40
1.0
 40
1.0
 40
1.0
 10
140.1243850293
 20
244.0140125743
 30
0.0
 10
140.1277323994
 20
244.5667331256
 30
0.0
 10
140.2163334699
 20
245.6186455399
 30
0.0
 10
140.6421085649
 20
247.0661043761
 30
0.0
 10
141.350768169
 20
248.2482119675
 30
0.0
 10
142.0148401512
 20
248.8297486152
 30
0.0
 10
142.3709691084
 20
249.0475141876
 30
0.0
  0
SPLINE
  5
4FF
100
AcDbEntity
  8
0
100
AcDbSpline
 62
7
  6
CONTINUOUS
 70
0
 71
3
 72
9
 73
5
 74
0
 42
0.0000001
 43
0.0000001
 44
0.0000000001
 40
0.0
 40
0.0
 40
0.0
 40
0.0
 40
0.746891189
 40
1.0
 40
1.0
 40
1.0
 40
1.0
 10
142.3709691084
 20
249.0475141876
 30
0.0
 10
142.612040909
 20
249.1949246624
 30
0.0
 10
142.9592799396
 20
249.3557522174
 30
0.0
 10
143.3221824104
 20
249.4630220594
 30
0.0
 10
143.4149121712
 20
249.4869131682
 30
0.0
  0
SPLINE
  5
500
100
AcDbEntity
  8
0
100
AcDbSpline
 62
7
  6
CONTINUOUS
 70
0
 71
3
 72
9
 73
5
 74
0
 42
0.0000001
 43
0.0000001
 44
0.0000000001
 40
0.0
 40
0.0
 40
0.0
 40
0.0
 40
0.4563734467
 40
1.0
 40
1.0
 40
1.0
 40
1.0
 10
143.4149121712
 20
249.4869131682
 30
0.0
 10
144.1279221591
 20
249.6706147012
 30
0.0
 10
145.8062615966
 20
249.6295633756
 30
0.0
 10
147.3112391595
 20
248.9774856187
 30
0.0
 10
148.0708040816
 20
248.5389605273
 30
0.0
  0
SPLINE
  5
501
100
AcDbEntity
  8
0
100
AcDbSpline
 62
7
  6
CONTINUOUS
 70
0
 71
3
 72
15
 73
11
 74
0
 42
0.0000001
 43
0.0000001
 44
0.0000000001
 40
0.0
 40
0.0
 40
0.0
 40
0.0
 40
0.144849247
 40
0.2745405333
 40
0.3911050119
 40
0.4999980159
 40
0.6088913802
 40
0.7254568164
 40
0.8551493928
 40
1.0
 40
1.0
 40
1.0
 40
1.0
 10
147.679618783
 20
244.1167165579
 30
0.0
 10
147.412014265
 20
244.2712146032
 30
0.0
 10
146.8796252057
 20
244.52444816
 30
0.0
 10
146.0615470444
 20
244.7221347697
 30
0.0
 10
145.2932843327
 20
244.7024110208
 30
0.0
 10
144.6095328596
 20
244.4546415044
 30
0.0
 10
144.053092831
 20
243.9863648445
 30
0.0
 10
143.6518910292
 20
243.3308789367
 30
0.0
 10
143.4140638058
 20
242.5235483757
 30
0.0
 10
143.3671820502
 20
241.9358630979
 30
0.0
 10
143.3671820502
 20
241.6268588628
 30
0.0
  0
SPLINE
  5
502
100
AcDbEntity
  8
0
100
AcDbSpline
 62
7
  6
CONTINUOUS
 70
0
 71
3
 72
11
 73
7
 74
0
 42
0.0000001
 43
0.0000001
 44
0.0000000001
 40
0.0
 40
0.0
 40
0.0
 40
0.0
 40
0.2372383316
 40
0.5000010919
 40
0.7627632579
 40
1.0
 40
1.0
 40
1.0
 40
1.0
 10
151.9920555158
 20
236.6473984962
 30
0.0
 10
151.9920555158
 20
237.3543500269
 30
0.0
 10
151.7268933573
 20
238.8452746117
 30
0.0
 10
150.8027039162
 20
240.9402912308
 30
0.0
 10
149.4504554692
 20
242.7881611111
 30
0.0
 10
148.2918561283
 20
243.7632491583
 30
0.0
 10
147.679618783
 20
244.1167165579
 30
0.0
  0
SPLINE
  5
503
100
AcDbEntity
  8
0
100
AcDbSpline
 62
7
  6
CONTINUOUS
 70
0
 71
3
 72
15
 73
11
 74
0
 42
0.0000001
 43
0.0000001
 44
0.0000000001
 40
0.0
 40
0.0
 40
0.0
 40
0.0
 40
0.144849247
 40
0.2745405333
 40
0.3911050119
 40
0.4999980159
 40
0.6088913802
 40
0.7254568164
 40
0.8551493928
 40
1.0
 40
1.0
 40
1.0
 40
1.0
 10
147.679618783
 20
234.1575408011
 30
0.0
 10
147.947223301
 20
234.0030427558
 30
0.0
 10
148.4796123603
 20
233.749809199
 30
0.0
 10
149.2976905216
 20
233.5521225893
 30
0.0
 10
150.0659532333
 20
233.5718463383
 30
0.0
 10
150.7497047064
 20
233.8196158546
 30
0.0
 10
151.306144735
 20
234.2878925145
 30
0.0
 10
151.7073465368
 20
234.9433784224
 30
0.0
 10
151.9451737602
 20
235.7507089833
 30
0.0
 10
151.9920555158
 20
236.3383942611
 30
0.0
 10
151.9920555158
 20
236.6473984962
 30
0.0
  0
SPLINE
  5
504
100
AcDbEntity
  8
0
100
AcDbSpline
 62
7
  6
CONTINUOUS
 70
0
 71
3
 72
11
 73
7
 74
0
 42
0.0000001
 43
0.0000001
 44
0.0000000001
 40
0.0
 40
0.0
 40
0.0
 40
0.0
 40
0.2372383316
 40
0.5000010919
 40
0.7627632579
 40
1.0
 40
1.0
 40
1.0
 40
1.0
 10
143.3671820502
 20
241.6268588628
 30
0.0
 10
143.3671820502
 20
240.9199073322
 30
0.0
 10
143.6323442087
 20
239.4289827473
 30
0.0
 10
144.5565336497
 20
237.3339661283
 30
0.0
 10
145.9087820967
 20
235.4860962479
 30
0.0
 10
147.0673814377
 20
234.5110082007
 30
0.0
 10
147.679618783
 20
234.1575408011
 30
0.0
  0
SPLINE
  5
505
100
AcDbEntity
  8
0
100
AcDbSpline
 62
7
  6
CONTINUOUS
 70
0
 71
3
 72
10
 73
6
 74
0
 42
0.0000001
 43
0.0000001
 44
0.0000000001
 40
0.0
 40
0.0
 40
0.0
 40
0.0
 40
0.5238401075
 40
0.7718461269
 40
1.0
 40
1.0
 40
1.0
 40
1.0
 10
162.3847910489
 20
184.7022769637
 30
0.0
 10
162.2660777536
 20
184.3456190253
 30
0.0
 10
162.0470794658
 20
183.8277366724
 30
0.0
 10
161.6549787168
 20
183.2343329643
 30
0.0
 10
161.3953432688
 20
182.9813462806
 30
0.0
 10
161.2405900482
 20
182.9279135501
 30
0.0
  0
SPLINE
  5
506
100
AcDbEntity
  8
0
100
AcDbSpline
 62
7
  6
CONTINUOUS
 70
0
 71
3
 72
9
 73
5
 74
0
 42
0.0000001
 43
0.0000001
 44
0.0000000001
 40
0.0
 40
0.0
 40
0.0
 40
0.0
 40
0.4999988717
 40
1.0
 40
1.0
 40
1.0
 40
1.0
 10
321.9808412468
 20
390.7929250931
 30
0.0
 10
322.1907212688
 20
390.6717535472
 30
0.0
 10
322.5223299656
 20
390.2890581808
 30
0.0
 10
322.6879509719
 20
389.8105302191
 30
0.0
 10
322.6879509719
 20
389.5681819215
 30
0.0
  0
SPLINE
  5
507
100
AcDbEntity
  8
0
100
AcDbSpline
 62
7
  6
CONTINUOUS
 70
0
 71
3
 72
9
 73
5
 74
0
 42
0.0000001
 43
0.0000001
 44
0.0000000001
 40
0.0
 40
0.0
 40
0.0
 40
0.0
 40
0.2452245158
 40
1.0
 40
1.0
 40
1.0
 40
1.0
 10
169.6549923675
 20
277.8517668753
 30
0.0
 10
169.6960003037
 20
277.8281317347
 30
0.0
 10
169.8670872859
 20
277.7386125128
 30
0.0
 10
170.0517798208
 20
277.6750753325
 30
0.0
 10
170.194065537
 20
277.6438047477
 30
0.0
  0
SPLINE
  5
508
100
AcDbEntity
  8
0
100
AcDbSpline
 62
7
  6
CONTINUOUS
 70
0
 71
3
 72
9
 73
5
 74
0
 42
0.0000001
 43
0.0000001
 44
0.0000000001
 40
0.0
 40
0.0
 40
0.0
 40
0.0
 40
0.5246137865
 40
1.0
 40
1.0
 40
1.0
 40
1.0
 10
170.194065537
 20
277.6438047477
 30
0.0
 10
170.3700862263
 20
277.6051201204
 30
0.0
 10
170.7162096672
 20
277.5801094004
 30
0.0
 10
171.0633203544
 20
277.6596621688
 30
0.0
 10
171.2049771018
 20
277.7409247304
 30
0.0
  0
SPLINE
  5
509
100
AcDbEntity
  8
0
100
AcDbSpline
 62
7
  6
CONTINUOUS
 70
0
 71
3
 72
9
 73
5
 74
0
 42
0.0000001
 43
0.0000001
 44
0.0000000001
 40
0.0
 40
0.0
 40
0.0
 40
0.0
 40
0.2452562505
 40
1.0
 40
1.0
 40
1.0
 40
1.0
 10
166.1203496083
 20
279.8440525655
 30
0.0
 10
166.4000583392
 20
279.665584218
 30
0.0
 10
167.5506041868
 20
278.9537566717
 30
0.0
 10
168.7405786463
 20
278.3060812695
 30
0.0
 10
169.6549923675
 20
277.8517668753
 30
0.0
  0
SPLINE
  5
50A
100
AcDbEntity
  8
0
100
AcDbSpline
 62
7
  6
CONTINUOUS
 70
0
 71
3
 72
9
 73
5
 74
0
 42
0.0000001
 43
0.0000001
 44
0.0000000001
 40
0.0
 40
0.0
 40
0.0
 40
0.0
 40
0.2385853246
 40
1.0
 40
1.0
 40
1.0
 40
1.0
 10
153.1442817121
 20
288.0832277064
 30
0.0
 10
154.2030863242
 20
287.4719221324
 30
0.0
 10
158.6120632046
 20
284.8598191965
 30
0.0
 10
162.9080311832
 20
282.05876429
 30
0.0
 10
166.1203496083
 20
279.8440525655
 30
0.0
  0
SPLINE
  5
50B
100
AcDbEntity
  8
0
100
AcDbSpline
 62
7
  6
CONTINUOUS
 70
0
 71
3
 72
9
 73
5
 74
0
 42
0.0000001
 43
0.0000001
 44
0.0000000001
 40
0.0
 40
0.0
 40
0.0
 40
0.0
 40
0.2327172406
 40
1.0
 40
1.0
 40
1.0
 40
1.0
 10
141.3667041275
 20
294.1348750691
 30
0.0
 10
142.3068087187
 20
293.7203074624
 30
0.0
 10
146.3157409836
 20
291.8692440273
 30
0.0
 10
150.210556984
 20
289.7770267871
 30
0.0
 10
153.1442817121
 20
288.0832277064
 30
0.0
  0
SPLINE
  5
50C
100
AcDbEntity
  8
0
100
AcDbSpline
 62
7
  6
CONTINUOUS
 70
0
 71
3
 72
9
 73
5
 74
0
 42
0.0000001
 43
0.0000001
 44
0.0000000001
 40
0.0
 40
0.0
 40
0.0
 40
0.0
 40
0.4579860992
 40
1.0
 40
1.0
 40
1.0
 40
1.0
 10
139.2186087116
 20
295.4234792861
 30
0.0
 10
139.5010391384
 20
295.1636054575
 30
0.0
 10
140.1910812223
 20
294.676088282
 30
0.0
 10
140.9475398087
 20
294.3098395303
 30
0.0
 10
141.3667041275
 20
294.1348750691
 30
0.0
  0
SPLINE
  5
50D
100
AcDbEntity
  8
0
100
AcDbSpline
 62
7
  6
CONTINUOUS
 70
0
 71
3
 72
11
 73
7
 74
0
 42
0.0000001
 43
0.0000001
 44
0.0000000001
 40
0.0
 40
0.0
 40
0.0
 40
0.0
 40
0.239830052
 40
0.5000389941
 40
0.760227116
 40
1.0
 40
1.0
 40
1.0
 40
1.0
 10
310.6073738086
 20
403.2875770369
 30
0.0
 10
310.6594224755
 20
402.5432455122
 30
0.0
 10
310.9942872728
 20
401.0051560401
 30
0.0
 10
311.9783008908
 20
398.8385330836
 30
0.0
 10
313.3632777031
 20
396.9037124252
 30
0.0
 10
314.52817225
 20
395.8453366025
 30
0.0
 10
315.1468359715
 20
395.4285293382
 30
0.0
  0
SPLINE
  5
50E
100
AcDbEntity
  8
0
100
AcDbSpline
 62
7
  6
CONTINUOUS
 70
0
 71
3
 72
9
 73
5
 74
0
 42
0.0000001
 43
0.0000001
 44
0.0000000001
 40
0.0
 40
0.0
 40
0.0
 40
0.0
 40
0.4947702993
 40
1.0
 40
1.0
 40
1.0
 40
1.0
 10
308.9384125848
 20
418.2076667721
 30
0.0
 10
309.1242357673
 20
418.1003841347
 30
0.0
 10
309.4253826405
 20
417.7632720729
 30
0.0
 10
309.5842935324
 20
417.3428813599
 30
0.0
 10
309.599692914
 20
417.1243183047
 30
0.0
  0
SPLINE
  5
50F
100
AcDbEntity
  8
0
100
AcDbSpline
 62
7
  6
CONTINUOUS
 70
0
 71
3
 72
9
 73
5
 74
0
 42
0.0000001
 43
0.0000001
 44
0.0000000001
 40
0.0
 40
0.0
 40
0.0
 40
0.0
 40
0.2531312635
 40
1.0
 40
1.0
 40
1.0
 40
1.0
 10
166.1190104239
 20
250.5263162429
 30
0.0
 10
165.2920016049
 20
250.9190443535
 30
0.0
 10
162.0358411838
 20
252.4934533434
 30
0.0
 10
158.8243366625
 20
254.1604846093
 30
0.0
 10
156.4559330801
 20
255.4595174296
 30
0.0
  0
SPLINE
  5
510
100
AcDbEntity
  8
0
100
AcDbSpline
 62
7
  6
CONTINUOUS
 70
0
 71
3
 72
9
 73
5
 74
0
 42
0.0000001
 43
0.0000001
 44
0.0000000001
 40
0.0
 40
0.0
 40
0.0
 40
0.0
 40
0.2564041586
 40
1.0
 40
1.0
 40
1.0
 40
1.0
 10
169.6547079696
 20
249.283722201
 30
0.0
 10
169.3461028004
 20
249.3700138338
 30
0.0
 10
168.1479357049
 20
249.7254440037
 30
0.0
 10
166.9720622515
 20
250.157635918
 30
0.0
 10
166.1190104239
 20
250.5263162429
 30
0.0
  0
SPLINE
  5
511
100
AcDbEntity
  8
0
100
AcDbSpline
 62
7
  6
CONTINUOUS
 70
0
 71
3
 72
9
 73
5
 74
0
 42
0.0000001
 43
0.0000001
 44
0.0000000001
 40
0.0
 40
0.0
 40
0.0
 40
0.0
 40
0.4864618992
 40
1.0
 40
1.0
 40
1.0
 40
1.0
 10
171.2335656094
 20
249.3967476209
 30
0.0
 10
171.0066032886
 20
249.2663730276
 30
0.0
 10
170.4644343883
 20
249.1361733696
 30
0.0
 10
169.9160677412
 20
249.194060982
 30
0.0
 10
169.6547079696
 20
249.283722201
 30
0.0
  0
SPLINE
  5
512
100
AcDbEntity
  8
0
100
AcDbSpline
 62
7
  6
CONTINUOUS
 70
0
 71
3
 72
10
 73
6
 74
0
 42
0.0000001
 43
0.0000001
 44
0.0000000001
 40
0.0
 40
0.0
 40
0.0
 40
0.0
 40
0.4982085779
 40
0.7592286958
 40
1.0
 40
1.0
 40
1.0
 40
1.0
 10
171.629344455
 20
321.7354820584
 30
0.0
 10
170.9028577917
 20
322.2283018623
 30
0.0
 10
169.9999092278
 20
323.2938667968
 30
0.0
 10
169.2682736295
 20
324.8997522092
 30
0.0
 10
169.0757398665
 20
325.7746248836
 30
0.0
 10
169.0450229172
 20
326.1977628507
 30
0.0
  0
SPLINE
  5
513
100
AcDbEntity
  8
0
100
AcDbSpline
 62
7
  6
CONTINUOUS
 70
0
 71
3
 72
9
 73
5
 74
0
 42
0.0000001
 43
0.0000001
 44
0.0000000001
 40
0.0
 40
0.0
 40
0.0
 40
0.0
 40
0.4946188406
 40
1.0
 40
1.0
 40
1.0
 40
1.0
 10
178.7923153785
 20
315.380086658
 30
0.0
 10
178.7905729562
 20
315.8364509129
 30
0.0
 10
178.4928596217
 20
316.7500010542
 30
0.0
 10
177.8872393225
 20
317.4903698574
 30
0.0
 10
177.5013531062
 20
317.7521431908
 30
0.0
  0
SPLINE
  5
514
100
AcDbEntity
  8
0
100
AcDbSpline
 62
7
  6
CONTINUOUS
 70
0
 71
3
 72
11
 73
7
 74
0
 42
0.0000001
 43
0.0000001
 44
0.0000000001
 40
0.0
 40
0.0
 40
0.0
 40
0.0
 40
0.2896636492
 40
0.54912873
 40
0.7822455531
 40
1.0
 40
1.0
 40
1.0
 40
1.0
 10
310.6670826089
 20
404.199730805
 30
0.0
 10
310.6670826089
 20
404.5543590914
 30
0.0
 10
310.7209401465
 20
405.2289239294
 30
0.0
 10
310.9940920187
 20
406.15569877
 30
0.0
 10
311.4539447589
 20
406.9078518213
 30
0.0
 10
311.8860253058
 20
407.2708783746
 30
0.0
 10
312.1168761473
 20
407.404216115
 30
0.0
  0
SPLINE
  5
515
100
AcDbEntity
  8
0
100
AcDbSpline
 62
7
  6
CONTINUOUS
 70
0
 71
3
 72
9
 73
5
 74
0
 42
0.0000001
 43
0.0000001
 44
0.0000000001
 40
0.0
 40
0.0
 40
0.0
 40
0.0
 40
0.2751098351
 40
1.0
 40
1.0
 40
1.0
 40
1.0
 10
139.217871081
 20
266.8560406329
 30
0.0
 10
139.1899513305
 20
266.8835991403
 30
0.0
 10
139.0959049113
 20
266.9903067625
 30
0.0
 10
139.0386577671
 20
267.1344940737
 30
0.0
 10
139.0386071278
 20
267.2378613475
 30
0.0
  0
SPLINE
  5
516
100
AcDbEntity
  8
0
100
AcDbSpline
 62
7
  6
CONTINUOUS
 70
0
 71
3
 72
9
 73
5
 74
0
 42
0.0000001
 43
0.0000001
 44
0.0000000001
 40
0.0
 40
0.0
 40
0.0
 40
0.0
 40
0.2273329219
 40
1.0
 40
1.0
 40
1.0
 40
1.0
 10
208.6884790427
 20
475.8612251138
 30
0.0
 10
208.714361105
 20
475.8761794773
 30
0.0
 10
208.8383956444
 20
475.9256047904
 30
0.0
 10
208.9808076385
 20
475.896972167
 30
0.0
 10
209.0741472814
 20
475.8568516372
 30
0.0
  0
SPLINE
  5
517
100
AcDbEntity
  8
0
100
AcDbSpline
 62
7
  6
CONTINUOUS
 70
0
 71
3
 72
8
 73
4
 74
0
 42
0.0000001
 43
0.0000001
 44
0.0000000001
 40
0.0
 40
0.0
 40
0.0
 40
0.0
 40
1.0
 40
1.0
 40
1.0
 40
1.0
 10
209.0741472814
 20
475.8568516372
 30
0.0
 10
209.1028083697
 20
475.8445321338
 30
0.0
 10
209.1307216276
 20
475.8303604139
 30
0.0
 10
209.1577388326
 20
475.8147623762
 30
0.0
  0
SPLINE
  5
518
100
AcDbEntity
  8
0
100
AcDbSpline
 62
7
  6
CONTINUOUS
 70
0
 71
3
 72
9
 73
5
 74
0
 42
0.0000001
 43
0.0000001
 44
0.0000000001
 40
0.0
 40
0.0
 40
0.0
 40
0.0
 40
0.2681747669
 40
1.0
 40
1.0
 40
1.0
 40
1.0
 10
141.3701699384
 20
264.8147427119
 30
0.0
 10
141.1494488324
 20
264.9631327649
 30
0.0
 10
140.3479116074
 20
265.5462153698
 30
0.0
 10
139.6340947527
 20
266.2614513228
 30
0.0
 10
139.217871081
 20
266.8560406329
 30
0.0
  0
SPLINE
  5
519
100
AcDbEntity
  8
0
100
AcDbSpline
 62
7
  6
CONTINUOUS
 70
0
 71
3
 72
9
 73
5
 74
0
 42
0.0000001
 43
0.0000001
 44
0.0000000001
 40
0.0
 40
0.0
 40
0.0
 40
0.0
 40
0.4566834388
 40
1.0
 40
1.0
 40
1.0
 40
1.0
 10
60.4421020778
 20
386.873570117
 30
0.0
 10
60.2037302509
 20
386.7359469242
 30
0.0
 10
59.5754193696
 20
386.6108808813
 30
0.0
 10
58.9843347899
 20
386.8008345642
 30
0.0
 10
58.688696151
 20
386.9416512981
 30
0.0
  0
SPLINE
  5
51A
100
AcDbEntity
  8
0
100
AcDbSpline
 62
7
  6
CONTINUOUS
 70
0
 71
3
 72
9
 73
5
 74
0
 42
0.0000001
 43
0.0000001
 44
0.0000000001
 40
0.0
 40
0.0
 40
0.0
 40
0.0
 40
0.2535485839
 40
1.0
 40
1.0
 40
1.0
 40
1.0
 10
149.9149276536
 20
259.2358832406
 30
0.0
 10
149.1778610241
 20
259.6839109378
 30
0.0
 10
146.284608378
 20
261.4734252165
 30
0.0
 10
143.4486414599
 20
263.355857279
 30
0.0
 10
141.3701699384
 20
264.8147427119
 30
0.0
  0
SPLINE
  5
51B
100
AcDbEntity
  8
0
100
AcDbSpline
 62
7
  6
CONTINUOUS
 70
0
 71
3
 72
10
 73
6
 74
0
 42
0.0000001
 43
0.0000001
 44
0.0000000001
 40
0.0
 40
0.0
 40
0.0
 40
0.0
 40
0.7541497713
 40
0.9355994928
 40
1.0
 40
1.0
 40
1.0
 40
1.0
 10
195.0451688997
 20
95.8549620313
 30
0.0
 10
195.0456163662
 20
95.8303302288
 30
0.0
 10
195.0438958238
 20
95.7978204305
 30
0.0
 10
195.049146431
 20
95.7682720809
 30
0.0
 10
195.0474900013
 20
95.7582788758
 30
0.0
 10
195.0492387723
 20
95.7571093997
 30
0.0
  0
SPLINE
  5
51C
100
AcDbEntity
  8
0
100
AcDbSpline
 62
7
  6
CONTINUOUS
 70
0
 71
3
 72
9
 73
5
 74
0
 42
0.0000001
 43
0.0000001
 44
0.0000000001
 40
0.0
 40
0.0
 40
0.0
 40
0.0
 40
0.28096611
 40
1.0
 40
1.0
 40
1.0
 40
1.0
 10
195.0169829238
 20
96.0085410112
 30
0.0
 10
195.0215322241
 20
95.9946101463
 30
0.0
 10
195.0362979237
 20
95.9446510535
 30
0.0
 10
195.0453815082
 20
95.8924654039
 30
0.0
 10
195.0451688997
 20
95.8549620313
 30
0.0
  0
SPLINE
  5
51D
100
AcDbEntity
  8
0
100
AcDbSpline
 62
7
  6
CONTINUOUS
 70
0
 71
3
 72
11
 73
7
 74
0
 42
0.0000001
 43
0.0000001
 44
0.0000000001
 40
0.0
 40
0.0
 40
0.0
 40
0.0
 40
0.2012703903
 40
0.4199496391
 40
0.6828490777
 40
1.0
 40
1.0
 40
1.0
 40
1.0
 10
193.8727986131
 20
101.8699223563
 30
0.0
 10
193.7940738138
 20
101.8244722859
 30
0.0
 10
193.6505291153
 20
101.6872138205
 30
0.0
 10
193.5492950782
 20
101.3870212038
 30
0.0
 10
193.549219802
 20
101.0225428447
 30
0.0
 10
193.6041582367
 20
100.7648310657
 30
0.0
 10
193.6435148137
 20
100.6271044287
 30
0.0
  0
SPLINE
  5
51E
100
AcDbEntity
  8
0
100
AcDbSpline
 62
7
  6
CONTINUOUS
 70
0
 71
3
 72
11
 73
7
 74
0
 42
0.0000001
 43
0.0000001
 44
0.0000000001
 40
0.0
 40
0.0
 40
0.0
 40
0.0
 40
0.2896636492
 40
0.54912873
 40
0.7822455531
 40
1.0
 40
1.0
 40
1.0
 40
1.0
 10
197.5295265854
 20
469.5182515282
 30
0.0
 10
197.5295265854
 20
469.8728798147
 30
0.0
 10
197.583384123
 20
470.5474446526
 30
0.0
 10
197.8565359952
 20
471.4742194933
 30
0.0
 10
198.3163887354
 20
472.2263725446
 30
0.0
 10
198.7484692823
 20
472.5893990978
 30
0.0
 10
198.9793201238
 20
472.7227368382
 30
0.0
  0
SPLINE
  5
51F
100
AcDbEntity
  8
0
100
AcDbSpline
 62
7
  6
CONTINUOUS
 70
0
 71
3
 72
9
 73
5
 74
0
 42
0.0000001
 43
0.0000001
 44
0.0000000001
 40
0.0
 40
0.0
 40
0.0
 40
0.0
 40
0.5508447784
 40
1.0
 40
1.0
 40
1.0
 40
1.0
 10
313.4955238601
 20
409.9152887419
 30
0.0
 10
313.4955238601
 20
410.2018233111
 30
0.0
 10
313.565018224
 20
410.7341683276
 30
0.0
 10
313.9145037075
 20
411.1718595187
 30
0.0
 10
314.116923316
 20
411.2885351739
 30
0.0
  0
SPLINE
  5
520
100
AcDbEntity
  8
0
100
AcDbSpline
 62
7
  6
CONTINUOUS
 70
0
 71
3
 72
9
 73
5
 74
0
 42
0.0000001
 43
0.0000001
 44
0.0000000001
 40
0.0
 40
0.0
 40
0.0
 40
0.0
 40
0.5508447784
 40
1.0
 40
1.0
 40
1.0
 40
1.0
 10
200.3579678366
 20
475.2338094651
 30
0.0
 10
200.3579678366
 20
475.5203440344
 30
0.0
 10
200.4274622005
 20
476.0526890508
 30
0.0
 10
200.7769476839
 20
476.490380242
 30
0.0
 10
200.9793672925
 20
476.6070558971
 30
0.0
  0
SPLINE
  5
521
100
AcDbEntity
  8
0
100
AcDbSpline
 62
7
  6
CONTINUOUS
 70
0
 71
3
 72
9
 73
5
 74
0
 42
0.0000001
 43
0.0000001
 44
0.0000000001
 40
0.0
 40
0.0
 40
0.0
 40
0.0
 40
0.7572492555
 40
1.0
 40
1.0
 40
1.0
 40
1.0
 10
165.2101394999
 20
244.0093062706
 30
0.0
 10
165.0908961349
 20
243.8996585658
 30
0.0
 10
164.8902414199
 20
243.7898782042
 30
0.0
 10
164.6755897226
 20
243.770239665
 30
0.0
 10
164.6237054199
 20
243.7724135864
 30
0.0
  0
SPLINE
  5
522
100
AcDbEntity
  8
0
100
AcDbSpline
 62
7
  6
CONTINUOUS
 70
0
 71
3
 72
9
 73
5
 74
0
 42
0.0000001
 43
0.0000001
 44
0.0000000001
 40
0.0
 40
0.0
 40
0.0
 40
0.0
 40
0.2577650625
 40
1.0
 40
1.0
 40
1.0
 40
1.0
 10
164.6237054199
 20
190.3488219514
 30
0.0
 10
164.3231788623
 20
190.4147974235
 30
0.0
 10
163.1627150013
 20
190.6943509827
 30
0.0
 10
162.0243901733
 20
191.0697623873
 30
0.0
 10
161.2059566909
 20
191.4090517728
 30
0.0
  0
SPLINE
  5
523
100
AcDbEntity
  8
0
100
AcDbSpline
 62
7
  6
CONTINUOUS
 70
0
 71
3
 72
9
 73
5
 74
0
 42
0.0000001
 43
0.0000001
 44
0.0000000001
 40
0.0
 40
0.0
 40
0.0
 40
0.0
 40
0.2372653871
 40
1.0
 40
1.0
 40
1.0
 40
1.0
 10
165.2101394999
 20
190.3969773288
 30
0.0
 10
165.1671079428
 20
190.3782124634
 30
0.0
 10
164.9781691884
 20
190.3174786324
 30
0.0
 10
164.7710892095
 20
190.3163726392
 30
0.0
 10
164.6237054199
 20
190.3488219514
 30
0.0
  0
SPLINE
  5
524
100
AcDbEntity
  8
0
100
AcDbSpline
 62
7
  6
CONTINUOUS
 70
0
 71
3
 72
15
 73
11
 74
0
 42
0.0000001
 43
0.0000001
 44
0.0000000001
 40
0.0
 40
0.0
 40
0.0
 40
0.0
 40
0.135461843
 40
0.2807357135
 40
0.4256536689
 40
0.5613445754
 40
0.6782002986
 40
0.7863009503
 40
0.8897769075
 40
1.0
 40
1.0
 40
1.0
 40
1.0
 10
164.0803695499
 20
97.4157930155
 30
0.0
 10
163.3546372237
 20
96.9967937626
 30
0.0
 10
161.7168065586
 20
96.3406344298
 30
0.0
 10
159.0526240586
 20
96.1161173437
 30
0.0
 10
156.4417669255
 20
96.7045712432
 30
0.0
 10
154.274900264
 20
97.9363028303
 30
0.0
 10
152.6741327082
 20
99.5214121251
 30
0.0
 10
151.5910444976
 20
101.2608270754
 30
0.0
 10
150.9262713106
 20
103.1524562821
 30
0.0
 10
150.7726534604
 20
104.479628073
 30
0.0
 10
150.7726534604
 20
105.1614968434
 30
0.0
  0
SPLINE
  5
525
100
AcDbEntity
  8
0
100
AcDbSpline
 62
7
  6
CONTINUOUS
 70
0
 71
3
 72
16
 73
12
 74
0
 42
0.0000001
 43
0.0000001
 44
0.0000000001
 40
0.0
 40
0.0
 40
0.0
 40
0.0
 40
0.1233893094
 40
0.2561798015
 40
0.3892506472
 40
0.5125434167
 40
0.6222540173
 40
0.7203285446
 40
0.8117172426
 40
0.9022055939
 40
1.0
 40
1.0
 40
1.0
 40
1.0
 10
155.2956564408
 20
112.631453275
 30
0.0
 10
155.9417642429
 20
113.0044815618
 30
0.0
 10
157.3893634801
 20
113.6091241574
 30
0.0
 10
159.7524516895
 20
113.9151653117
 30
0.0
 10
162.1102507944
 20
113.5638623721
 30
0.0
 10
164.1578130231
 20
112.660266277
 30
0.0
 10
165.7537750614
 20
111.4226456318
 30
0.0
 10
166.9168741866
 20
110.0204592018
 30
0.0
 10
167.7218322994
 20
108.5193022205
 30
0.0
 10
168.2250066507
 20
106.8948437853
 30
0.0
 10
168.3421583351
 20
105.7527999838
 30
0.0
 10
168.3421583351
 20
105.1614968434
 30
0.0
  0
SPLINE
  5
526
100
AcDbEntity
  8
0
100
AcDbSpline
 62
7
  6
CONTINUOUS
 70
0
 71
3
 72
15
 73
11
 74
0
 42
0.0000001
 43
0.0000001
 44
0.0000000001
 40
0.0
 40
0.0
 40
0.0
 40
0.0
 40
0.135461843
 40
0.2807357135
 40
0.4256536689
 40
0.5613445754
 40
0.6782002986
 40
0.7863009503
 40
0.8897769075
 40
1.0
 40
1.0
 40
1.0
 40
1.0
 10
155.1874585261
 20
112.8188586793
 30
0.0
 10
155.9131908523
 20
113.2378579321
 30
0.0
 10
157.5510215174
 20
113.8940172649
 30
0.0
 10
160.2152040174
 20
114.118534351
 30
0.0
 10
162.8260611505
 20
113.5300804515
 30
0.0
 10
164.9929278119
 20
112.2983488644
 30
0.0
 10
166.5936953678
 20
110.7132395696
 30
0.0
 10
167.6767835784
 20
108.9738246193
 30
0.0
 10
168.3415567654
 20
107.0821954126
 30
0.0
 10
168.4951746156
 20
105.7550236217
 30
0.0
 10
168.4951746156
 20
105.0731548513
 30
0.0
  0
SPLINE
  5
527
100
AcDbEntity
  8
0
100
AcDbSpline
 62
7
  6
CONTINUOUS
 70
0
 71
3
 72
16
 73
12
 74
0
 42
0.0000001
 43
0.0000001
 44
0.0000000001
 40
0.0
 40
0.0
 40
0.0
 40
0.0
 40
0.1233893094
 40
0.2561798015
 40
0.3892506472
 40
0.5125434167
 40
0.6222540173
 40
0.7203285446
 40
0.8117172426
 40
0.9022055939
 40
1.0
 40
1.0
 40
1.0
 40
1.0
 10
163.9721716352
 20
97.6031984197
 30
0.0
 10
163.3260638331
 20
97.2301701329
 30
0.0
 10
161.8784645959
 20
96.6255275373
 30
0.0
 10
159.5153763865
 20
96.319486383
 30
0.0
 10
157.1575772815
 20
96.6707893226
 30
0.0
 10
155.1100150528
 20
97.5743854177
 30
0.0
 10
153.5140530146
 20
98.8120060629
 30
0.0
 10
152.3509538894
 20
100.2141924929
 30
0.0
 10
151.5459957766
 20
101.7153494742
 30
0.0
 10
151.0428214253
 20
103.3398079094
 30
0.0
 10
150.9256697409
 20
104.4818517109
 30
0.0
 10
150.9256697409
 20
105.0731548513
 30
0.0
  0
SPLINE
  5
528
100
AcDbEntity
  8
0
100
AcDbSpline
 62
7
  6
CONTINUOUS
 70
0
 71
3
 72
15
 73
11
 74
0
 42
0.0000001
 43
0.0000001
 44
0.0000000001
 40
0.0
 40
0.0
 40
0.0
 40
0.0
 40
0.135461843
 40
0.2807357135
 40
0.4256536689
 40
0.5613445754
 40
0.6782002986
 40
0.7863009503
 40
0.8897769075
 40
1.0
 40
1.0
 40
1.0
 40
1.0
 10
190.2434293803
 20
92.9254165209
 30
0.0
 10
189.5176970541
 20
92.5064172681
 30
0.0
 10
187.8798663891
 20
91.8502579353
 30
0.0
 10
185.2156838891
 20
91.6257408492
 30
0.0
 10
182.6048267559
 20
92.2141947487
 30
0.0
 10
180.4379600945
 20
93.4459263357
 30
0.0
 10
178.8371925387
 20
95.0310356305
 30
0.0
 10
177.754104328
 20
96.7704505809
 30
0.0
 10
177.089331141
 20
98.6620797875
 30
0.0
 10
176.9357132908
 20
99.9892515784
 30
0.0
 10
176.9357132908
 20
100.6711203489
 30
0.0
  0
SPLINE
  5
529
100
AcDbEntity
  8
0
100
AcDbSpline
 62
7
  6
CONTINUOUS
 70
0
 71
3
 72
16
 73
12
 74
0
 42
0.0000001
 43
0.0000001
 44
0.0000000001
 40
0.0
 40
0.0
 40
0.0
 40
0.0
 40
0.1233893094
 40
0.2561798015
 40
0.3892506472
 40
0.5125434167
 40
0.6222540173
 40
0.7203285446
 40
0.8117172426
 40
0.9022055939
 40
1.0
 40
1.0
 40
1.0
 40
1.0
 10
181.4587162712
 20
108.1410767805
 30
0.0
 10
182.1048240733
 20
108.5141050672
 30
0.0
 10
183.5524233105
 20
109.1187476629
 30
0.0
 10
185.91551152
 20
109.4247888171
 30
0.0
 10
188.2733106249
 20
109.0734858775
 30
0.0
 10
190.3208728536
 20
108.1698897824
 30
0.0
 10
191.9168348918
 20
106.9322691373
 30
0.0
 10
193.079934017
 20
105.5300827073
 30
0.0
 10
193.8848921299
 20
104.028925726
 30
0.0
 10
194.3880664812
 20
102.4044672907
 30
0.0
 10
194.5052181656
 20
101.2624234893
 30
0.0
 10
194.5052181656
 20
100.6711203489
 30
0.0
  0
SPLINE
  5
52A
100
AcDbEntity
  8
0
100
AcDbSpline
 62
7
  6
CONTINUOUS
 70
0
 71
3
 72
15
 73
11
 74
0
 42
0.0000001
 43
0.0000001
 44
0.0000000001
 40
0.0
 40
0.0
 40
0.0
 40
0.0
 40
0.135461843
 40
0.2807357135
 40
0.4256536689
 40
0.5613445754
 40
0.6782002986
 40
0.7863009503
 40
0.8897769075
 40
1.0
 40
1.0
 40
1.0
 40
1.0
 10
181.3505183565
 20
108.3284821847
 30
0.0
 10
182.0762506827
 20
108.7474814375
 30
0.0
 10
183.7140813478
 20
109.4036407703
 30
0.0
 10
186.3782638478
 20
109.6281578564
 30
0.0
 10
188.9891209809
 20
109.0397039569
 30
0.0
 10
191.1559876424
 20
107.8079723698
 30
0.0
 10
192.7567551982
 20
106.222863075
 30
0.0
 10
193.8398434089
 20
104.4834481247
 30
0.0
 10
194.5046165958
 20
102.5918189181
 30
0.0
 10
194.6582344461
 20
101.2646471271
 30
0.0
 10
194.6582344461
 20
100.5827783567
 30
0.0
  0
SPLINE
  5
52B
100
AcDbEntity
  8
0
100
AcDbSpline
 62
7
  6
CONTINUOUS
 70
0
 71
3
 72
16
 73
12
 74
0
 42
0.0000001
 43
0.0000001
 44
0.0000000001
 40
0.0
 40
0.0
 40
0.0
 40
0.0
 40
0.1233893094
 40
0.2561798015
 40
0.3892506472
 40
0.5125434167
 40
0.6222540173
 40
0.7203285446
 40
0.8117172426
 40
0.9022055939
 40
1.0
 40
1.0
 40
1.0
 40
1.0
 10
190.1352314656
 20
93.1128219251
 30
0.0
 10
189.4891236635
 20
92.7397936383
 30
0.0
 10
188.0415244263
 20
92.1351510427
 30
0.0
 10
185.6784362169
 20
91.8291098884
 30
0.0
 10
183.320637112
 20
92.180412828
 30
0.0
 10
181.2730748833
 20
93.0840089232
 30
0.0
 10
179.6771128451
 20
94.3216295683
 30
0.0
 10
178.5140137199
 20
95.7238159983
 30
0.0
 10
177.709055607
 20
97.2249729796
 30
0.0
 10
177.2058812557
 20
98.8494314149
 30
0.0
 10
177.0887295713
 20
99.9914752163
 30
0.0
 10
177.0887295713
 20
100.5827783567
 30
0.0
  0
ELLIPSE
  5
52C
100
AcDbEntity
  8
0
100
AcDbEllipse
 62
7
  6
CONTINUOUS
 10
125.6998586659
 20
112.7041429076
 30
0.0
 11
1.6718903782
 21
-1.1274559354
 31
0.0
 40
0.0751481205
 41
-2.2435806361
 42
-0.9362094113
  0
ELLIPSE
  5
52D
100
AcDbEntity
  8
0
100
AcDbEllipse
 62
7
  6
CONTINUOUS
 10
250.4137102352
 20
42.3009558443
 30
0.0
 11
1.6718901152
 21
-1.1274560824
 31
0.0
 40
0.0751482742
 41
0.2686918884
 42
0.5995047519
  0
ELLIPSE
  5
52E
100
AcDbEntity
  8
0
100
AcDbEllipse
 62
7
  6
CONTINUOUS
 10
251.6164939053
 20
42.9953791748
 30
0.0
 11
1.5742395398
 21
2.3344177869
 31
0.0
 40
0.5249860043
 41
-2.3195574652
 42
-2.014219924
  0
ELLIPSE
  5
52F
100
AcDbEntity
  8
0
100
AcDbEllipse
 62
7
  6
CONTINUOUS
 10
249.0291238312
 20
41.5015692829
 30
0.0
 11
1.6718903782
 21
-1.1274559354
 31
0.0
 40
0.0751481205
 41
5.5753246434
 42
6.8826901216
  0
ELLIPSE
  5
530
100
AcDbEntity
  8
0
100
AcDbEllipse
 62
7
  6
CONTINUOUS
 10
199.3060829893
 20
278.8191363501
 30
0.0
 11
74.7947991898
 21
158.6170668234
 31
0.0
 40
0.625236393
 41
-3.6481846404
 42
-3.6039521334
  0
ELLIPSE
  5
531
100
AcDbEntity
  8
0
100
AcDbEllipse
 62
7
  6
CONTINUOUS
 10
151.7260565967
 20
215.7440500553
 30
0.0
 11
-30.3972374616
 21
83.3177206785
 31
0.0
 40
0.4234325054
 41
-0.5117609472
 42
-0.4690998385
  0
ELLIPSE
  5
532
100
AcDbEntity
  8
0
100
AcDbEllipse
 62
7
  6
CONTINUOUS
 10
151.626066998
 20
215.6863213782
 30
0.0
 11
64.9022573164
 21
-61.6027885259
 31
0.0
 40
0.694267151
 41
1.9113550655
 42
1.950845916
  0
ELLIPSE
  5
533
100
AcDbEntity
  8
0
100
AcDbEllipse
 62
7
  6
CONTINUOUS
 10
161.6896944869
 20
118.4899740974
 30
0.0
 11
0.9863657088
 21
0.0352848017
 31
0.0
 40
0.599745805
 41
-2.0648527618
 42
-0.810469082
  0
ELLIPSE
  5
534
100
AcDbEntity
  8
0
100
AcDbEllipse
 62
7
  6
CONTINUOUS
 10
271.3348973071
 20
205.0734505095
 30
0.0
 11
179.1813231283
 21
6.4097701296
 31
0.0
 40
0.599745805
 41
3.8049978338
 42
4.0060584292
  0
ELLIPSE
  5
535
100
AcDbEntity
  8
0
100
AcDbEllipse
 62
7
  6
CONTINUOUS
 10
147.3273913046
 20
141.3841880441
 30
0.0
 11
19.0461584951
 21
0.6813293689
 31
0.0
 40
0.599745805
 41
-2.6916208526
 42
-2.4821230792
  0
ELLIPSE
  5
536
100
AcDbEntity
  8
0
100
AcDbEllipse
 62
7
  6
CONTINUOUS
 10
169.9530574802
 20
128.3204761462
 30
0.0
 11
19.0456357715
 21
0.6813106698
 31
0.0
 40
0.599745805
 41
-2.2730699001
 42
-2.0672569985
  0
ELLIPSE
  5
537
100
AcDbEntity
  8
0
100
AcDbEllipse
 62
7
  6
CONTINUOUS
 10
330.2574696025
 20
226.097666634
 30
0.0
 11
110.8262329462
 21
164.3462543845
 31
0.0
 40
0.5249897575
 41
-3.5687871279
 42
-3.5298354918
  0
ENDSEC
  0
SECTION
  2
OBJECTS
  0
DICTIONARY
  5
C
100
AcDbDictionary
280
0
281
1
  3
ACAD_GROUP
350
D
  3
ACAD_MLINESTYLE
350
17
  3
ACAD_LAYOUT
350
1A
  3
ACAD_PLOTSETTINGS
350
19
  3
ACAD_PLOTSTYLENAME
350
E
  0
DICTIONARY
  5
D
102
{ACAD_REACTORS
330
C
102
}
100
AcDbDictionary
280
0
281
1
  0
ACDBDICTIONARYWDFLT
  5
E
102
{ACAD_REACTORS
330
C
102
}
100
AcDbDictionary
281
1
  3
Normal
350
F
100
AcDbDictionaryWithDefault
340
F
  0
DICTIONARY
  5
17
102
{ACAD_REACTORS
330
C
102
}
100
AcDbDictionary
280
0
281
1
  3
Standard
350
18
  0
DICTIONARY
  5
19
102
{ACAD_REACTORS
330
C
102
}
100
AcDbDictionary
281
1
  0
DICTIONARY
  5
1A
102
{ACAD_REACTORS
330
C
102
}
100
AcDbDictionary
281
1
  3
Model
350
538
  3
Layout1
350
539
  0
ACDBPLACEHOLDER
  5
F
102
{ACAD_REACTORS
330
E
102
}
  0
MLINESTYLE
  5
18
102
{ACAD_REACTORS
330
17
102
}
100
AcDbMlineStyle
  2
STANDARD
 70
0
  3

 62
256
 51
90.0
 52
90.0
 71
2
 49
0.5
 62
256
  6
BYLAYER
 49
-0.5
 62
256
  6
BYLAYER
  0
LAYOUT
  5
538
102
{ACAD_REACTORS
330
1A
102
}
100
AcDbPlotSettings
  1

  2
none_device
  4

  6

 40
0.0
 41
0.0
 42
0.0
 43
0.0
 44
210.0
 45
297.0
 46
0.0
 47
0.0
 48
0.0
 49
0.0
140
0.0
141
0.0
142
1.0
143
1.0
 70
1024
 72
1
 73
0
 74
0
  7

 75
0
147
1.0
148
0.0
149
0.0
100
AcDbLayout
  1
Model
 70
0
 71
0
 10
0.0
 20
0.0
 11
210.0
 21
297.0
 12
0.0
 22
0.0
 32
0.0
 14
0.0
 24
0.0
 34
0.0
 15
0.0
 25
0.0
 35
0.0
146
0.0
 13
0.0
 23
0.0
 33
0.0
 16
1.0
 26
0.0
 36
0.0
 17
0.0
 27
1.0
 37
0.0
 76
0
330
210
345
0
346
0
  0
LAYOUT
  5
539
102
{ACAD_REACTORS
330
1A
102
}
100
AcDbPlotSettings
  1

  2
none_device
  4

  6

 40
0.0
 41
0.0
 42
0.0
 43
0.0
 44
210.0
 45
297.0
 46
0.0
 47
0.0
 48
0.0
 49
0.0
140
0.0
141
0.0
142
1.0
143
1.0
 70
0
 72
1
 73
0
 74
0
  7

 75
0
147
1.0
148
0.0
149
0.0
100
AcDbLayout
  1
Layout1
 70
0
 71
1
 10
0.0
 20
0.0
 11
210.0
 21
297.0
 12
0.0
 22
0.0
 32
0.0
 14
0.0
 24
0.0
 34
0.0
 15
0.0
 25
0.0
 35
0.0
146
0.0
 13
0.0
 23
0.0
 33
0.0
 16
1.0
 26
0.0
 36
0.0
 17
0.0
 27
1.0
 37
0.0
 76
0
330
211
345
0
346
0
  0
ENDSEC
  0
EOF
